  0
SECTION
  2
HEADER
  9
$ACADVER
  1
AC1006
  9
$EXTMIN
 10
4.985200
 20
0.433840
  9
$EXTMAX
 10
7.346680
 20
1.560240
  9
$LTSCALE
 40
0.044000
  9
$PDMODE
 70
    35
  9
$PDSIZE
 40
0.035200
  0
ENDSEC
  0
SECTION
  2
TABLES
  0
TABLE
  2
LTYPE
 70
     9
  0
LTYPE
  2
CONTINUOUS
 70
    64
  3
Solid line
 72
    65
 73
     0
 40
0.000000
  0
LTYPE
  2
DASHED
 70
    64
  3
__ __ __ __ __ __ __ __ __ __ __ __ __ __ __
 72
    65
 73
     2
 40
0.000330
 49
0.000220
 49
-0.000110
  0
LTYPE
  2
HIDDEN
 70
    64
  3
 _ _ _ _ _ _ _ _ _ _ _ _ _ _ _ _ _ _ _ _ _ _
 72
    65
 73
     2
 40
0.000165
 49
0.000110
 49
-0.000055
  0
LTYPE
  2
CENTER
 70
    64
  3
____ _ ____ _ ____ _ ____ _ ____ _ ____ _ ____
 72
    65
 73
     4
 40
0.000880
 49
0.000550
 49
-0.000110
 49
0.000110
 49
-0.000110
  0
LTYPE
  2
PHANTOM
 70
    64
  3
_____ _ _ _____ _ _ _____ _ _ _____ _ _ ____
 72
    65
 73
     6
 40
0.001100
 49
0.000550
 49
-0.000110
 49
0.000110
 49
-0.000110
 49
0.000110
 49
-0.000110
  0
LTYPE
  2
DOT
 70
    64
  3
...............................................
 72
    65
 73
     2
 40
0.000110
 49
0.000000
 49
-0.000110
  0
LTYPE
  2
DASHDOT
 70
    64
  3
__ . __ . __ . __ . __ . __ . __ . __ . __ . __
 72
    65
 73
     4
 40
0.000440
 49
0.000220
 49
-0.000110
 49
0.000000
 49
-0.000110
  0
LTYPE
  2
BORDER
 70
    64
  3
__ __ . __ __ . __ __ . __ __ . __ __ . __ __
 72
    65
 73
     6
 40
0.000770
 49
0.000220
 49
-0.000110
 49
0.000220
 49
-0.000110
 49
0.000000
 49
-0.000110
  0
LTYPE
  2
DIVIDE
 70
    64
  3
__ . . __ . . __ . . __ . . __ . . __ . . __
 72
    65
 73
     6
 40
0.000550
 49
0.000220
 49
-0.000110
 49
0.000000
 49
-0.000110
 49
0.000000
 49
-0.000110
  0
LTYPE
  2
DOTDOT
 70
    64
  3
 . .  . .  . .  . .  . .  . . 
 72
    65
 73
     5
 40
0.000242
 49
-0.000110
 49
0.000000
 49
-0.000110
 49
0.000000
 49
-0.000110
  0
ENDTAB
  0
TABLE
  2
STYLE
 70
     2
  0
STYLE
 70
     0
  2
SN0
 40
0.000000
 41
0.000440
 50
0.000000
 71
     0
 42
0.000000
  3
ROMAND
  0
STYLE
 70
    68
  2
SV0
 40
0.000000
 41
0.000440
 50
0.000000
 71
     0
 42
0.000000
  3
ROMAND
  0
ENDTAB
  0
TABLE
  2
LAYER
 70
     3
  0
LAYER
  2
FOREGROUND
 70
    64
 62
     7
  6
CONTINUOUS
  0
LAYER
  2
BACKGROUND
 70
    65
 62
    -7
  6
CONTINUOUS
  0
LAYER
  2
0
 70
    64
 62
     7
  6
CONTINUOUS
  0
ENDTAB
  0
ENDSEC
  0
SECTION
  2
ENTITIES
  0
POLYLINE
  8
FOREGROUND
  6
CONTINUOUS
 66
     1
 40
0.000000
 41
0.000000
  0
VERTEX
  8
FOREGROUND
  6
CONTINUOUS
 10
0.000000
 20
1.994080
  0
VERTEX
  8
FOREGROUND
  6
CONTINUOUS
 10
8.499920
 20
1.994080
  0
VERTEX
  8
FOREGROUND
  6
CONTINUOUS
 10
8.499920
 20
-9.005920
  0
VERTEX
  8
FOREGROUND
  6
CONTINUOUS
 10
0.000000
 20
-9.005920
  0
VERTEX
  8
FOREGROUND
  6
CONTINUOUS
 10
0.000000
 20
1.994080
  0
SEQEND
  8
0
  0
POLYLINE
  8
FOREGROUND
  6
CONTINUOUS
 66
     1
 40
0.000000
 41
0.000000
  0
VERTEX
  8
FOREGROUND
  6
CONTINUOUS
 10
0.000000
 20
1.994080
  0
VERTEX
  8
FOREGROUND
  6
CONTINUOUS
 10
8.499920
 20
1.994080
  0
VERTEX
  8
FOREGROUND
  6
CONTINUOUS
 10
8.499920
 20
-9.005920
  0
VERTEX
  8
FOREGROUND
  6
CONTINUOUS
 10
0.000000
 20
-9.005920
  0
VERTEX
  8
FOREGROUND
  6
CONTINUOUS
 10
0.000000
 20
1.994080
  0
SEQEND
  8
0
  0
POLYLINE
  8
0
  6
CONTINUOUS
 66
     1
 40
0.014080
 41
0.014080
  0
VERTEX
  8
0
  6
CONTINUOUS
 10
6.893920
 20
1.344640
  0
VERTEX
  8
0
  6
CONTINUOUS
 10
6.904920
 20
1.358720
  0
VERTEX
  8
0
  6
CONTINUOUS
 10
6.915920
 20
1.371040
  0
VERTEX
  8
0
  6
CONTINUOUS
 10
6.926920
 20
1.380720
  0
VERTEX
  8
0
  6
CONTINUOUS
 10
6.937480
 20
1.389080
  0
VERTEX
  8
0
  6
CONTINUOUS
 10
6.948040
 20
1.394800
  0
VERTEX
  8
0
  6
CONTINUOUS
 10
6.959040
 20
1.399200
  0
VERTEX
  8
0
  6
CONTINUOUS
 10
6.969600
 20
1.401400
  0
VERTEX
  8
0
  6
CONTINUOUS
 10
6.980600
 20
1.401400
  0
VERTEX
  8
0
  6
CONTINUOUS
 10
6.992040
 20
1.400080
  0
VERTEX
  8
0
  6
CONTINUOUS
 10
7.003480
 20
1.396560
  0
VERTEX
  8
0
  6
CONTINUOUS
 10
7.015800
 20
1.391720
  0
VERTEX
  8
0
  6
CONTINUOUS
 10
7.028120
 20
1.384680
  0
VERTEX
  8
0
  6
CONTINUOUS
 10
7.040880
 20
1.376320
  0
VERTEX
  8
0
  6
CONTINUOUS
 10
7.054520
 20
1.366200
  0
VERTEX
  8
0
  6
CONTINUOUS
 10
7.069040
 20
1.354320
  0
VERTEX
  8
0
  6
CONTINUOUS
 10
7.084000
 20
1.340680
  0
VERTEX
  8
0
  6
CONTINUOUS
 10
7.099840
 20
1.327040
  0
VERTEX
  8
0
  6
CONTINUOUS
 10
7.116120
 20
1.314720
  0
VERTEX
  8
0
  6
CONTINUOUS
 10
7.133280
 20
1.303280
  0
VERTEX
  8
0
  6
CONTINUOUS
 10
7.150880
 20
1.293160
  0
VERTEX
  8
0
  6
CONTINUOUS
 10
7.168480
 20
1.284360
  0
VERTEX
  8
0
  6
CONTINUOUS
 10
7.186080
 20
1.276440
  0
VERTEX
  8
0
  6
CONTINUOUS
 10
7.204120
 20
1.269400
  0
VERTEX
  8
0
  6
CONTINUOUS
 10
7.221720
 20
1.263680
  0
VERTEX
  8
0
  6
CONTINUOUS
 10
7.238880
 20
1.258400
  0
VERTEX
  8
0
  6
CONTINUOUS
 10
7.255600
 20
1.254000
  0
VERTEX
  8
0
  6
CONTINUOUS
 10
7.271880
 20
1.250040
  0
VERTEX
  8
0
  6
CONTINUOUS
 10
7.287720
 20
1.246960
  0
VERTEX
  8
0
  6
CONTINUOUS
 10
7.302240
 20
1.244320
  0
VERTEX
  8
0
  6
CONTINUOUS
 10
7.315880
 20
1.242120
  0
VERTEX
  8
0
  6
CONTINUOUS
 10
7.328200
 20
1.240800
  0
VERTEX
  8
0
  6
CONTINUOUS
 10
7.339640
 20
1.239480
  0
VERTEX
  8
0
  6
CONTINUOUS
 10
7.339640
 20
1.144440
  0
VERTEX
  8
0
  6
CONTINUOUS
 10
6.681840
 20
1.144440
  0
VERTEX
  8
0
  6
CONTINUOUS
 10
6.681840
 20
1.464760
  0
VERTEX
  8
0
  6
CONTINUOUS
 10
6.871920
 20
1.464760
  0
VERTEX
  8
0
  6
CONTINUOUS
 10
6.893920
 20
1.344640
  0
SEQEND
  8
0
  0
SOLID
  8
0
 62
    15
 10
5.388680
 20
1.059520
 11
6.040760
 21
1.435720
 12
5.420800
 22
1.033120
 13
6.072880
 23
1.409320
  0
POLYLINE
  8
0
  6
CONTINUOUS
 66
     1
 40
0.000000
 41
0.000000
  0
VERTEX
  8
0
  6
CONTINUOUS
 10
5.388680
 20
1.059520
  0
VERTEX
  8
0
  6
CONTINUOUS
 10
6.040760
 20
1.435720
  0
VERTEX
  8
0
  6
CONTINUOUS
 10
6.072880
 20
1.409320
  0
VERTEX
  8
0
  6
CONTINUOUS
 10
5.420800
 20
1.033120
  0
VERTEX
  8
0
  6
CONTINUOUS
 10
5.388680
 20
1.059520
  0
SEQEND
  8
0
  0
SOLID
  8
0
 62
    15
 10
5.187160
 20
1.123320
 11
5.839240
 21
1.499960
 12
5.198160
 22
1.063480
 13
5.850240
 23
1.439680
  0
POLYLINE
  8
0
  6
CONTINUOUS
 66
     1
 40
0.000000
 41
0.000000
  0
VERTEX
  8
0
  6
CONTINUOUS
 10
5.187160
 20
1.123320
  0
VERTEX
  8
0
  6
CONTINUOUS
 10
5.839240
 20
1.499960
  0
VERTEX
  8
0
  6
CONTINUOUS
 10
5.850240
 20
1.439680
  0
VERTEX
  8
0
  6
CONTINUOUS
 10
5.198160
 20
1.063480
  0
VERTEX
  8
0
  6
CONTINUOUS
 10
5.187160
 20
1.123320
  0
SEQEND
  8
0
  0
SOLID
  8
0
 62
    15
 10
5.263280
 20
1.118040
 11
5.915360
 21
1.494240
 12
5.274280
 22
1.120240
 13
5.926360
 23
1.496440
  0
POLYLINE
  8
0
  6
CONTINUOUS
 66
     1
 40
0.000000
 41
0.000000
  0
VERTEX
  8
0
  6
CONTINUOUS
 10
5.263280
 20
1.118040
  0
VERTEX
  8
0
  6
CONTINUOUS
 10
5.915360
 20
1.494240
  0
VERTEX
  8
0
  6
CONTINUOUS
 10
5.926360
 20
1.496440
  0
VERTEX
  8
0
  6
CONTINUOUS
 10
5.274280
 20
1.120240
  0
VERTEX
  8
0
  6
CONTINUOUS
 10
5.263280
 20
1.118040
  0
SEQEND
  8
0
  0
SOLID
  8
0
 62
    15
 10
5.274280
 20
1.120240
 11
5.926360
 21
1.496440
 12
5.285280
 22
1.120240
 13
5.937360
 23
1.496880
  0
POLYLINE
  8
0
  6
CONTINUOUS
 66
     1
 40
0.000000
 41
0.000000
  0
VERTEX
  8
0
  6
CONTINUOUS
 10
5.274280
 20
1.120240
  0
VERTEX
  8
0
  6
CONTINUOUS
 10
5.926360
 20
1.496440
  0
VERTEX
  8
0
  6
CONTINUOUS
 10
5.937360
 20
1.496880
  0
VERTEX
  8
0
  6
CONTINUOUS
 10
5.285280
 20
1.120240
  0
VERTEX
  8
0
  6
CONTINUOUS
 10
5.274280
 20
1.120240
  0
SEQEND
  8
0
  0
SOLID
  8
0
 62
    15
 10
5.285280
 20
1.120240
 11
5.937360
 21
1.496880
 12
5.296280
 22
1.118920
 13
5.948800
 23
1.495120
  0
POLYLINE
  8
0
  6
CONTINUOUS
 66
     1
 40
0.000000
 41
0.000000
  0
VERTEX
  8
0
  6
CONTINUOUS
 10
5.285280
 20
1.120240
  0
VERTEX
  8
0
  6
CONTINUOUS
 10
5.937360
 20
1.496880
  0
VERTEX
  8
0
  6
CONTINUOUS
 10
5.948800
 20
1.495120
  0
VERTEX
  8
0
  6
CONTINUOUS
 10
5.296280
 20
1.118920
  0
VERTEX
  8
0
  6
CONTINUOUS
 10
5.285280
 20
1.120240
  0
SEQEND
  8
0
  0
SOLID
  8
0
 62
    15
 10
5.296280
 20
1.118920
 11
5.948800
 21
1.495120
 12
5.308160
 22
1.115400
 13
5.960240
 23
1.492040
  0
POLYLINE
  8
0
  6
CONTINUOUS
 66
     1
 40
0.000000
 41
0.000000
  0
VERTEX
  8
0
  6
CONTINUOUS
 10
5.296280
 20
1.118920
  0
VERTEX
  8
0
  6
CONTINUOUS
 10
5.948800
 20
1.495120
  0
VERTEX
  8
0
  6
CONTINUOUS
 10
5.960240
 20
1.492040
  0
VERTEX
  8
0
  6
CONTINUOUS
 10
5.308160
 20
1.115400
  0
VERTEX
  8
0
  6
CONTINUOUS
 10
5.296280
 20
1.118920
  0
SEQEND
  8
0
  0
SOLID
  8
0
 62
    15
 10
5.308160
 20
1.115400
 11
5.960240
 21
1.492040
 12
5.320040
 22
1.110560
 13
5.972120
 23
1.486760
  0
POLYLINE
  8
0
  6
CONTINUOUS
 66
     1
 40
0.000000
 41
0.000000
  0
VERTEX
  8
0
  6
CONTINUOUS
 10
5.308160
 20
1.115400
  0
VERTEX
  8
0
  6
CONTINUOUS
 10
5.960240
 20
1.492040
  0
VERTEX
  8
0
  6
CONTINUOUS
 10
5.972120
 20
1.486760
  0
VERTEX
  8
0
  6
CONTINUOUS
 10
5.320040
 20
1.110560
  0
VERTEX
  8
0
  6
CONTINUOUS
 10
5.308160
 20
1.115400
  0
SEQEND
  8
0
  0
SOLID
  8
0
 62
    15
 10
5.320040
 20
1.110560
 11
5.972120
 21
1.486760
 12
5.332360
 22
1.103520
 13
5.984880
 23
1.479720
  0
POLYLINE
  8
0
  6
CONTINUOUS
 66
     1
 40
0.000000
 41
0.000000
  0
VERTEX
  8
0
  6
CONTINUOUS
 10
5.320040
 20
1.110560
  0
VERTEX
  8
0
  6
CONTINUOUS
 10
5.972120
 20
1.486760
  0
VERTEX
  8
0
  6
CONTINUOUS
 10
5.984880
 20
1.479720
  0
VERTEX
  8
0
  6
CONTINUOUS
 10
5.332360
 20
1.103520
  0
VERTEX
  8
0
  6
CONTINUOUS
 10
5.320040
 20
1.110560
  0
SEQEND
  8
0
  0
SOLID
  8
0
 62
    15
 10
5.332360
 20
1.103520
 11
5.984880
 21
1.479720
 12
5.345560
 22
1.095160
 13
5.997640
 23
1.471360
  0
POLYLINE
  8
0
  6
CONTINUOUS
 66
     1
 40
0.000000
 41
0.000000
  0
VERTEX
  8
0
  6
CONTINUOUS
 10
5.332360
 20
1.103520
  0
VERTEX
  8
0
  6
CONTINUOUS
 10
5.984880
 20
1.479720
  0
VERTEX
  8
0
  6
CONTINUOUS
 10
5.997640
 20
1.471360
  0
VERTEX
  8
0
  6
CONTINUOUS
 10
5.345560
 20
1.095160
  0
VERTEX
  8
0
  6
CONTINUOUS
 10
5.332360
 20
1.103520
  0
SEQEND
  8
0
  0
SOLID
  8
0
 62
    15
 10
5.345560
 20
1.095160
 11
5.997640
 21
1.471360
 12
5.359200
 22
1.084600
 13
6.011280
 23
1.460800
  0
POLYLINE
  8
0
  6
CONTINUOUS
 66
     1
 40
0.000000
 41
0.000000
  0
VERTEX
  8
0
  6
CONTINUOUS
 10
5.345560
 20
1.095160
  0
VERTEX
  8
0
  6
CONTINUOUS
 10
5.997640
 20
1.471360
  0
VERTEX
  8
0
  6
CONTINUOUS
 10
6.011280
 20
1.460800
  0
VERTEX
  8
0
  6
CONTINUOUS
 10
5.359200
 20
1.084600
  0
VERTEX
  8
0
  6
CONTINUOUS
 10
5.345560
 20
1.095160
  0
SEQEND
  8
0
  0
SOLID
  8
0
 62
    15
 10
5.359200
 20
1.084600
 11
6.011280
 21
1.460800
 12
5.373280
 22
1.072720
 13
6.025800
 23
1.448920
  0
POLYLINE
  8
0
  6
CONTINUOUS
 66
     1
 40
0.000000
 41
0.000000
  0
VERTEX
  8
0
  6
CONTINUOUS
 10
5.359200
 20
1.084600
  0
VERTEX
  8
0
  6
CONTINUOUS
 10
6.011280
 20
1.460800
  0
VERTEX
  8
0
  6
CONTINUOUS
 10
6.025800
 20
1.448920
  0
VERTEX
  8
0
  6
CONTINUOUS
 10
5.373280
 20
1.072720
  0
VERTEX
  8
0
  6
CONTINUOUS
 10
5.359200
 20
1.084600
  0
SEQEND
  8
0
  0
SOLID
  8
0
 62
    15
 10
5.373280
 20
1.072720
 11
6.025800
 21
1.448920
 12
5.388680
 22
1.059520
 13
6.040760
 23
1.435720
  0
POLYLINE
  8
0
  6
CONTINUOUS
 66
     1
 40
0.000000
 41
0.000000
  0
VERTEX
  8
0
  6
CONTINUOUS
 10
5.373280
 20
1.072720
  0
VERTEX
  8
0
  6
CONTINUOUS
 10
6.025800
 20
1.448920
  0
VERTEX
  8
0
  6
CONTINUOUS
 10
6.040760
 20
1.435720
  0
VERTEX
  8
0
  6
CONTINUOUS
 10
5.388680
 20
1.059520
  0
VERTEX
  8
0
  6
CONTINUOUS
 10
5.373280
 20
1.072720
  0
SEQEND
  8
0
  0
SOLID
  8
0
 62
    15
 10
5.241720
 20
1.107920
 11
5.893800
 21
1.484120
 12
5.252280
 22
1.113640
 13
5.904800
 23
1.490280
  0
POLYLINE
  8
0
  6
CONTINUOUS
 66
     1
 40
0.000000
 41
0.000000
  0
VERTEX
  8
0
  6
CONTINUOUS
 10
5.241720
 20
1.107920
  0
VERTEX
  8
0
  6
CONTINUOUS
 10
5.893800
 20
1.484120
  0
VERTEX
  8
0
  6
CONTINUOUS
 10
5.904800
 20
1.490280
  0
VERTEX
  8
0
  6
CONTINUOUS
 10
5.252280
 20
1.113640
  0
VERTEX
  8
0
  6
CONTINUOUS
 10
5.241720
 20
1.107920
  0
SEQEND
  8
0
  0
SOLID
  8
0
 62
    15
 10
5.420800
 20
1.033120
 11
6.072880
 21
1.409320
 12
5.455120
 22
1.012000
 13
6.107200
 23
1.388200
  0
POLYLINE
  8
0
  6
CONTINUOUS
 66
     1
 40
0.000000
 41
0.000000
  0
VERTEX
  8
0
  6
CONTINUOUS
 10
5.420800
 20
1.033120
  0
VERTEX
  8
0
  6
CONTINUOUS
 10
6.072880
 20
1.409320
  0
VERTEX
  8
0
  6
CONTINUOUS
 10
6.107200
 20
1.388200
  0
VERTEX
  8
0
  6
CONTINUOUS
 10
5.455120
 20
1.012000
  0
VERTEX
  8
0
  6
CONTINUOUS
 10
5.420800
 20
1.033120
  0
SEQEND
  8
0
  0
SOLID
  8
0
 62
    15
 10
5.455120
 20
1.012000
 11
6.107200
 21
1.388200
 12
5.490760
 22
0.995280
 13
6.142840
 23
1.371480
  0
POLYLINE
  8
0
  6
CONTINUOUS
 66
     1
 40
0.000000
 41
0.000000
  0
VERTEX
  8
0
  6
CONTINUOUS
 10
5.455120
 20
1.012000
  0
VERTEX
  8
0
  6
CONTINUOUS
 10
6.107200
 20
1.388200
  0
VERTEX
  8
0
  6
CONTINUOUS
 10
6.142840
 20
1.371480
  0
VERTEX
  8
0
  6
CONTINUOUS
 10
5.490760
 20
0.995280
  0
VERTEX
  8
0
  6
CONTINUOUS
 10
5.455120
 20
1.012000
  0
SEQEND
  8
0
  0
SOLID
  8
0
 62
    15
 10
5.490760
 20
0.995280
 11
6.142840
 21
1.371480
 12
5.525960
 22
0.982080
 13
6.178040
 23
1.358280
  0
POLYLINE
  8
0
  6
CONTINUOUS
 66
     1
 40
0.000000
 41
0.000000
  0
VERTEX
  8
0
  6
CONTINUOUS
 10
5.490760
 20
0.995280
  0
VERTEX
  8
0
  6
CONTINUOUS
 10
6.142840
 20
1.371480
  0
VERTEX
  8
0
  6
CONTINUOUS
 10
6.178040
 20
1.358280
  0
VERTEX
  8
0
  6
CONTINUOUS
 10
5.525960
 20
0.982080
  0
VERTEX
  8
0
  6
CONTINUOUS
 10
5.490760
 20
0.995280
  0
SEQEND
  8
0
  0
SOLID
  8
0
 62
    15
 10
5.525960
 20
0.982080
 11
6.178040
 21
1.358280
 12
5.559840
 22
0.972840
 13
6.212360
 23
1.349040
  0
POLYLINE
  8
0
  6
CONTINUOUS
 66
     1
 40
0.000000
 41
0.000000
  0
VERTEX
  8
0
  6
CONTINUOUS
 10
5.525960
 20
0.982080
  0
VERTEX
  8
0
  6
CONTINUOUS
 10
6.178040
 20
1.358280
  0
VERTEX
  8
0
  6
CONTINUOUS
 10
6.212360
 20
1.349040
  0
VERTEX
  8
0
  6
CONTINUOUS
 10
5.559840
 20
0.972840
  0
VERTEX
  8
0
  6
CONTINUOUS
 10
5.525960
 20
0.982080
  0
SEQEND
  8
0
  0
SOLID
  8
0
 62
    15
 10
5.559840
 20
0.972840
 11
6.212360
 21
1.349040
 12
5.591960
 22
0.965800
 13
6.244040
 23
1.342000
  0
POLYLINE
  8
0
  6
CONTINUOUS
 66
     1
 40
0.000000
 41
0.000000
  0
VERTEX
  8
0
  6
CONTINUOUS
 10
5.559840
 20
0.972840
  0
VERTEX
  8
0
  6
CONTINUOUS
 10
6.212360
 20
1.349040
  0
VERTEX
  8
0
  6
CONTINUOUS
 10
6.244040
 20
1.342000
  0
VERTEX
  8
0
  6
CONTINUOUS
 10
5.591960
 20
0.965800
  0
VERTEX
  8
0
  6
CONTINUOUS
 10
5.559840
 20
0.972840
  0
SEQEND
  8
0
  0
SOLID
  8
0
 62
    15
 10
5.591960
 20
0.965800
 11
6.244040
 21
1.342000
 12
5.620120
 22
0.960960
 13
6.272200
 23
1.337600
  0
POLYLINE
  8
0
  6
CONTINUOUS
 66
     1
 40
0.000000
 41
0.000000
  0
VERTEX
  8
0
  6
CONTINUOUS
 10
5.591960
 20
0.965800
  0
VERTEX
  8
0
  6
CONTINUOUS
 10
6.244040
 20
1.342000
  0
VERTEX
  8
0
  6
CONTINUOUS
 10
6.272200
 20
1.337600
  0
VERTEX
  8
0
  6
CONTINUOUS
 10
5.620120
 20
0.960960
  0
VERTEX
  8
0
  6
CONTINUOUS
 10
5.591960
 20
0.965800
  0
SEQEND
  8
0
  0
SOLID
  8
0
 62
    15
 10
5.620120
 20
0.960960
 11
6.272200
 21
1.337600
 12
5.643880
 22
0.958320
 13
6.295960
 23
1.334520
  0
POLYLINE
  8
0
  6
CONTINUOUS
 66
     1
 40
0.000000
 41
0.000000
  0
VERTEX
  8
0
  6
CONTINUOUS
 10
5.620120
 20
0.960960
  0
VERTEX
  8
0
  6
CONTINUOUS
 10
6.272200
 20
1.337600
  0
VERTEX
  8
0
  6
CONTINUOUS
 10
6.295960
 20
1.334520
  0
VERTEX
  8
0
  6
CONTINUOUS
 10
5.643880
 20
0.958320
  0
VERTEX
  8
0
  6
CONTINUOUS
 10
5.620120
 20
0.960960
  0
SEQEND
  8
0
  0
SOLID
  8
0
 62
    15
 10
5.643880
 20
0.958320
 11
6.295960
 21
1.334520
 12
5.643880
 22
0.863280
 13
6.295960
 23
1.239480
  0
POLYLINE
  8
0
  6
CONTINUOUS
 66
     1
 40
0.000000
 41
0.000000
  0
VERTEX
  8
0
  6
CONTINUOUS
 10
5.643880
 20
0.958320
  0
VERTEX
  8
0
  6
CONTINUOUS
 10
6.295960
 20
1.334520
  0
VERTEX
  8
0
  6
CONTINUOUS
 10
6.295960
 20
1.239480
  0
VERTEX
  8
0
  6
CONTINUOUS
 10
5.643880
 20
0.863280
  0
VERTEX
  8
0
  6
CONTINUOUS
 10
5.643880
 20
0.958320
  0
SEQEND
  8
0
  0
SOLID
  8
0
 62
    15
 10
4.986080
 20
1.183160
 11
5.638160
 21
1.559800
 12
5.176160
 22
1.183160
 13
5.828680
 23
1.559800
  0
POLYLINE
  8
0
  6
CONTINUOUS
 66
     1
 40
0.000000
 41
0.000000
  0
VERTEX
  8
0
  6
CONTINUOUS
 10
4.986080
 20
1.183160
  0
VERTEX
  8
0
  6
CONTINUOUS
 10
5.638160
 20
1.559800
  0
VERTEX
  8
0
  6
CONTINUOUS
 10
5.828680
 20
1.559800
  0
VERTEX
  8
0
  6
CONTINUOUS
 10
5.176160
 20
1.183160
  0
VERTEX
  8
0
  6
CONTINUOUS
 10
4.986080
 20
1.183160
  0
SEQEND
  8
0
  0
SOLID
  8
0
 62
    15
 10
5.176160
 20
1.183160
 11
5.828680
 21
1.559800
 12
5.187160
 22
1.123320
 13
5.839240
 23
1.499960
  0
POLYLINE
  8
0
  6
CONTINUOUS
 66
     1
 40
0.000000
 41
0.000000
  0
VERTEX
  8
0
  6
CONTINUOUS
 10
5.176160
 20
1.183160
  0
VERTEX
  8
0
  6
CONTINUOUS
 10
5.828680
 20
1.559800
  0
VERTEX
  8
0
  6
CONTINUOUS
 10
5.839240
 20
1.499960
  0
VERTEX
  8
0
  6
CONTINUOUS
 10
5.187160
 20
1.123320
  0
VERTEX
  8
0
  6
CONTINUOUS
 10
5.176160
 20
1.183160
  0
SEQEND
  8
0
  0
SOLID
  8
0
 62
    15
 10
5.252280
 20
1.113640
 11
5.904800
 21
1.490280
 12
5.263280
 22
1.118040
 13
5.915360
 23
1.494240
  0
POLYLINE
  8
0
  6
CONTINUOUS
 66
     1
 40
0.000000
 41
0.000000
  0
VERTEX
  8
0
  6
CONTINUOUS
 10
5.252280
 20
1.113640
  0
VERTEX
  8
0
  6
CONTINUOUS
 10
5.904800
 20
1.490280
  0
VERTEX
  8
0
  6
CONTINUOUS
 10
5.915360
 20
1.494240
  0
VERTEX
  8
0
  6
CONTINUOUS
 10
5.263280
 20
1.118040
  0
VERTEX
  8
0
  6
CONTINUOUS
 10
5.252280
 20
1.113640
  0
SEQEND
  8
0
  0
POLYLINE
  8
0
  6
CONTINUOUS
 66
     1
 40
0.000000
 41
0.000000
  0
VERTEX
  8
0
  6
CONTINUOUS
 10
5.198160
 20
1.063480
  0
VERTEX
  8
0
  6
CONTINUOUS
 10
5.209160
 20
1.077560
  0
VERTEX
  8
0
  6
CONTINUOUS
 10
5.220160
 20
1.089880
  0
VERTEX
  8
0
  6
CONTINUOUS
 10
5.231160
 20
1.100000
  0
VERTEX
  8
0
  6
CONTINUOUS
 10
5.241720
 20
1.107920
  0
VERTEX
  8
0
  6
CONTINUOUS
 10
5.252280
 20
1.113640
  0
VERTEX
  8
0
  6
CONTINUOUS
 10
5.263280
 20
1.118040
  0
VERTEX
  8
0
  6
CONTINUOUS
 10
5.274280
 20
1.120240
  0
VERTEX
  8
0
  6
CONTINUOUS
 10
5.285280
 20
1.120240
  0
VERTEX
  8
0
  6
CONTINUOUS
 10
5.296280
 20
1.118920
  0
VERTEX
  8
0
  6
CONTINUOUS
 10
5.308160
 20
1.115400
  0
VERTEX
  8
0
  6
CONTINUOUS
 10
5.320040
 20
1.110560
  0
VERTEX
  8
0
  6
CONTINUOUS
 10
5.332360
 20
1.103520
  0
VERTEX
  8
0
  6
CONTINUOUS
 10
5.345560
 20
1.095160
  0
VERTEX
  8
0
  6
CONTINUOUS
 10
5.359200
 20
1.084600
  0
VERTEX
  8
0
  6
CONTINUOUS
 10
5.373280
 20
1.072720
  0
VERTEX
  8
0
  6
CONTINUOUS
 10
5.388680
 20
1.059520
  0
VERTEX
  8
0
  6
CONTINUOUS
 10
5.420800
 20
1.033120
  0
VERTEX
  8
0
  6
CONTINUOUS
 10
5.455120
 20
1.012000
  0
VERTEX
  8
0
  6
CONTINUOUS
 10
5.490760
 20
0.995280
  0
VERTEX
  8
0
  6
CONTINUOUS
 10
5.525960
 20
0.982080
  0
VERTEX
  8
0
  6
CONTINUOUS
 10
5.559840
 20
0.972840
  0
VERTEX
  8
0
  6
CONTINUOUS
 10
5.591960
 20
0.965800
  0
VERTEX
  8
0
  6
CONTINUOUS
 10
5.620120
 20
0.960960
  0
VERTEX
  8
0
  6
CONTINUOUS
 10
5.643880
 20
0.958320
  0
VERTEX
  8
0
  6
CONTINUOUS
 10
5.643880
 20
0.863280
  0
VERTEX
  8
0
  6
CONTINUOUS
 10
4.986080
 20
0.863280
  0
VERTEX
  8
0
  6
CONTINUOUS
 10
4.986080
 20
1.183160
  0
VERTEX
  8
0
  6
CONTINUOUS
 10
5.176160
 20
1.183160
  0
VERTEX
  8
0
  6
CONTINUOUS
 10
5.187160
 20
1.123320
  0
VERTEX
  8
0
  6
CONTINUOUS
 10
5.198160
 20
1.063480
  0
SEQEND
  8
0
  0
TEXT
  8
0
 10
5.344240
 20
0.669240
 40
0.138112
  1
BA  540
 41
1.000000
  7
SN0
 71
     0
 72
     5
 11
5.934374
 21
0.669240
  0
TEXT
  8
0
 10
5.123800
 20
0.477400
 40
0.138112
  1
5/16" x 11/16"
 41
1.000000
  7
SN0
 71
     0
 72
     5
 11
6.153878
 21
0.477400
  0
ENDSEC
  0
EOF
