  0
SECTION
  2
HEADER
  9
$ACADVER
  1
AC1006
  9
$EXTMIN
 10
2.735040
 20
4.492400
  9
$EXTMAX
 10
5.764440
 20
6.507160
  9
$LTSCALE
 40
0.044000
  9
$PDMODE
 70
    35
  9
$PDSIZE
 40
0.035200
  0
ENDSEC
  0
SECTION
  2
TABLES
  0
TABLE
  2
LTYPE
 70
     9
  0
LTYPE
  2
CONTINUOUS
 70
    64
  3
Solid line
 72
    65
 73
     0
 40
0.000000
  0
LTYPE
  2
DASHED
 70
    64
  3
__ __ __ __ __ __ __ __ __ __ __ __ __ __ __
 72
    65
 73
     2
 40
0.000330
 49
0.000220
 49
-0.000110
  0
LTYPE
  2
HIDDEN
 70
    64
  3
 _ _ _ _ _ _ _ _ _ _ _ _ _ _ _ _ _ _ _ _ _ _
 72
    65
 73
     2
 40
0.000165
 49
0.000110
 49
-0.000055
  0
LTYPE
  2
CENTER
 70
    64
  3
____ _ ____ _ ____ _ ____ _ ____ _ ____ _ ____
 72
    65
 73
     4
 40
0.000880
 49
0.000550
 49
-0.000110
 49
0.000110
 49
-0.000110
  0
LTYPE
  2
PHANTOM
 70
    64
  3
_____ _ _ _____ _ _ _____ _ _ _____ _ _ ____
 72
    65
 73
     6
 40
0.001100
 49
0.000550
 49
-0.000110
 49
0.000110
 49
-0.000110
 49
0.000110
 49
-0.000110
  0
LTYPE
  2
DOT
 70
    64
  3
...............................................
 72
    65
 73
     2
 40
0.000110
 49
0.000000
 49
-0.000110
  0
LTYPE
  2
DASHDOT
 70
    64
  3
__ . __ . __ . __ . __ . __ . __ . __ . __ . __
 72
    65
 73
     4
 40
0.000440
 49
0.000220
 49
-0.000110
 49
0.000000
 49
-0.000110
  0
LTYPE
  2
BORDER
 70
    64
  3
__ __ . __ __ . __ __ . __ __ . __ __ . __ __
 72
    65
 73
     6
 40
0.000770
 49
0.000220
 49
-0.000110
 49
0.000220
 49
-0.000110
 49
0.000000
 49
-0.000110
  0
LTYPE
  2
DIVIDE
 70
    64
  3
__ . . __ . . __ . . __ . . __ . . __ . . __
 72
    65
 73
     6
 40
0.000550
 49
0.000220
 49
-0.000110
 49
0.000000
 49
-0.000110
 49
0.000000
 49
-0.000110
  0
LTYPE
  2
DOTDOT
 70
    64
  3
 . .  . .  . .  . .  . .  . . 
 72
    65
 73
     5
 40
0.000242
 49
-0.000110
 49
0.000000
 49
-0.000110
 49
0.000000
 49
-0.000110
  0
ENDTAB
  0
TABLE
  2
STYLE
 70
     2
  0
STYLE
 70
     0
  2
SN0
 40
0.000000
 41
0.000440
 50
0.000000
 71
     0
 42
0.000000
  3
ROMAND
  0
STYLE
 70
    68
  2
SV0
 40
0.000000
 41
0.000440
 50
0.000000
 71
     0
 42
0.000000
  3
ROMAND
  0
ENDTAB
  0
TABLE
  2
LAYER
 70
     3
  0
LAYER
  2
FOREGROUND
 70
    64
 62
     7
  6
CONTINUOUS
  0
LAYER
  2
BACKGROUND
 70
    65
 62
    -7
  6
CONTINUOUS
  0
LAYER
  2
0
 70
    64
 62
     7
  6
CONTINUOUS
  0
ENDTAB
  0
ENDSEC
  0
SECTION
  2
ENTITIES
  0
POLYLINE
  8
FOREGROUND
  6
CONTINUOUS
 66
     1
 40
0.000000
 41
0.000000
  0
VERTEX
  8
FOREGROUND
  6
CONTINUOUS
 10
0.000000
 20
10.999560
  0
VERTEX
  8
FOREGROUND
  6
CONTINUOUS
 10
8.499920
 20
10.999560
  0
VERTEX
  8
FOREGROUND
  6
CONTINUOUS
 10
8.499920
 20
-0.000440
  0
VERTEX
  8
FOREGROUND
  6
CONTINUOUS
 10
0.000000
 20
-0.000440
  0
VERTEX
  8
FOREGROUND
  6
CONTINUOUS
 10
0.000000
 20
10.999560
  0
SEQEND
  8
0
  0
POLYLINE
  8
FOREGROUND
  6
CONTINUOUS
 66
     1
 40
0.000000
 41
0.000000
  0
VERTEX
  8
FOREGROUND
  6
CONTINUOUS
 10
0.000000
 20
10.999560
  0
VERTEX
  8
FOREGROUND
  6
CONTINUOUS
 10
8.499920
 20
10.999560
  0
VERTEX
  8
FOREGROUND
  6
CONTINUOUS
 10
8.499920
 20
-0.000440
  0
VERTEX
  8
FOREGROUND
  6
CONTINUOUS
 10
0.000000
 20
-0.000440
  0
VERTEX
  8
FOREGROUND
  6
CONTINUOUS
 10
0.000000
 20
10.999560
  0
SEQEND
  8
0
  0
TEXT
  8
0
 10
3.045240
 20
4.728240
 40
0.138158
  1
BA  539
 41
1.000000
  7
SN0
 71
     0
 72
     5
 11
3.635519
 21
4.728240
  0
TEXT
  8
0
 10
2.843280
 20
4.536840
 40
0.138158
  1
9/16" x 1-1/8"
 41
1.000000
  7
SN0
 71
     0
 72
     5
 11
3.836317
 21
4.536840
  0
SOLID
  8
0
 62
    15
 10
3.164920
 20
5.493840
 11
3.168000
 21
6.244040
 12
3.203200
 22
5.508800
 13
3.206280
 23
6.259000
  0
POLYLINE
  8
0
  6
CONTINUOUS
 66
     1
 40
0.000000
 41
0.000000
  0
VERTEX
  8
0
  6
CONTINUOUS
 10
3.164920
 20
5.493840
  0
VERTEX
  8
0
  6
CONTINUOUS
 10
3.168000
 20
6.244040
  0
VERTEX
  8
0
  6
CONTINUOUS
 10
3.206280
 20
6.259000
  0
VERTEX
  8
0
  6
CONTINUOUS
 10
3.203200
 20
5.508800
  0
VERTEX
  8
0
  6
CONTINUOUS
 10
3.164920
 20
5.493840
  0
SEQEND
  8
0
  0
SOLID
  8
0
 62
    15
 10
2.761880
 20
5.471400
 11
2.765400
 21
6.221600
 12
2.771120
 22
5.505720
 13
2.774200
 23
6.255920
  0
POLYLINE
  8
0
  6
CONTINUOUS
 66
     1
 40
0.000000
 41
0.000000
  0
VERTEX
  8
0
  6
CONTINUOUS
 10
2.761880
 20
5.471400
  0
VERTEX
  8
0
  6
CONTINUOUS
 10
2.765400
 20
6.221600
  0
VERTEX
  8
0
  6
CONTINUOUS
 10
2.774200
 20
6.255920
  0
VERTEX
  8
0
  6
CONTINUOUS
 10
2.771120
 20
5.505720
  0
VERTEX
  8
0
  6
CONTINUOUS
 10
2.761880
 20
5.471400
  0
SEQEND
  8
0
  0
SOLID
  8
0
 62
    15
 10
2.771120
 20
5.505720
 11
2.774200
 21
6.255920
 12
2.785200
 22
5.533880
 13
2.788280
 23
6.284080
  0
POLYLINE
  8
0
  6
CONTINUOUS
 66
     1
 40
0.000000
 41
0.000000
  0
VERTEX
  8
0
  6
CONTINUOUS
 10
2.771120
 20
5.505720
  0
VERTEX
  8
0
  6
CONTINUOUS
 10
2.774200
 20
6.255920
  0
VERTEX
  8
0
  6
CONTINUOUS
 10
2.788280
 20
6.284080
  0
VERTEX
  8
0
  6
CONTINUOUS
 10
2.785200
 20
5.533880
  0
VERTEX
  8
0
  6
CONTINUOUS
 10
2.771120
 20
5.505720
  0
SEQEND
  8
0
  0
SOLID
  8
0
 62
    15
 10
2.785200
 20
5.533880
 11
2.788280
 21
6.284080
 12
2.803240
 22
5.555880
 13
2.806320
 23
6.306080
  0
POLYLINE
  8
0
  6
CONTINUOUS
 66
     1
 40
0.000000
 41
0.000000
  0
VERTEX
  8
0
  6
CONTINUOUS
 10
2.785200
 20
5.533880
  0
VERTEX
  8
0
  6
CONTINUOUS
 10
2.788280
 20
6.284080
  0
VERTEX
  8
0
  6
CONTINUOUS
 10
2.806320
 20
6.306080
  0
VERTEX
  8
0
  6
CONTINUOUS
 10
2.803240
 20
5.555880
  0
VERTEX
  8
0
  6
CONTINUOUS
 10
2.785200
 20
5.533880
  0
SEQEND
  8
0
  0
SOLID
  8
0
 62
    15
 10
2.803240
 20
5.555880
 11
2.806320
 21
6.306080
 12
2.824800
 22
5.571720
 13
2.827880
 23
6.321920
  0
POLYLINE
  8
0
  6
CONTINUOUS
 66
     1
 40
0.000000
 41
0.000000
  0
VERTEX
  8
0
  6
CONTINUOUS
 10
2.803240
 20
5.555880
  0
VERTEX
  8
0
  6
CONTINUOUS
 10
2.806320
 20
6.306080
  0
VERTEX
  8
0
  6
CONTINUOUS
 10
2.827880
 20
6.321920
  0
VERTEX
  8
0
  6
CONTINUOUS
 10
2.824800
 20
5.571720
  0
VERTEX
  8
0
  6
CONTINUOUS
 10
2.803240
 20
5.555880
  0
SEQEND
  8
0
  0
SOLID
  8
0
 62
    15
 10
2.824800
 20
5.571720
 11
2.827880
 21
6.321920
 12
2.848560
 22
5.582280
 13
2.852080
 23
6.332040
  0
POLYLINE
  8
0
  6
CONTINUOUS
 66
     1
 40
0.000000
 41
0.000000
  0
VERTEX
  8
0
  6
CONTINUOUS
 10
2.824800
 20
5.571720
  0
VERTEX
  8
0
  6
CONTINUOUS
 10
2.827880
 20
6.321920
  0
VERTEX
  8
0
  6
CONTINUOUS
 10
2.852080
 20
6.332040
  0
VERTEX
  8
0
  6
CONTINUOUS
 10
2.848560
 20
5.582280
  0
VERTEX
  8
0
  6
CONTINUOUS
 10
2.824800
 20
5.571720
  0
SEQEND
  8
0
  0
SOLID
  8
0
 62
    15
 10
2.848560
 20
5.582280
 11
2.852080
 21
6.332040
 12
2.874520
 22
5.586680
 13
2.877600
 23
6.336880
  0
POLYLINE
  8
0
  6
CONTINUOUS
 66
     1
 40
0.000000
 41
0.000000
  0
VERTEX
  8
0
  6
CONTINUOUS
 10
2.848560
 20
5.582280
  0
VERTEX
  8
0
  6
CONTINUOUS
 10
2.852080
 20
6.332040
  0
VERTEX
  8
0
  6
CONTINUOUS
 10
2.877600
 20
6.336880
  0
VERTEX
  8
0
  6
CONTINUOUS
 10
2.874520
 20
5.586680
  0
VERTEX
  8
0
  6
CONTINUOUS
 10
2.848560
 20
5.582280
  0
SEQEND
  8
0
  0
SOLID
  8
0
 62
    15
 10
2.874520
 20
5.586680
 11
2.877600
 21
6.336880
 12
2.900920
 22
5.585800
 13
2.904440
 23
6.336000
  0
POLYLINE
  8
0
  6
CONTINUOUS
 66
     1
 40
0.000000
 41
0.000000
  0
VERTEX
  8
0
  6
CONTINUOUS
 10
2.874520
 20
5.586680
  0
VERTEX
  8
0
  6
CONTINUOUS
 10
2.877600
 20
6.336880
  0
VERTEX
  8
0
  6
CONTINUOUS
 10
2.904440
 20
6.336000
  0
VERTEX
  8
0
  6
CONTINUOUS
 10
2.900920
 20
5.585800
  0
VERTEX
  8
0
  6
CONTINUOUS
 10
2.874520
 20
5.586680
  0
SEQEND
  8
0
  0
SOLID
  8
0
 62
    15
 10
2.900920
 20
5.585800
 11
2.904440
 21
6.336000
 12
2.927760
 22
5.579200
 13
2.930840
 23
6.329400
  0
POLYLINE
  8
0
  6
CONTINUOUS
 66
     1
 40
0.000000
 41
0.000000
  0
VERTEX
  8
0
  6
CONTINUOUS
 10
2.900920
 20
5.585800
  0
VERTEX
  8
0
  6
CONTINUOUS
 10
2.904440
 20
6.336000
  0
VERTEX
  8
0
  6
CONTINUOUS
 10
2.930840
 20
6.329400
  0
VERTEX
  8
0
  6
CONTINUOUS
 10
2.927760
 20
5.579200
  0
VERTEX
  8
0
  6
CONTINUOUS
 10
2.900920
 20
5.585800
  0
SEQEND
  8
0
  0
SOLID
  8
0
 62
    15
 10
2.927760
 20
5.579200
 11
2.930840
 21
6.329400
 12
2.953720
 22
5.567760
 13
2.956800
 23
6.317960
  0
POLYLINE
  8
0
  6
CONTINUOUS
 66
     1
 40
0.000000
 41
0.000000
  0
VERTEX
  8
0
  6
CONTINUOUS
 10
2.927760
 20
5.579200
  0
VERTEX
  8
0
  6
CONTINUOUS
 10
2.930840
 20
6.329400
  0
VERTEX
  8
0
  6
CONTINUOUS
 10
2.956800
 20
6.317960
  0
VERTEX
  8
0
  6
CONTINUOUS
 10
2.953720
 20
5.567760
  0
VERTEX
  8
0
  6
CONTINUOUS
 10
2.927760
 20
5.579200
  0
SEQEND
  8
0
  0
SOLID
  8
0
 62
    15
 10
2.953720
 20
5.567760
 11
2.956800
 21
6.317960
 12
2.977920
 22
5.550600
 13
2.981000
 23
6.300800
  0
POLYLINE
  8
0
  6
CONTINUOUS
 66
     1
 40
0.000000
 41
0.000000
  0
VERTEX
  8
0
  6
CONTINUOUS
 10
2.953720
 20
5.567760
  0
VERTEX
  8
0
  6
CONTINUOUS
 10
2.956800
 20
6.317960
  0
VERTEX
  8
0
  6
CONTINUOUS
 10
2.981000
 20
6.300800
  0
VERTEX
  8
0
  6
CONTINUOUS
 10
2.977920
 20
5.550600
  0
VERTEX
  8
0
  6
CONTINUOUS
 10
2.953720
 20
5.567760
  0
SEQEND
  8
0
  0
SOLID
  8
0
 62
    15
 10
2.977920
 20
5.550600
 11
2.981000
 21
6.300800
 12
2.999480
 22
5.529040
 13
3.002560
 23
6.279240
  0
POLYLINE
  8
0
  6
CONTINUOUS
 66
     1
 40
0.000000
 41
0.000000
  0
VERTEX
  8
0
  6
CONTINUOUS
 10
2.977920
 20
5.550600
  0
VERTEX
  8
0
  6
CONTINUOUS
 10
2.981000
 20
6.300800
  0
VERTEX
  8
0
  6
CONTINUOUS
 10
3.002560
 20
6.279240
  0
VERTEX
  8
0
  6
CONTINUOUS
 10
2.999480
 20
5.529040
  0
VERTEX
  8
0
  6
CONTINUOUS
 10
2.977920
 20
5.550600
  0
SEQEND
  8
0
  0
SOLID
  8
0
 62
    15
 10
2.999480
 20
5.529040
 11
3.002560
 21
6.279240
 12
3.017960
 22
5.502200
 13
3.021040
 23
6.252400
  0
POLYLINE
  8
0
  6
CONTINUOUS
 66
     1
 40
0.000000
 41
0.000000
  0
VERTEX
  8
0
  6
CONTINUOUS
 10
2.999480
 20
5.529040
  0
VERTEX
  8
0
  6
CONTINUOUS
 10
3.002560
 20
6.279240
  0
VERTEX
  8
0
  6
CONTINUOUS
 10
3.021040
 20
6.252400
  0
VERTEX
  8
0
  6
CONTINUOUS
 10
3.017960
 20
5.502200
  0
VERTEX
  8
0
  6
CONTINUOUS
 10
2.999480
 20
5.529040
  0
SEQEND
  8
0
  0
SOLID
  8
0
 62
    15
 10
3.017960
 20
5.502200
 11
3.021040
 21
6.252400
 12
3.032480
 22
5.470960
 13
3.035560
 23
6.221160
  0
POLYLINE
  8
0
  6
CONTINUOUS
 66
     1
 40
0.000000
 41
0.000000
  0
VERTEX
  8
0
  6
CONTINUOUS
 10
3.017960
 20
5.502200
  0
VERTEX
  8
0
  6
CONTINUOUS
 10
3.021040
 20
6.252400
  0
VERTEX
  8
0
  6
CONTINUOUS
 10
3.035560
 20
6.221160
  0
VERTEX
  8
0
  6
CONTINUOUS
 10
3.032480
 20
5.470960
  0
VERTEX
  8
0
  6
CONTINUOUS
 10
3.017960
 20
5.502200
  0
SEQEND
  8
0
  0
SOLID
  8
0
 62
    15
 10
3.032480
 20
5.470960
 11
3.035560
 21
6.221160
 12
3.042160
 22
5.434880
 13
3.045240
 23
6.185080
  0
POLYLINE
  8
0
  6
CONTINUOUS
 66
     1
 40
0.000000
 41
0.000000
  0
VERTEX
  8
0
  6
CONTINUOUS
 10
3.032480
 20
5.470960
  0
VERTEX
  8
0
  6
CONTINUOUS
 10
3.035560
 20
6.221160
  0
VERTEX
  8
0
  6
CONTINUOUS
 10
3.045240
 20
6.185080
  0
VERTEX
  8
0
  6
CONTINUOUS
 10
3.042160
 20
5.434880
  0
VERTEX
  8
0
  6
CONTINUOUS
 10
3.032480
 20
5.470960
  0
SEQEND
  8
0
  0
SOLID
  8
0
 62
    15
 10
3.042160
 20
5.434880
 11
3.045240
 21
6.185080
 12
3.045680
 22
5.394400
 13
3.048760
 23
6.144600
  0
POLYLINE
  8
0
  6
CONTINUOUS
 66
     1
 40
0.000000
 41
0.000000
  0
VERTEX
  8
0
  6
CONTINUOUS
 10
3.042160
 20
5.434880
  0
VERTEX
  8
0
  6
CONTINUOUS
 10
3.045240
 20
6.185080
  0
VERTEX
  8
0
  6
CONTINUOUS
 10
3.048760
 20
6.144600
  0
VERTEX
  8
0
  6
CONTINUOUS
 10
3.045680
 20
5.394400
  0
VERTEX
  8
0
  6
CONTINUOUS
 10
3.042160
 20
5.434880
  0
SEQEND
  8
0
  0
SOLID
  8
0
 62
    15
 10
3.045680
 20
5.394400
 11
3.048760
 21
6.144600
 12
3.069000
 22
5.394400
 13
3.072080
 23
6.144600
  0
POLYLINE
  8
0
  6
CONTINUOUS
 66
     1
 40
0.000000
 41
0.000000
  0
VERTEX
  8
0
  6
CONTINUOUS
 10
3.045680
 20
5.394400
  0
VERTEX
  8
0
  6
CONTINUOUS
 10
3.048760
 20
6.144600
  0
VERTEX
  8
0
  6
CONTINUOUS
 10
3.072080
 20
6.144600
  0
VERTEX
  8
0
  6
CONTINUOUS
 10
3.069000
 20
5.394400
  0
VERTEX
  8
0
  6
CONTINUOUS
 10
3.045680
 20
5.394400
  0
SEQEND
  8
0
  0
SOLID
  8
0
 62
    15
 10
3.069000
 20
5.394400
 11
3.072080
 21
6.144600
 12
3.082200
 22
5.417280
 13
3.085720
 23
6.167480
  0
POLYLINE
  8
0
  6
CONTINUOUS
 66
     1
 40
0.000000
 41
0.000000
  0
VERTEX
  8
0
  6
CONTINUOUS
 10
3.069000
 20
5.394400
  0
VERTEX
  8
0
  6
CONTINUOUS
 10
3.072080
 20
6.144600
  0
VERTEX
  8
0
  6
CONTINUOUS
 10
3.085720
 20
6.167480
  0
VERTEX
  8
0
  6
CONTINUOUS
 10
3.082200
 20
5.417280
  0
VERTEX
  8
0
  6
CONTINUOUS
 10
3.069000
 20
5.394400
  0
SEQEND
  8
0
  0
SOLID
  8
0
 62
    15
 10
3.082200
 20
5.417280
 11
3.085720
 21
6.167480
 12
3.097160
 22
5.437520
 13
3.100240
 23
6.187720
  0
POLYLINE
  8
0
  6
CONTINUOUS
 66
     1
 40
0.000000
 41
0.000000
  0
VERTEX
  8
0
  6
CONTINUOUS
 10
3.082200
 20
5.417280
  0
VERTEX
  8
0
  6
CONTINUOUS
 10
3.085720
 20
6.167480
  0
VERTEX
  8
0
  6
CONTINUOUS
 10
3.100240
 20
6.187720
  0
VERTEX
  8
0
  6
CONTINUOUS
 10
3.097160
 20
5.437520
  0
VERTEX
  8
0
  6
CONTINUOUS
 10
3.082200
 20
5.417280
  0
SEQEND
  8
0
  0
SOLID
  8
0
 62
    15
 10
3.097160
 20
5.437520
 11
3.100240
 21
6.187720
 12
3.129280
 22
5.470080
 13
3.132360
 23
6.220280
  0
POLYLINE
  8
0
  6
CONTINUOUS
 66
     1
 40
0.000000
 41
0.000000
  0
VERTEX
  8
0
  6
CONTINUOUS
 10
3.097160
 20
5.437520
  0
VERTEX
  8
0
  6
CONTINUOUS
 10
3.100240
 20
6.187720
  0
VERTEX
  8
0
  6
CONTINUOUS
 10
3.132360
 20
6.220280
  0
VERTEX
  8
0
  6
CONTINUOUS
 10
3.129280
 20
5.470080
  0
VERTEX
  8
0
  6
CONTINUOUS
 10
3.097160
 20
5.437520
  0
SEQEND
  8
0
  0
SOLID
  8
0
 62
    15
 10
3.129280
 20
5.470080
 11
3.132360
 21
6.220280
 12
3.164920
 22
5.493840
 13
3.168000
 23
6.244040
  0
POLYLINE
  8
0
  6
CONTINUOUS
 66
     1
 40
0.000000
 41
0.000000
  0
VERTEX
  8
0
  6
CONTINUOUS
 10
3.129280
 20
5.470080
  0
VERTEX
  8
0
  6
CONTINUOUS
 10
3.132360
 20
6.220280
  0
VERTEX
  8
0
  6
CONTINUOUS
 10
3.168000
 20
6.244040
  0
VERTEX
  8
0
  6
CONTINUOUS
 10
3.164920
 20
5.493840
  0
VERTEX
  8
0
  6
CONTINUOUS
 10
3.129280
 20
5.470080
  0
SEQEND
  8
0
  0
SOLID
  8
0
 62
    15
 10
2.758800
 20
5.430920
 11
2.761880
 21
6.180680
 12
2.761880
 22
5.471400
 13
2.765400
 23
6.221600
  0
POLYLINE
  8
0
  6
CONTINUOUS
 66
     1
 40
0.000000
 41
0.000000
  0
VERTEX
  8
0
  6
CONTINUOUS
 10
2.758800
 20
5.430920
  0
VERTEX
  8
0
  6
CONTINUOUS
 10
2.761880
 20
6.180680
  0
VERTEX
  8
0
  6
CONTINUOUS
 10
2.765400
 20
6.221600
  0
VERTEX
  8
0
  6
CONTINUOUS
 10
2.761880
 20
5.471400
  0
VERTEX
  8
0
  6
CONTINUOUS
 10
2.758800
 20
5.430920
  0
SEQEND
  8
0
  0
SOLID
  8
0
 62
    15
 10
3.203200
 20
5.508800
 11
3.206280
 21
6.259000
 12
3.243240
 22
5.516720
 13
3.246320
 23
6.266920
  0
POLYLINE
  8
0
  6
CONTINUOUS
 66
     1
 40
0.000000
 41
0.000000
  0
VERTEX
  8
0
  6
CONTINUOUS
 10
3.203200
 20
5.508800
  0
VERTEX
  8
0
  6
CONTINUOUS
 10
3.206280
 20
6.259000
  0
VERTEX
  8
0
  6
CONTINUOUS
 10
3.246320
 20
6.266920
  0
VERTEX
  8
0
  6
CONTINUOUS
 10
3.243240
 20
5.516720
  0
VERTEX
  8
0
  6
CONTINUOUS
 10
3.203200
 20
5.508800
  0
SEQEND
  8
0
  0
SOLID
  8
0
 62
    15
 10
3.243240
 20
5.516720
 11
3.246320
 21
6.266920
 12
3.284600
 22
5.517600
 13
3.288120
 23
6.267800
  0
POLYLINE
  8
0
  6
CONTINUOUS
 66
     1
 40
0.000000
 41
0.000000
  0
VERTEX
  8
0
  6
CONTINUOUS
 10
3.243240
 20
5.516720
  0
VERTEX
  8
0
  6
CONTINUOUS
 10
3.246320
 20
6.266920
  0
VERTEX
  8
0
  6
CONTINUOUS
 10
3.288120
 20
6.267800
  0
VERTEX
  8
0
  6
CONTINUOUS
 10
3.284600
 20
5.517600
  0
VERTEX
  8
0
  6
CONTINUOUS
 10
3.243240
 20
5.516720
  0
SEQEND
  8
0
  0
SOLID
  8
0
 62
    15
 10
3.284600
 20
5.517600
 11
3.288120
 21
6.267800
 12
3.326840
 22
5.512320
 13
3.329920
 23
6.262520
  0
POLYLINE
  8
0
  6
CONTINUOUS
 66
     1
 40
0.000000
 41
0.000000
  0
VERTEX
  8
0
  6
CONTINUOUS
 10
3.284600
 20
5.517600
  0
VERTEX
  8
0
  6
CONTINUOUS
 10
3.288120
 20
6.267800
  0
VERTEX
  8
0
  6
CONTINUOUS
 10
3.329920
 20
6.262520
  0
VERTEX
  8
0
  6
CONTINUOUS
 10
3.326840
 20
5.512320
  0
VERTEX
  8
0
  6
CONTINUOUS
 10
3.284600
 20
5.517600
  0
SEQEND
  8
0
  0
SOLID
  8
0
 62
    15
 10
3.326840
 20
5.512320
 11
3.329920
 21
6.262520
 12
3.368640
 22
5.502200
 13
3.372160
 23
6.252400
  0
POLYLINE
  8
0
  6
CONTINUOUS
 66
     1
 40
0.000000
 41
0.000000
  0
VERTEX
  8
0
  6
CONTINUOUS
 10
3.326840
 20
5.512320
  0
VERTEX
  8
0
  6
CONTINUOUS
 10
3.329920
 20
6.262520
  0
VERTEX
  8
0
  6
CONTINUOUS
 10
3.372160
 20
6.252400
  0
VERTEX
  8
0
  6
CONTINUOUS
 10
3.368640
 20
5.502200
  0
VERTEX
  8
0
  6
CONTINUOUS
 10
3.326840
 20
5.512320
  0
SEQEND
  8
0
  0
SOLID
  8
0
 62
    15
 10
3.368640
 20
5.502200
 11
3.372160
 21
6.252400
 12
3.410000
 22
5.488120
 13
3.413080
 23
6.238320
  0
POLYLINE
  8
0
  6
CONTINUOUS
 66
     1
 40
0.000000
 41
0.000000
  0
VERTEX
  8
0
  6
CONTINUOUS
 10
3.368640
 20
5.502200
  0
VERTEX
  8
0
  6
CONTINUOUS
 10
3.372160
 20
6.252400
  0
VERTEX
  8
0
  6
CONTINUOUS
 10
3.413080
 20
6.238320
  0
VERTEX
  8
0
  6
CONTINUOUS
 10
3.410000
 20
5.488120
  0
VERTEX
  8
0
  6
CONTINUOUS
 10
3.368640
 20
5.502200
  0
SEQEND
  8
0
  0
SOLID
  8
0
 62
    15
 10
3.410000
 20
5.488120
 11
3.413080
 21
6.238320
 12
3.450040
 22
5.470080
 13
3.453120
 23
6.220280
  0
POLYLINE
  8
0
  6
CONTINUOUS
 66
     1
 40
0.000000
 41
0.000000
  0
VERTEX
  8
0
  6
CONTINUOUS
 10
3.410000
 20
5.488120
  0
VERTEX
  8
0
  6
CONTINUOUS
 10
3.413080
 20
6.238320
  0
VERTEX
  8
0
  6
CONTINUOUS
 10
3.453120
 20
6.220280
  0
VERTEX
  8
0
  6
CONTINUOUS
 10
3.450040
 20
5.470080
  0
VERTEX
  8
0
  6
CONTINUOUS
 10
3.410000
 20
5.488120
  0
SEQEND
  8
0
  0
SOLID
  8
0
 62
    15
 10
3.450040
 20
5.470080
 11
3.453120
 21
6.220280
 12
3.487440
 22
5.449840
 13
3.490520
 23
6.200040
  0
POLYLINE
  8
0
  6
CONTINUOUS
 66
     1
 40
0.000000
 41
0.000000
  0
VERTEX
  8
0
  6
CONTINUOUS
 10
3.450040
 20
5.470080
  0
VERTEX
  8
0
  6
CONTINUOUS
 10
3.453120
 20
6.220280
  0
VERTEX
  8
0
  6
CONTINUOUS
 10
3.490520
 20
6.200040
  0
VERTEX
  8
0
  6
CONTINUOUS
 10
3.487440
 20
5.449840
  0
VERTEX
  8
0
  6
CONTINUOUS
 10
3.450040
 20
5.470080
  0
SEQEND
  8
0
  0
SOLID
  8
0
 62
    15
 10
3.487440
 20
5.449840
 11
3.490520
 21
6.200040
 12
3.522200
 22
5.427840
 13
3.525280
 23
6.178040
  0
POLYLINE
  8
0
  6
CONTINUOUS
 66
     1
 40
0.000000
 41
0.000000
  0
VERTEX
  8
0
  6
CONTINUOUS
 10
3.487440
 20
5.449840
  0
VERTEX
  8
0
  6
CONTINUOUS
 10
3.490520
 20
6.200040
  0
VERTEX
  8
0
  6
CONTINUOUS
 10
3.525280
 20
6.178040
  0
VERTEX
  8
0
  6
CONTINUOUS
 10
3.522200
 20
5.427840
  0
VERTEX
  8
0
  6
CONTINUOUS
 10
3.487440
 20
5.449840
  0
SEQEND
  8
0
  0
SOLID
  8
0
 62
    15
 10
3.522200
 20
5.427840
 11
3.525280
 21
6.178040
 12
3.553440
 22
5.404960
 13
3.556520
 23
6.154720
  0
POLYLINE
  8
0
  6
CONTINUOUS
 66
     1
 40
0.000000
 41
0.000000
  0
VERTEX
  8
0
  6
CONTINUOUS
 10
3.522200
 20
5.427840
  0
VERTEX
  8
0
  6
CONTINUOUS
 10
3.525280
 20
6.178040
  0
VERTEX
  8
0
  6
CONTINUOUS
 10
3.556520
 20
6.154720
  0
VERTEX
  8
0
  6
CONTINUOUS
 10
3.553440
 20
5.404960
  0
VERTEX
  8
0
  6
CONTINUOUS
 10
3.522200
 20
5.427840
  0
SEQEND
  8
0
  0
SOLID
  8
0
 62
    15
 10
3.553440
 20
5.404960
 11
3.556520
 21
6.154720
 12
3.580720
 22
5.381640
 13
3.583800
 23
6.131840
  0
POLYLINE
  8
0
  6
CONTINUOUS
 66
     1
 40
0.000000
 41
0.000000
  0
VERTEX
  8
0
  6
CONTINUOUS
 10
3.553440
 20
5.404960
  0
VERTEX
  8
0
  6
CONTINUOUS
 10
3.556520
 20
6.154720
  0
VERTEX
  8
0
  6
CONTINUOUS
 10
3.583800
 20
6.131840
  0
VERTEX
  8
0
  6
CONTINUOUS
 10
3.580720
 20
5.381640
  0
VERTEX
  8
0
  6
CONTINUOUS
 10
3.553440
 20
5.404960
  0
SEQEND
  8
0
  0
SOLID
  8
0
 62
    15
 10
3.580720
 20
5.381640
 11
3.583800
 21
6.131840
 12
3.602720
 22
5.359200
 13
3.605800
 23
6.109400
  0
POLYLINE
  8
0
  6
CONTINUOUS
 66
     1
 40
0.000000
 41
0.000000
  0
VERTEX
  8
0
  6
CONTINUOUS
 10
3.580720
 20
5.381640
  0
VERTEX
  8
0
  6
CONTINUOUS
 10
3.583800
 20
6.131840
  0
VERTEX
  8
0
  6
CONTINUOUS
 10
3.605800
 20
6.109400
  0
VERTEX
  8
0
  6
CONTINUOUS
 10
3.602720
 20
5.359200
  0
VERTEX
  8
0
  6
CONTINUOUS
 10
3.580720
 20
5.381640
  0
SEQEND
  8
0
  0
SOLID
  8
0
 62
    15
 10
3.602720
 20
5.359200
 11
3.605800
 21
6.109400
 12
3.619440
 22
5.338520
 13
3.622520
 23
6.088720
  0
POLYLINE
  8
0
  6
CONTINUOUS
 66
     1
 40
0.000000
 41
0.000000
  0
VERTEX
  8
0
  6
CONTINUOUS
 10
3.602720
 20
5.359200
  0
VERTEX
  8
0
  6
CONTINUOUS
 10
3.605800
 20
6.109400
  0
VERTEX
  8
0
  6
CONTINUOUS
 10
3.622520
 20
6.088720
  0
VERTEX
  8
0
  6
CONTINUOUS
 10
3.619440
 20
5.338520
  0
VERTEX
  8
0
  6
CONTINUOUS
 10
3.602720
 20
5.359200
  0
SEQEND
  8
0
  0
SOLID
  8
0
 62
    15
 10
3.619440
 20
5.338520
 11
3.622520
 21
6.088720
 12
3.648480
 22
5.296280
 13
3.651560
 23
6.046480
  0
POLYLINE
  8
0
  6
CONTINUOUS
 66
     1
 40
0.000000
 41
0.000000
  0
VERTEX
  8
0
  6
CONTINUOUS
 10
3.619440
 20
5.338520
  0
VERTEX
  8
0
  6
CONTINUOUS
 10
3.622520
 20
6.088720
  0
VERTEX
  8
0
  6
CONTINUOUS
 10
3.651560
 20
6.046480
  0
VERTEX
  8
0
  6
CONTINUOUS
 10
3.648480
 20
5.296280
  0
VERTEX
  8
0
  6
CONTINUOUS
 10
3.619440
 20
5.338520
  0
SEQEND
  8
0
  0
SOLID
  8
0
 62
    15
 10
3.648480
 20
5.296280
 11
3.651560
 21
6.046480
 12
3.681040
 22
5.250080
 13
3.684120
 23
6.000280
  0
POLYLINE
  8
0
  6
CONTINUOUS
 66
     1
 40
0.000000
 41
0.000000
  0
VERTEX
  8
0
  6
CONTINUOUS
 10
3.648480
 20
5.296280
  0
VERTEX
  8
0
  6
CONTINUOUS
 10
3.651560
 20
6.046480
  0
VERTEX
  8
0
  6
CONTINUOUS
 10
3.684120
 20
6.000280
  0
VERTEX
  8
0
  6
CONTINUOUS
 10
3.681040
 20
5.250080
  0
VERTEX
  8
0
  6
CONTINUOUS
 10
3.648480
 20
5.296280
  0
SEQEND
  8
0
  0
SOLID
  8
0
 62
    15
 10
3.681040
 20
5.250080
 11
3.684120
 21
6.000280
 12
3.754520
 22
5.153280
 13
3.757600
 23
5.903480
  0
POLYLINE
  8
0
  6
CONTINUOUS
 66
     1
 40
0.000000
 41
0.000000
  0
VERTEX
  8
0
  6
CONTINUOUS
 10
3.681040
 20
5.250080
  0
VERTEX
  8
0
  6
CONTINUOUS
 10
3.684120
 20
6.000280
  0
VERTEX
  8
0
  6
CONTINUOUS
 10
3.757600
 20
5.903480
  0
VERTEX
  8
0
  6
CONTINUOUS
 10
3.754520
 20
5.153280
  0
VERTEX
  8
0
  6
CONTINUOUS
 10
3.681040
 20
5.250080
  0
SEQEND
  8
0
  0
SOLID
  8
0
 62
    15
 10
3.754520
 20
5.153280
 11
3.757600
 21
5.903480
 12
3.794560
 22
5.107080
 13
3.797640
 23
5.856840
  0
POLYLINE
  8
0
  6
CONTINUOUS
 66
     1
 40
0.000000
 41
0.000000
  0
VERTEX
  8
0
  6
CONTINUOUS
 10
3.754520
 20
5.153280
  0
VERTEX
  8
0
  6
CONTINUOUS
 10
3.757600
 20
5.903480
  0
VERTEX
  8
0
  6
CONTINUOUS
 10
3.797640
 20
5.856840
  0
VERTEX
  8
0
  6
CONTINUOUS
 10
3.794560
 20
5.107080
  0
VERTEX
  8
0
  6
CONTINUOUS
 10
3.754520
 20
5.153280
  0
SEQEND
  8
0
  0
SOLID
  8
0
 62
    15
 10
3.794560
 20
5.107080
 11
3.797640
 21
5.856840
 12
3.835480
 22
5.064400
 13
3.838560
 23
5.814600
  0
POLYLINE
  8
0
  6
CONTINUOUS
 66
     1
 40
0.000000
 41
0.000000
  0
VERTEX
  8
0
  6
CONTINUOUS
 10
3.794560
 20
5.107080
  0
VERTEX
  8
0
  6
CONTINUOUS
 10
3.797640
 20
5.856840
  0
VERTEX
  8
0
  6
CONTINUOUS
 10
3.838560
 20
5.814600
  0
VERTEX
  8
0
  6
CONTINUOUS
 10
3.835480
 20
5.064400
  0
VERTEX
  8
0
  6
CONTINUOUS
 10
3.794560
 20
5.107080
  0
SEQEND
  8
0
  0
SOLID
  8
0
 62
    15
 10
3.835480
 20
5.064400
 11
3.838560
 21
5.814600
 12
3.877280
 22
5.027880
 13
3.880360
 23
5.777640
  0
POLYLINE
  8
0
  6
CONTINUOUS
 66
     1
 40
0.000000
 41
0.000000
  0
VERTEX
  8
0
  6
CONTINUOUS
 10
3.835480
 20
5.064400
  0
VERTEX
  8
0
  6
CONTINUOUS
 10
3.838560
 20
5.814600
  0
VERTEX
  8
0
  6
CONTINUOUS
 10
3.880360
 20
5.777640
  0
VERTEX
  8
0
  6
CONTINUOUS
 10
3.877280
 20
5.027880
  0
VERTEX
  8
0
  6
CONTINUOUS
 10
3.835480
 20
5.064400
  0
SEQEND
  8
0
  0
SOLID
  8
0
 62
    15
 10
3.919520
 20
4.998840
 11
3.922600
 21
5.749040
 12
3.919520
 22
4.995320
 13
3.922600
 23
5.745520
  0
POLYLINE
  8
0
  6
CONTINUOUS
 66
     1
 40
0.000000
 41
0.000000
  0
VERTEX
  8
0
  6
CONTINUOUS
 10
3.919520
 20
4.998840
  0
VERTEX
  8
0
  6
CONTINUOUS
 10
3.922600
 20
5.749040
  0
VERTEX
  8
0
  6
CONTINUOUS
 10
3.922600
 20
5.745520
  0
VERTEX
  8
0
  6
CONTINUOUS
 10
3.919520
 20
4.995320
  0
VERTEX
  8
0
  6
CONTINUOUS
 10
3.919520
 20
4.998840
  0
SEQEND
  8
0
  0
SOLID
  8
0
 62
    15
 10
3.877280
 20
5.027880
 11
3.880360
 21
5.777640
 12
3.919520
 22
4.998840
 13
3.922600
 23
5.749040
  0
POLYLINE
  8
0
  6
CONTINUOUS
 66
     1
 40
0.000000
 41
0.000000
  0
VERTEX
  8
0
  6
CONTINUOUS
 10
3.877280
 20
5.027880
  0
VERTEX
  8
0
  6
CONTINUOUS
 10
3.880360
 20
5.777640
  0
VERTEX
  8
0
  6
CONTINUOUS
 10
3.922600
 20
5.749040
  0
VERTEX
  8
0
  6
CONTINUOUS
 10
3.919520
 20
4.998840
  0
VERTEX
  8
0
  6
CONTINUOUS
 10
3.877280
 20
5.027880
  0
SEQEND
  8
0
  0
POLYLINE
  8
0
  6
CONTINUOUS
 66
     1
 40
0.000000
 41
0.000000
  0
VERTEX
  8
0
  6
CONTINUOUS
 10
3.919520
 20
4.995320
  0
VERTEX
  8
0
  6
CONTINUOUS
 10
2.758800
 20
4.995320
  0
VERTEX
  8
0
  6
CONTINUOUS
 10
2.758800
 20
5.430920
  0
VERTEX
  8
0
  6
CONTINUOUS
 10
2.761880
 20
5.471400
  0
VERTEX
  8
0
  6
CONTINUOUS
 10
2.771120
 20
5.505720
  0
VERTEX
  8
0
  6
CONTINUOUS
 10
2.785200
 20
5.533880
  0
VERTEX
  8
0
  6
CONTINUOUS
 10
2.803240
 20
5.555880
  0
VERTEX
  8
0
  6
CONTINUOUS
 10
2.824800
 20
5.571720
  0
VERTEX
  8
0
  6
CONTINUOUS
 10
2.848560
 20
5.582280
  0
VERTEX
  8
0
  6
CONTINUOUS
 10
2.874520
 20
5.586680
  0
VERTEX
  8
0
  6
CONTINUOUS
 10
2.900920
 20
5.585800
  0
VERTEX
  8
0
  6
CONTINUOUS
 10
2.927760
 20
5.579200
  0
VERTEX
  8
0
  6
CONTINUOUS
 10
2.953720
 20
5.567760
  0
VERTEX
  8
0
  6
CONTINUOUS
 10
2.977920
 20
5.550600
  0
VERTEX
  8
0
  6
CONTINUOUS
 10
2.999480
 20
5.529040
  0
VERTEX
  8
0
  6
CONTINUOUS
 10
3.017960
 20
5.502200
  0
VERTEX
  8
0
  6
CONTINUOUS
 10
3.032480
 20
5.470960
  0
VERTEX
  8
0
  6
CONTINUOUS
 10
3.042160
 20
5.434880
  0
VERTEX
  8
0
  6
CONTINUOUS
 10
3.045680
 20
5.394400
  0
VERTEX
  8
0
  6
CONTINUOUS
 10
3.069000
 20
5.394400
  0
VERTEX
  8
0
  6
CONTINUOUS
 10
3.082200
 20
5.417280
  0
VERTEX
  8
0
  6
CONTINUOUS
 10
3.097160
 20
5.437520
  0
VERTEX
  8
0
  6
CONTINUOUS
 10
3.129280
 20
5.470080
  0
VERTEX
  8
0
  6
CONTINUOUS
 10
3.164920
 20
5.493840
  0
VERTEX
  8
0
  6
CONTINUOUS
 10
3.203200
 20
5.508800
  0
VERTEX
  8
0
  6
CONTINUOUS
 10
3.243240
 20
5.516720
  0
VERTEX
  8
0
  6
CONTINUOUS
 10
3.284600
 20
5.517600
  0
VERTEX
  8
0
  6
CONTINUOUS
 10
3.326840
 20
5.512320
  0
VERTEX
  8
0
  6
CONTINUOUS
 10
3.368640
 20
5.502200
  0
VERTEX
  8
0
  6
CONTINUOUS
 10
3.410000
 20
5.488120
  0
VERTEX
  8
0
  6
CONTINUOUS
 10
3.450040
 20
5.470080
  0
VERTEX
  8
0
  6
CONTINUOUS
 10
3.487440
 20
5.449840
  0
VERTEX
  8
0
  6
CONTINUOUS
 10
3.522200
 20
5.427840
  0
VERTEX
  8
0
  6
CONTINUOUS
 10
3.553440
 20
5.404960
  0
VERTEX
  8
0
  6
CONTINUOUS
 10
3.580720
 20
5.381640
  0
VERTEX
  8
0
  6
CONTINUOUS
 10
3.602720
 20
5.359200
  0
VERTEX
  8
0
  6
CONTINUOUS
 10
3.619440
 20
5.338520
  0
VERTEX
  8
0
  6
CONTINUOUS
 10
3.648480
 20
5.296280
  0
VERTEX
  8
0
  6
CONTINUOUS
 10
3.681040
 20
5.250080
  0
VERTEX
  8
0
  6
CONTINUOUS
 10
3.754520
 20
5.153280
  0
VERTEX
  8
0
  6
CONTINUOUS
 10
3.794560
 20
5.107080
  0
VERTEX
  8
0
  6
CONTINUOUS
 10
3.835480
 20
5.064400
  0
VERTEX
  8
0
  6
CONTINUOUS
 10
3.877280
 20
5.027880
  0
VERTEX
  8
0
  6
CONTINUOUS
 10
3.919520
 20
4.998840
  0
VERTEX
  8
0
  6
CONTINUOUS
 10
3.919520
 20
4.995320
  0
SEQEND
  8
0
  0
POLYLINE
  8
0
  6
CONTINUOUS
 66
     1
 40
0.014080
 41
0.014080
  0
VERTEX
  8
0
  6
CONTINUOUS
 10
5.730560
 20
5.911400
  0
VERTEX
  8
0
  6
CONTINUOUS
 10
5.709440
 20
5.924600
  0
VERTEX
  8
0
  6
CONTINUOUS
 10
5.667640
 20
5.957600
  0
VERTEX
  8
0
  6
CONTINUOUS
 10
5.625840
 20
5.997640
  0
VERTEX
  8
0
  6
CONTINUOUS
 10
5.565560
 20
6.065840
  0
VERTEX
  8
0
  6
CONTINUOUS
 10
5.492080
 20
6.162640
  0
VERTEX
  8
0
  6
CONTINUOUS
 10
5.423000
 20
6.261200
  0
VERTEX
  8
0
  6
CONTINUOUS
 10
5.391760
 20
6.294200
  0
VERTEX
  8
0
  6
CONTINUOUS
 10
5.349520
 20
6.328960
  0
VERTEX
  8
0
  6
CONTINUOUS
 10
5.298480
 20
6.362840
  0
VERTEX
  8
0
  6
CONTINUOUS
 10
5.241280
 20
6.392320
  0
VERTEX
  8
0
  6
CONTINUOUS
 10
5.200800
 20
6.408600
  0
VERTEX
  8
0
  6
CONTINUOUS
 10
5.159000
 20
6.420920
  0
VERTEX
  8
0
  6
CONTINUOUS
 10
5.116760
 20
6.428400
  0
VERTEX
  8
0
  6
CONTINUOUS
 10
5.074960
 20
6.430600
  0
VERTEX
  8
0
  6
CONTINUOUS
 10
5.054280
 20
6.429280
  0
VERTEX
  8
0
  6
CONTINUOUS
 10
5.014240
 20
6.421800
  0
VERTEX
  8
0
  6
CONTINUOUS
 10
4.994880
 20
6.415200
  0
VERTEX
  8
0
  6
CONTINUOUS
 10
4.975960
 20
6.406400
  0
VERTEX
  8
0
  6
CONTINUOUS
 10
4.957920
 20
6.395840
  0
VERTEX
  8
0
  6
CONTINUOUS
 10
4.931960
 20
6.375600
  0
VERTEX
  8
0
  6
CONTINUOUS
 10
4.908200
 20
6.350080
  0
VERTEX
  8
0
  6
CONTINUOUS
 10
4.886640
 20
6.318840
  0
VERTEX
  8
0
  6
CONTINUOUS
 10
4.880040
 20
6.306960
  0
VERTEX
  8
0
  6
CONTINUOUS
 10
4.856720
 20
6.306960
  0
VERTEX
  8
0
  6
CONTINUOUS
 10
4.855840
 20
6.327640
  0
VERTEX
  8
0
  6
CONTINUOUS
 10
4.853200
 20
6.347440
  0
VERTEX
  8
0
  6
CONTINUOUS
 10
4.843520
 20
6.383520
  0
VERTEX
  8
0
  6
CONTINUOUS
 10
4.829000
 20
6.414760
  0
VERTEX
  8
0
  6
CONTINUOUS
 10
4.810520
 20
6.441600
  0
VERTEX
  8
0
  6
CONTINUOUS
 10
4.788960
 20
6.463160
  0
VERTEX
  8
0
  6
CONTINUOUS
 10
4.764760
 20
6.480320
  0
VERTEX
  8
0
  6
CONTINUOUS
 10
4.738800
 20
6.491760
  0
VERTEX
  8
0
  6
CONTINUOUS
 10
4.711960
 20
6.498360
  0
VERTEX
  8
0
  6
CONTINUOUS
 10
4.698760
 20
6.499680
  0
VERTEX
  8
0
  6
CONTINUOUS
 10
4.672360
 20
6.497920
  0
VERTEX
  8
0
  6
CONTINUOUS
 10
4.647720
 20
6.490440
  0
VERTEX
  8
0
  6
CONTINUOUS
 10
4.635840
 20
6.484720
  0
VERTEX
  8
0
  6
CONTINUOUS
 10
4.614280
 20
6.468440
  0
VERTEX
  8
0
  6
CONTINUOUS
 10
4.604600
 20
6.458320
  0
VERTEX
  8
0
  6
CONTINUOUS
 10
4.588320
 20
6.433240
  0
VERTEX
  8
0
  6
CONTINUOUS
 10
4.576880
 20
6.402000
  0
VERTEX
  8
0
  6
CONTINUOUS
 10
4.572920
 20
6.383960
  0
VERTEX
  8
0
  6
CONTINUOUS
 10
4.570720
 20
6.364600
  0
VERTEX
  8
0
  6
CONTINUOUS
 10
4.569840
 20
6.343480
  0
VERTEX
  8
0
  6
CONTINUOUS
 10
4.569840
 20
5.908320
  0
VERTEX
  8
0
  6
CONTINUOUS
 10
5.730560
 20
5.908320
  0
VERTEX
  8
0
  6
CONTINUOUS
 10
5.730560
 20
5.911400
  0
SEQEND
  8
0
  0
TEXT
  8
0
 10
4.863760
 20
5.621880
 40
0.138158
  1
BA  539
 41
1.000000
  7
SN0
 71
     0
 72
     5
 11
5.454039
 21
5.621880
  0
TEXT
  8
0
 10
4.661800
 20
5.430480
 40
0.138158
  1
9/16" x 1-1/8"
 41
1.000000
  7
SN0
 71
     0
 72
     5
 11
5.654837
 21
5.430480
  0
ENDSEC
  0
EOF
