  0
SECTION
  2
HEADER
  9
$ACADVER
  1
AC1006
  9
$EXTMIN
 10
1.703680
 20
0.510400
  9
$EXTMAX
 10
6.486040
 20
7.487040
  9
$LTSCALE
 40
0.044000
  9
$PDMODE
 70
    35
  9
$PDSIZE
 40
0.035200
  0
ENDSEC
  0
SECTION
  2
TABLES
  0
TABLE
  2
LTYPE
 70
     9
  0
LTYPE
  2
CONTINUOUS
 70
    64
  3
Solid line
 72
    65
 73
     0
 40
0.000000
  0
LTYPE
  2
DASHED
 70
    64
  3
__ __ __ __ __ __ __ __ __ __ __ __ __ __ __
 72
    65
 73
     2
 40
0.000330
 49
0.000220
 49
-0.000110
  0
LTYPE
  2
HIDDEN
 70
    64
  3
 _ _ _ _ _ _ _ _ _ _ _ _ _ _ _ _ _ _ _ _ _ _
 72
    65
 73
     2
 40
0.000165
 49
0.000110
 49
-0.000055
  0
LTYPE
  2
CENTER
 70
    64
  3
____ _ ____ _ ____ _ ____ _ ____ _ ____ _ ____
 72
    65
 73
     4
 40
0.000880
 49
0.000550
 49
-0.000110
 49
0.000110
 49
-0.000110
  0
LTYPE
  2
PHANTOM
 70
    64
  3
_____ _ _ _____ _ _ _____ _ _ _____ _ _ ____
 72
    65
 73
     6
 40
0.001100
 49
0.000550
 49
-0.000110
 49
0.000110
 49
-0.000110
 49
0.000110
 49
-0.000110
  0
LTYPE
  2
DOT
 70
    64
  3
...............................................
 72
    65
 73
     2
 40
0.000110
 49
0.000000
 49
-0.000110
  0
LTYPE
  2
DASHDOT
 70
    64
  3
__ . __ . __ . __ . __ . __ . __ . __ . __ . __
 72
    65
 73
     4
 40
0.000440
 49
0.000220
 49
-0.000110
 49
0.000000
 49
-0.000110
  0
LTYPE
  2
BORDER
 70
    64
  3
__ __ . __ __ . __ __ . __ __ . __ __ . __ __
 72
    65
 73
     6
 40
0.000770
 49
0.000220
 49
-0.000110
 49
0.000220
 49
-0.000110
 49
0.000000
 49
-0.000110
  0
LTYPE
  2
DIVIDE
 70
    64
  3
__ . . __ . . __ . . __ . . __ . . __ . . __
 72
    65
 73
     6
 40
0.000550
 49
0.000220
 49
-0.000110
 49
0.000000
 49
-0.000110
 49
0.000000
 49
-0.000110
  0
LTYPE
  2
DOTDOT
 70
    64
  3
 . .  . .  . .  . .  . .  . . 
 72
    65
 73
     5
 40
0.000242
 49
-0.000110
 49
0.000000
 49
-0.000110
 49
0.000000
 49
-0.000110
  0
ENDTAB
  0
TABLE
  2
STYLE
 70
     2
  0
STYLE
 70
     0
  2
SN0
 40
0.000000
 41
0.000440
 50
0.000000
 71
     0
 42
0.000000
  3
ROMAND
  0
STYLE
 70
    68
  2
SV0
 40
0.000000
 41
0.000440
 50
0.000000
 71
     0
 42
0.000000
  3
ROMAND
  0
ENDTAB
  0
TABLE
  2
LAYER
 70
     3
  0
LAYER
  2
FOREGROUND
 70
    64
 62
     7
  6
CONTINUOUS
  0
LAYER
  2
BACKGROUND
 70
    65
 62
    -7
  6
CONTINUOUS
  0
LAYER
  2
0
 70
    64
 62
     7
  6
CONTINUOUS
  0
ENDTAB
  0
ENDSEC
  0
SECTION
  2
ENTITIES
  0
POLYLINE
  8
FOREGROUND
  6
CONTINUOUS
 66
     1
 40
0.000000
 41
0.000000
  0
VERTEX
  8
FOREGROUND
  6
CONTINUOUS
 10
0.000000
 20
7.997440
  0
VERTEX
  8
FOREGROUND
  6
CONTINUOUS
 10
8.499920
 20
7.997440
  0
VERTEX
  8
FOREGROUND
  6
CONTINUOUS
 10
8.499920
 20
-3.002560
  0
VERTEX
  8
FOREGROUND
  6
CONTINUOUS
 10
0.000000
 20
-3.002560
  0
VERTEX
  8
FOREGROUND
  6
CONTINUOUS
 10
0.000000
 20
7.997440
  0
SEQEND
  8
0
  0
POLYLINE
  8
FOREGROUND
  6
CONTINUOUS
 66
     1
 40
0.000000
 41
0.000000
  0
VERTEX
  8
FOREGROUND
  6
CONTINUOUS
 10
0.000000
 20
7.997440
  0
VERTEX
  8
FOREGROUND
  6
CONTINUOUS
 10
8.499920
 20
7.997440
  0
VERTEX
  8
FOREGROUND
  6
CONTINUOUS
 10
8.499920
 20
-3.002560
  0
VERTEX
  8
FOREGROUND
  6
CONTINUOUS
 10
0.000000
 20
-3.002560
  0
VERTEX
  8
FOREGROUND
  6
CONTINUOUS
 10
0.000000
 20
7.997440
  0
SEQEND
  8
0
  0
POLYLINE
  8
0
  6
CONTINUOUS
 66
     1
 40
0.014080
 41
0.014080
  0
VERTEX
  8
0
  6
CONTINUOUS
 10
6.407280
 20
6.963880
  0
VERTEX
  8
0
  6
CONTINUOUS
 10
6.406840
 20
6.949800
  0
VERTEX
  8
0
  6
CONTINUOUS
 10
6.405520
 20
6.936160
  0
VERTEX
  8
0
  6
CONTINUOUS
 10
6.403320
 20
6.923400
  0
VERTEX
  8
0
  6
CONTINUOUS
 10
6.400240
 20
6.911080
  0
VERTEX
  8
0
  6
CONTINUOUS
 10
6.396720
 20
6.899640
  0
VERTEX
  8
0
  6
CONTINUOUS
 10
6.392320
 20
6.888640
  0
VERTEX
  8
0
  6
CONTINUOUS
 10
6.387920
 20
6.878080
  0
VERTEX
  8
0
  6
CONTINUOUS
 10
6.383080
 20
6.867960
  0
VERTEX
  8
0
  6
CONTINUOUS
 10
6.372080
 20
6.849920
  0
VERTEX
  8
0
  6
CONTINUOUS
 10
6.361520
 20
6.833640
  0
VERTEX
  8
0
  6
CONTINUOUS
 10
6.356240
 20
6.826160
  0
VERTEX
  8
0
  6
CONTINUOUS
 10
6.351400
 20
6.819120
  0
VERTEX
  8
0
  6
CONTINUOUS
 10
6.346560
 20
6.812960
  0
VERTEX
  8
0
  6
CONTINUOUS
 10
6.342600
 20
6.806800
  0
VERTEX
  8
0
  6
CONTINUOUS
 10
6.338640
 20
6.800640
  0
VERTEX
  8
0
  6
CONTINUOUS
 10
6.333800
 20
6.794480
  0
VERTEX
  8
0
  6
CONTINUOUS
 10
6.328960
 20
6.787000
  0
VERTEX
  8
0
  6
CONTINUOUS
 10
6.324120
 20
6.779080
  0
VERTEX
  8
0
  6
CONTINUOUS
 10
6.318840
 20
6.770720
  0
VERTEX
  8
0
  6
CONTINUOUS
 10
6.313120
 20
6.761480
  0
VERTEX
  8
0
  6
CONTINUOUS
 10
6.307840
 20
6.751360
  0
VERTEX
  8
0
  6
CONTINUOUS
 10
6.302560
 20
6.740360
  0
VERTEX
  8
0
  6
CONTINUOUS
 10
6.297720
 20
6.728920
  0
VERTEX
  8
0
  6
CONTINUOUS
 10
6.292880
 20
6.716160
  0
VERTEX
  8
0
  6
CONTINUOUS
 10
6.288920
 20
6.702960
  0
VERTEX
  8
0
  6
CONTINUOUS
 10
6.285400
 20
6.688440
  0
VERTEX
  8
0
  6
CONTINUOUS
 10
6.282320
 20
6.673040
  0
VERTEX
  8
0
  6
CONTINUOUS
 10
6.279680
 20
6.656320
  0
VERTEX
  8
0
  6
CONTINUOUS
 10
6.278360
 20
6.638720
  0
VERTEX
  8
0
  6
CONTINUOUS
 10
6.277920
 20
6.620240
  0
VERTEX
  8
0
  6
CONTINUOUS
 10
6.227320
 20
6.617160
  0
VERTEX
  8
0
  6
CONTINUOUS
 10
6.227320
 20
1.601600
  0
VERTEX
  8
0
  6
CONTINUOUS
 10
4.984760
 20
1.601600
  0
VERTEX
  8
0
  6
CONTINUOUS
 10
4.984760
 20
7.479560
  0
VERTEX
  8
0
  6
CONTINUOUS
 10
6.478560
 20
7.479560
  0
VERTEX
  8
0
  6
CONTINUOUS
 10
6.478560
 20
6.982800
  0
VERTEX
  8
0
  6
CONTINUOUS
 10
6.407280
 20
6.963880
  0
SEQEND
  8
0
  0
SOLID
  8
0
 62
    15
 10
3.043480
 20
6.244920
 11
3.691160
 21
6.609680
 12
3.022360
 22
6.206200
 13
3.670040
 23
6.570520
  0
POLYLINE
  8
0
  6
CONTINUOUS
 66
     1
 40
0.000000
 41
0.000000
  0
VERTEX
  8
0
  6
CONTINUOUS
 10
3.043480
 20
6.244920
  0
VERTEX
  8
0
  6
CONTINUOUS
 10
3.691160
 20
6.609680
  0
VERTEX
  8
0
  6
CONTINUOUS
 10
3.670040
 20
6.570520
  0
VERTEX
  8
0
  6
CONTINUOUS
 10
3.022360
 20
6.206200
  0
VERTEX
  8
0
  6
CONTINUOUS
 10
3.043480
 20
6.244920
  0
SEQEND
  8
0
  0
SOLID
  8
0
 62
    15
 10
3.119600
 20
6.376920
 11
3.767280
 21
6.741240
 12
3.102440
 22
6.333800
 13
3.750120
 23
6.698120
  0
POLYLINE
  8
0
  6
CONTINUOUS
 66
     1
 40
0.000000
 41
0.000000
  0
VERTEX
  8
0
  6
CONTINUOUS
 10
3.119600
 20
6.376920
  0
VERTEX
  8
0
  6
CONTINUOUS
 10
3.767280
 20
6.741240
  0
VERTEX
  8
0
  6
CONTINUOUS
 10
3.750120
 20
6.698120
  0
VERTEX
  8
0
  6
CONTINUOUS
 10
3.102440
 20
6.333800
  0
VERTEX
  8
0
  6
CONTINUOUS
 10
3.119600
 20
6.376920
  0
SEQEND
  8
0
  0
SOLID
  8
0
 62
    15
 10
3.102440
 20
6.333800
 11
3.750120
 21
6.698120
 12
3.081320
 22
6.299480
 13
3.728560
 23
6.663800
  0
POLYLINE
  8
0
  6
CONTINUOUS
 66
     1
 40
0.000000
 41
0.000000
  0
VERTEX
  8
0
  6
CONTINUOUS
 10
3.102440
 20
6.333800
  0
VERTEX
  8
0
  6
CONTINUOUS
 10
3.750120
 20
6.698120
  0
VERTEX
  8
0
  6
CONTINUOUS
 10
3.728560
 20
6.663800
  0
VERTEX
  8
0
  6
CONTINUOUS
 10
3.081320
 20
6.299480
  0
VERTEX
  8
0
  6
CONTINUOUS
 10
3.102440
 20
6.333800
  0
SEQEND
  8
0
  0
SOLID
  8
0
 62
    15
 10
3.081320
 20
6.299480
 11
3.728560
 21
6.663800
 12
3.062400
 22
6.272640
 13
3.710080
 23
6.637400
  0
POLYLINE
  8
0
  6
CONTINUOUS
 66
     1
 40
0.000000
 41
0.000000
  0
VERTEX
  8
0
  6
CONTINUOUS
 10
3.081320
 20
6.299480
  0
VERTEX
  8
0
  6
CONTINUOUS
 10
3.728560
 20
6.663800
  0
VERTEX
  8
0
  6
CONTINUOUS
 10
3.710080
 20
6.637400
  0
VERTEX
  8
0
  6
CONTINUOUS
 10
3.062400
 20
6.272640
  0
VERTEX
  8
0
  6
CONTINUOUS
 10
3.081320
 20
6.299480
  0
SEQEND
  8
0
  0
SOLID
  8
0
 62
    15
 10
3.062400
 20
6.272640
 11
3.710080
 21
6.637400
 12
3.043480
 22
6.244920
 13
3.691160
 23
6.609680
  0
POLYLINE
  8
0
  6
CONTINUOUS
 66
     1
 40
0.000000
 41
0.000000
  0
VERTEX
  8
0
  6
CONTINUOUS
 10
3.062400
 20
6.272640
  0
VERTEX
  8
0
  6
CONTINUOUS
 10
3.710080
 20
6.637400
  0
VERTEX
  8
0
  6
CONTINUOUS
 10
3.691160
 20
6.609680
  0
VERTEX
  8
0
  6
CONTINUOUS
 10
3.043480
 20
6.244920
  0
VERTEX
  8
0
  6
CONTINUOUS
 10
3.062400
 20
6.272640
  0
SEQEND
  8
0
  0
SOLID
  8
0
 62
    15
 10
3.127080
 20
6.429720
 11
3.774320
 21
6.794480
 12
3.119600
 22
6.376920
 13
3.767280
 23
6.741240
  0
POLYLINE
  8
0
  6
CONTINUOUS
 66
     1
 40
0.000000
 41
0.000000
  0
VERTEX
  8
0
  6
CONTINUOUS
 10
3.127080
 20
6.429720
  0
VERTEX
  8
0
  6
CONTINUOUS
 10
3.774320
 20
6.794480
  0
VERTEX
  8
0
  6
CONTINUOUS
 10
3.767280
 20
6.741240
  0
VERTEX
  8
0
  6
CONTINUOUS
 10
3.119600
 20
6.376920
  0
VERTEX
  8
0
  6
CONTINUOUS
 10
3.127080
 20
6.429720
  0
SEQEND
  8
0
  0
SOLID
  8
0
 62
    15
 10
3.022360
 20
6.206200
 11
3.670040
 21
6.570520
 12
3.004760
 22
6.154280
 13
3.652440
 23
6.518600
  0
POLYLINE
  8
0
  6
CONTINUOUS
 66
     1
 40
0.000000
 41
0.000000
  0
VERTEX
  8
0
  6
CONTINUOUS
 10
3.022360
 20
6.206200
  0
VERTEX
  8
0
  6
CONTINUOUS
 10
3.670040
 20
6.570520
  0
VERTEX
  8
0
  6
CONTINUOUS
 10
3.652440
 20
6.518600
  0
VERTEX
  8
0
  6
CONTINUOUS
 10
3.004760
 20
6.154280
  0
VERTEX
  8
0
  6
CONTINUOUS
 10
3.022360
 20
6.206200
  0
SEQEND
  8
0
  0
SOLID
  8
0
 62
    15
 10
2.947120
 20
6.083000
 11
3.594360
 21
6.447320
 12
2.947120
 22
1.067440
 13
3.594360
 23
1.431760
  0
POLYLINE
  8
0
  6
CONTINUOUS
 66
     1
 40
0.000000
 41
0.000000
  0
VERTEX
  8
0
  6
CONTINUOUS
 10
2.947120
 20
6.083000
  0
VERTEX
  8
0
  6
CONTINUOUS
 10
3.594360
 20
6.447320
  0
VERTEX
  8
0
  6
CONTINUOUS
 10
3.594360
 20
1.431760
  0
VERTEX
  8
0
  6
CONTINUOUS
 10
2.947120
 20
1.067440
  0
VERTEX
  8
0
  6
CONTINUOUS
 10
2.947120
 20
6.083000
  0
SEQEND
  8
0
  0
SOLID
  8
0
 62
    15
 10
3.004760
 20
6.154280
 11
3.652440
 21
6.518600
 12
2.997720
 22
6.086080
 13
3.645400
 23
6.450400
  0
POLYLINE
  8
0
  6
CONTINUOUS
 66
     1
 40
0.000000
 41
0.000000
  0
VERTEX
  8
0
  6
CONTINUOUS
 10
3.004760
 20
6.154280
  0
VERTEX
  8
0
  6
CONTINUOUS
 10
3.652440
 20
6.518600
  0
VERTEX
  8
0
  6
CONTINUOUS
 10
3.645400
 20
6.450400
  0
VERTEX
  8
0
  6
CONTINUOUS
 10
2.997720
 20
6.086080
  0
VERTEX
  8
0
  6
CONTINUOUS
 10
3.004760
 20
6.154280
  0
SEQEND
  8
0
  0
SOLID
  8
0
 62
    15
 10
1.704560
 20
6.945400
 11
2.351800
 21
7.309720
 12
3.198360
 22
6.945400
 13
3.846040
 23
7.309720
  0
POLYLINE
  8
0
  6
CONTINUOUS
 66
     1
 40
0.000000
 41
0.000000
  0
VERTEX
  8
0
  6
CONTINUOUS
 10
1.704560
 20
6.945400
  0
VERTEX
  8
0
  6
CONTINUOUS
 10
2.351800
 20
7.309720
  0
VERTEX
  8
0
  6
CONTINUOUS
 10
3.846040
 20
7.309720
  0
VERTEX
  8
0
  6
CONTINUOUS
 10
3.198360
 20
6.945400
  0
VERTEX
  8
0
  6
CONTINUOUS
 10
1.704560
 20
6.945400
  0
SEQEND
  8
0
  0
SOLID
  8
0
 62
    15
 10
3.198360
 20
6.945400
 11
3.846040
 21
7.309720
 12
3.198360
 22
6.448640
 13
3.846040
 23
6.812960
  0
POLYLINE
  8
0
  6
CONTINUOUS
 66
     1
 40
0.000000
 41
0.000000
  0
VERTEX
  8
0
  6
CONTINUOUS
 10
3.198360
 20
6.945400
  0
VERTEX
  8
0
  6
CONTINUOUS
 10
3.846040
 20
7.309720
  0
VERTEX
  8
0
  6
CONTINUOUS
 10
3.846040
 20
6.812960
  0
VERTEX
  8
0
  6
CONTINUOUS
 10
3.198360
 20
6.448640
  0
VERTEX
  8
0
  6
CONTINUOUS
 10
3.198360
 20
6.945400
  0
SEQEND
  8
0
  0
POLYLINE
  8
0
  6
CONTINUOUS
 66
     1
 40
0.000000
 41
0.000000
  0
VERTEX
  8
0
  6
CONTINUOUS
 10
3.127080
 20
6.429720
  0
VERTEX
  8
0
  6
CONTINUOUS
 10
3.119600
 20
6.376920
  0
VERTEX
  8
0
  6
CONTINUOUS
 10
3.102440
 20
6.333800
  0
VERTEX
  8
0
  6
CONTINUOUS
 10
3.081320
 20
6.299480
  0
VERTEX
  8
0
  6
CONTINUOUS
 10
3.062400
 20
6.272640
  0
VERTEX
  8
0
  6
CONTINUOUS
 10
3.043480
 20
6.244920
  0
VERTEX
  8
0
  6
CONTINUOUS
 10
3.022360
 20
6.206200
  0
VERTEX
  8
0
  6
CONTINUOUS
 10
3.004760
 20
6.154280
  0
VERTEX
  8
0
  6
CONTINUOUS
 10
2.997720
 20
6.086080
  0
VERTEX
  8
0
  6
CONTINUOUS
 10
2.947120
 20
6.083000
  0
VERTEX
  8
0
  6
CONTINUOUS
 10
2.947120
 20
1.067440
  0
VERTEX
  8
0
  6
CONTINUOUS
 10
1.704560
 20
1.067440
  0
VERTEX
  8
0
  6
CONTINUOUS
 10
1.704560
 20
6.945400
  0
VERTEX
  8
0
  6
CONTINUOUS
 10
3.198360
 20
6.945400
  0
VERTEX
  8
0
  6
CONTINUOUS
 10
3.198360
 20
6.448640
  0
VERTEX
  8
0
  6
CONTINUOUS
 10
3.127080
 20
6.429720
  0
SEQEND
  8
0
  0
TEXT
  8
0
 10
2.479400
 20
0.746680
 40
0.138142
  1
BA  538
 41
1.000000
  7
SN0
 71
     0
 72
     5
 11
3.069275
 21
0.746680
  0
TEXT
  8
0
 10
2.249720
 20
0.554840
 40
0.138142
  1
1-1/2" x 5-7/8"
 41
1.000000
  7
SN0
 71
     0
 72
     5
 11
3.297262
 21
0.554840
  0
ENDSEC
  0
EOF
