  0
SECTION
  2
HEADER
  9
$ACADVER
  1
AC1006
  9
$EXTMIN
 10
1.614800
 20
0.649880
  9
$EXTMAX
 10
7.162760
 20
2.621080
  9
$LTSCALE
 40
0.044000
  9
$PDMODE
 70
    35
  9
$PDSIZE
 40
0.035200
  0
ENDSEC
  0
SECTION
  2
TABLES
  0
TABLE
  2
LTYPE
 70
     9
  0
LTYPE
  2
CONTINUOUS
 70
    64
  3
Solid line
 72
    65
 73
     0
 40
0.000000
  0
LTYPE
  2
DASHED
 70
    64
  3
__ __ __ __ __ __ __ __ __ __ __ __ __ __ __
 72
    65
 73
     2
 40
0.000330
 49
0.000220
 49
-0.000110
  0
LTYPE
  2
HIDDEN
 70
    64
  3
 _ _ _ _ _ _ _ _ _ _ _ _ _ _ _ _ _ _ _ _ _ _
 72
    65
 73
     2
 40
0.000165
 49
0.000110
 49
-0.000055
  0
LTYPE
  2
CENTER
 70
    64
  3
____ _ ____ _ ____ _ ____ _ ____ _ ____ _ ____
 72
    65
 73
     4
 40
0.000880
 49
0.000550
 49
-0.000110
 49
0.000110
 49
-0.000110
  0
LTYPE
  2
PHANTOM
 70
    64
  3
_____ _ _ _____ _ _ _____ _ _ _____ _ _ ____
 72
    65
 73
     6
 40
0.001100
 49
0.000550
 49
-0.000110
 49
0.000110
 49
-0.000110
 49
0.000110
 49
-0.000110
  0
LTYPE
  2
DOT
 70
    64
  3
...............................................
 72
    65
 73
     2
 40
0.000110
 49
0.000000
 49
-0.000110
  0
LTYPE
  2
DASHDOT
 70
    64
  3
__ . __ . __ . __ . __ . __ . __ . __ . __ . __
 72
    65
 73
     4
 40
0.000440
 49
0.000220
 49
-0.000110
 49
0.000000
 49
-0.000110
  0
LTYPE
  2
BORDER
 70
    64
  3
__ __ . __ __ . __ __ . __ __ . __ __ . __ __
 72
    65
 73
     6
 40
0.000770
 49
0.000220
 49
-0.000110
 49
0.000220
 49
-0.000110
 49
0.000000
 49
-0.000110
  0
LTYPE
  2
DIVIDE
 70
    64
  3
__ . . __ . . __ . . __ . . __ . . __ . . __
 72
    65
 73
     6
 40
0.000550
 49
0.000220
 49
-0.000110
 49
0.000000
 49
-0.000110
 49
0.000000
 49
-0.000110
  0
LTYPE
  2
DOTDOT
 70
    64
  3
 . .  . .  . .  . .  . .  . . 
 72
    65
 73
     5
 40
0.000242
 49
-0.000110
 49
0.000000
 49
-0.000110
 49
0.000000
 49
-0.000110
  0
ENDTAB
  0
TABLE
  2
STYLE
 70
     2
  0
STYLE
 70
     0
  2
SN0
 40
0.000000
 41
0.000440
 50
0.000000
 71
     0
 42
0.000000
  3
ROMAND
  0
STYLE
 70
    68
  2
SV0
 40
0.000000
 41
0.000440
 50
0.000000
 71
     0
 42
0.000000
  3
ROMAND
  0
ENDTAB
  0
TABLE
  2
LAYER
 70
     3
  0
LAYER
  2
FOREGROUND
 70
    64
 62
     7
  6
CONTINUOUS
  0
LAYER
  2
BACKGROUND
 70
    65
 62
    -7
  6
CONTINUOUS
  0
LAYER
  2
0
 70
    64
 62
     7
  6
CONTINUOUS
  0
ENDTAB
  0
ENDSEC
  0
SECTION
  2
ENTITIES
  0
POLYLINE
  8
FOREGROUND
  6
CONTINUOUS
 66
     1
 40
0.000000
 41
0.000000
  0
VERTEX
  8
FOREGROUND
  6
CONTINUOUS
 10
0.000000
 20
3.270960
  0
VERTEX
  8
FOREGROUND
  6
CONTINUOUS
 10
8.499920
 20
3.270960
  0
VERTEX
  8
FOREGROUND
  6
CONTINUOUS
 10
8.499920
 20
-7.729040
  0
VERTEX
  8
FOREGROUND
  6
CONTINUOUS
 10
0.000000
 20
-7.729040
  0
VERTEX
  8
FOREGROUND
  6
CONTINUOUS
 10
0.000000
 20
3.270960
  0
SEQEND
  8
0
  0
POLYLINE
  8
FOREGROUND
  6
CONTINUOUS
 66
     1
 40
0.000000
 41
0.000000
  0
VERTEX
  8
FOREGROUND
  6
CONTINUOUS
 10
0.000000
 20
3.270960
  0
VERTEX
  8
FOREGROUND
  6
CONTINUOUS
 10
8.499920
 20
3.270960
  0
VERTEX
  8
FOREGROUND
  6
CONTINUOUS
 10
8.499920
 20
-7.729040
  0
VERTEX
  8
FOREGROUND
  6
CONTINUOUS
 10
0.000000
 20
-7.729040
  0
VERTEX
  8
FOREGROUND
  6
CONTINUOUS
 10
0.000000
 20
3.270960
  0
SEQEND
  8
0
  0
POLYLINE
  8
0
  6
CONTINUOUS
 66
     1
 40
0.014080
 41
0.014080
  0
VERTEX
  8
0
  6
CONTINUOUS
 10
4.907320
 20
1.322200
  0
VERTEX
  8
0
  6
CONTINUOUS
 10
4.908640
 20
1.379840
  0
VERTEX
  8
0
  6
CONTINUOUS
 10
4.913040
 20
1.437040
  0
VERTEX
  8
0
  6
CONTINUOUS
 10
4.920080
 20
1.493360
  0
VERTEX
  8
0
  6
CONTINUOUS
 10
4.935920
 20
1.576080
  0
VERTEX
  8
0
  6
CONTINUOUS
 10
4.950000
 20
1.629760
  0
VERTEX
  8
0
  6
CONTINUOUS
 10
4.975520
 20
1.708520
  0
VERTEX
  8
0
  6
CONTINUOUS
 10
4.995760
 20
1.759560
  0
VERTEX
  8
0
  6
CONTINUOUS
 10
5.018200
 20
1.809720
  0
VERTEX
  8
0
  6
CONTINUOUS
 10
5.042840
 20
1.858120
  0
VERTEX
  8
0
  6
CONTINUOUS
 10
5.084640
 20
1.928080
  0
VERTEX
  8
0
  6
CONTINUOUS
 10
5.130840
 20
1.994960
  0
VERTEX
  8
0
  6
CONTINUOUS
 10
5.181440
 20
2.057880
  0
VERTEX
  8
0
  6
CONTINUOUS
 10
5.236440
 20
2.117280
  0
VERTEX
  8
0
  6
CONTINUOUS
 10
5.295840
 20
2.172280
  0
VERTEX
  8
0
  6
CONTINUOUS
 10
5.358760
 20
2.222880
  0
VERTEX
  8
0
  6
CONTINUOUS
 10
5.425640
 20
2.269080
  0
VERTEX
  8
0
  6
CONTINUOUS
 10
5.495600
 20
2.310880
  0
VERTEX
  8
0
  6
CONTINUOUS
 10
5.569080
 20
2.346960
  0
VERTEX
  8
0
  6
CONTINUOUS
 10
5.619240
 20
2.368520
  0
VERTEX
  8
0
  6
CONTINUOUS
 10
5.697120
 20
2.395800
  0
VERTEX
  8
0
  6
CONTINUOUS
 10
5.750360
 20
2.411200
  0
VERTEX
  8
0
  6
CONTINUOUS
 10
5.832640
 20
2.428800
  0
VERTEX
  8
0
  6
CONTINUOUS
 10
5.860360
 20
2.433640
  0
VERTEX
  8
0
  6
CONTINUOUS
 10
5.944840
 20
2.443320
  0
VERTEX
  8
0
  6
CONTINUOUS
 10
6.002480
 20
2.445960
  0
VERTEX
  8
0
  6
CONTINUOUS
 10
6.060560
 20
2.445960
  0
VERTEX
  8
0
  6
CONTINUOUS
 10
6.118200
 20
2.443320
  0
VERTEX
  8
0
  6
CONTINUOUS
 10
6.202680
 20
2.433640
  0
VERTEX
  8
0
  6
CONTINUOUS
 10
6.285400
 20
2.417800
  0
VERTEX
  8
0
  6
CONTINUOUS
 10
6.339080
 20
2.403720
  0
VERTEX
  8
0
  6
CONTINUOUS
 10
6.417840
 20
2.378200
  0
VERTEX
  8
0
  6
CONTINUOUS
 10
6.468880
 20
2.357960
  0
VERTEX
  8
0
  6
CONTINUOUS
 10
6.519040
 20
2.335520
  0
VERTEX
  8
0
  6
CONTINUOUS
 10
6.567440
 20
2.310880
  0
VERTEX
  8
0
  6
CONTINUOUS
 10
6.637400
 20
2.269080
  0
VERTEX
  8
0
  6
CONTINUOUS
 10
6.704280
 20
2.222880
  0
VERTEX
  8
0
  6
CONTINUOUS
 10
6.767200
 20
2.172280
  0
VERTEX
  8
0
  6
CONTINUOUS
 10
6.826600
 20
2.117280
  0
VERTEX
  8
0
  6
CONTINUOUS
 10
6.881600
 20
2.057880
  0
VERTEX
  8
0
  6
CONTINUOUS
 10
6.932200
 20
1.994960
  0
VERTEX
  8
0
  6
CONTINUOUS
 10
6.978400
 20
1.928080
  0
VERTEX
  8
0
  6
CONTINUOUS
 10
7.020200
 20
1.858120
  0
VERTEX
  8
0
  6
CONTINUOUS
 10
7.056280
 20
1.784640
  0
VERTEX
  8
0
  6
CONTINUOUS
 10
7.077840
 20
1.734480
  0
VERTEX
  8
0
  6
CONTINUOUS
 10
7.105120
 20
1.656600
  0
VERTEX
  8
0
  6
CONTINUOUS
 10
7.120520
 20
1.603360
  0
VERTEX
  8
0
  6
CONTINUOUS
 10
7.138120
 20
1.521080
  0
VERTEX
  8
0
  6
CONTINUOUS
 10
7.142960
 20
1.493360
  0
VERTEX
  8
0
  6
CONTINUOUS
 10
7.152640
 20
1.408880
  0
VERTEX
  8
0
  6
CONTINUOUS
 10
7.155280
 20
1.351240
  0
VERTEX
  8
0
  6
CONTINUOUS
 10
7.155720
 20
1.322200
  0
VERTEX
  8
0
  6
CONTINUOUS
 10
4.907320
 20
1.322200
  0
SEQEND
  8
0
  0
SOLID
  8
0
 62
    15
 10
3.274920
 20
2.114200
 11
3.909840
 21
2.484680
 12
3.367760
 22
2.057880
 13
4.002680
 23
2.428360
  0
POLYLINE
  8
0
  6
CONTINUOUS
 66
     1
 40
0.000000
 41
0.000000
  0
VERTEX
  8
0
  6
CONTINUOUS
 10
3.274920
 20
2.114200
  0
VERTEX
  8
0
  6
CONTINUOUS
 10
3.909840
 20
2.484680
  0
VERTEX
  8
0
  6
CONTINUOUS
 10
4.002680
 20
2.428360
  0
VERTEX
  8
0
  6
CONTINUOUS
 10
3.367760
 20
2.057880
  0
VERTEX
  8
0
  6
CONTINUOUS
 10
3.274920
 20
2.114200
  0
SEQEND
  8
0
  0
SOLID
  8
0
 62
    15
 10
2.301640
 20
2.161720
 11
2.936560
 21
2.532200
 12
2.405040
 22
2.199120
 13
3.039960
 23
2.570040
  0
POLYLINE
  8
0
  6
CONTINUOUS
 66
     1
 40
0.000000
 41
0.000000
  0
VERTEX
  8
0
  6
CONTINUOUS
 10
2.301640
 20
2.161720
  0
VERTEX
  8
0
  6
CONTINUOUS
 10
2.936560
 20
2.532200
  0
VERTEX
  8
0
  6
CONTINUOUS
 10
3.039960
 20
2.570040
  0
VERTEX
  8
0
  6
CONTINUOUS
 10
2.405040
 20
2.199120
  0
VERTEX
  8
0
  6
CONTINUOUS
 10
2.301640
 20
2.161720
  0
SEQEND
  8
0
  0
SOLID
  8
0
 62
    15
 10
2.405040
 20
2.199120
 11
3.039960
 21
2.570040
 12
2.512840
 22
2.226840
 13
3.147760
 23
2.597760
  0
POLYLINE
  8
0
  6
CONTINUOUS
 66
     1
 40
0.000000
 41
0.000000
  0
VERTEX
  8
0
  6
CONTINUOUS
 10
2.405040
 20
2.199120
  0
VERTEX
  8
0
  6
CONTINUOUS
 10
3.039960
 20
2.570040
  0
VERTEX
  8
0
  6
CONTINUOUS
 10
3.147760
 20
2.597760
  0
VERTEX
  8
0
  6
CONTINUOUS
 10
2.512840
 20
2.226840
  0
VERTEX
  8
0
  6
CONTINUOUS
 10
2.405040
 20
2.199120
  0
SEQEND
  8
0
  0
SOLID
  8
0
 62
    15
 10
2.512840
 20
2.226840
 11
3.147760
 21
2.597760
 12
2.624600
 22
2.244000
 13
3.259520
 23
2.614480
  0
POLYLINE
  8
0
  6
CONTINUOUS
 66
     1
 40
0.000000
 41
0.000000
  0
VERTEX
  8
0
  6
CONTINUOUS
 10
2.512840
 20
2.226840
  0
VERTEX
  8
0
  6
CONTINUOUS
 10
3.147760
 20
2.597760
  0
VERTEX
  8
0
  6
CONTINUOUS
 10
3.259520
 20
2.614480
  0
VERTEX
  8
0
  6
CONTINUOUS
 10
2.624600
 20
2.244000
  0
VERTEX
  8
0
  6
CONTINUOUS
 10
2.512840
 20
2.226840
  0
SEQEND
  8
0
  0
SOLID
  8
0
 62
    15
 10
2.624600
 20
2.244000
 11
3.259520
 21
2.614480
 12
2.739440
 22
2.249720
 13
3.374360
 23
2.620640
  0
POLYLINE
  8
0
  6
CONTINUOUS
 66
     1
 40
0.000000
 41
0.000000
  0
VERTEX
  8
0
  6
CONTINUOUS
 10
2.624600
 20
2.244000
  0
VERTEX
  8
0
  6
CONTINUOUS
 10
3.259520
 20
2.614480
  0
VERTEX
  8
0
  6
CONTINUOUS
 10
3.374360
 20
2.620640
  0
VERTEX
  8
0
  6
CONTINUOUS
 10
2.739440
 20
2.249720
  0
VERTEX
  8
0
  6
CONTINUOUS
 10
2.624600
 20
2.244000
  0
SEQEND
  8
0
  0
SOLID
  8
0
 62
    15
 10
2.739440
 20
2.249720
 11
3.374360
 21
2.620640
 12
2.854280
 22
2.244000
 13
3.489200
 23
2.614480
  0
POLYLINE
  8
0
  6
CONTINUOUS
 66
     1
 40
0.000000
 41
0.000000
  0
VERTEX
  8
0
  6
CONTINUOUS
 10
2.739440
 20
2.249720
  0
VERTEX
  8
0
  6
CONTINUOUS
 10
3.374360
 20
2.620640
  0
VERTEX
  8
0
  6
CONTINUOUS
 10
3.489200
 20
2.614480
  0
VERTEX
  8
0
  6
CONTINUOUS
 10
2.854280
 20
2.244000
  0
VERTEX
  8
0
  6
CONTINUOUS
 10
2.739440
 20
2.249720
  0
SEQEND
  8
0
  0
SOLID
  8
0
 62
    15
 10
2.854280
 20
2.244000
 11
3.489200
 21
2.614480
 12
2.966040
 22
2.226840
 13
3.600960
 23
2.597760
  0
POLYLINE
  8
0
  6
CONTINUOUS
 66
     1
 40
0.000000
 41
0.000000
  0
VERTEX
  8
0
  6
CONTINUOUS
 10
2.854280
 20
2.244000
  0
VERTEX
  8
0
  6
CONTINUOUS
 10
3.489200
 20
2.614480
  0
VERTEX
  8
0
  6
CONTINUOUS
 10
3.600960
 20
2.597760
  0
VERTEX
  8
0
  6
CONTINUOUS
 10
2.966040
 20
2.226840
  0
VERTEX
  8
0
  6
CONTINUOUS
 10
2.854280
 20
2.244000
  0
SEQEND
  8
0
  0
SOLID
  8
0
 62
    15
 10
2.966040
 20
2.226840
 11
3.600960
 21
2.597760
 12
3.073400
 22
2.199120
 13
3.708320
 23
2.570040
  0
POLYLINE
  8
0
  6
CONTINUOUS
 66
     1
 40
0.000000
 41
0.000000
  0
VERTEX
  8
0
  6
CONTINUOUS
 10
2.966040
 20
2.226840
  0
VERTEX
  8
0
  6
CONTINUOUS
 10
3.600960
 20
2.597760
  0
VERTEX
  8
0
  6
CONTINUOUS
 10
3.708320
 20
2.570040
  0
VERTEX
  8
0
  6
CONTINUOUS
 10
3.073400
 20
2.199120
  0
VERTEX
  8
0
  6
CONTINUOUS
 10
2.966040
 20
2.226840
  0
SEQEND
  8
0
  0
SOLID
  8
0
 62
    15
 10
3.073400
 20
2.199120
 11
3.708320
 21
2.570040
 12
3.176800
 22
2.161720
 13
3.811720
 23
2.532200
  0
POLYLINE
  8
0
  6
CONTINUOUS
 66
     1
 40
0.000000
 41
0.000000
  0
VERTEX
  8
0
  6
CONTINUOUS
 10
3.073400
 20
2.199120
  0
VERTEX
  8
0
  6
CONTINUOUS
 10
3.708320
 20
2.570040
  0
VERTEX
  8
0
  6
CONTINUOUS
 10
3.811720
 20
2.532200
  0
VERTEX
  8
0
  6
CONTINUOUS
 10
3.176800
 20
2.161720
  0
VERTEX
  8
0
  6
CONTINUOUS
 10
3.073400
 20
2.199120
  0
SEQEND
  8
0
  0
SOLID
  8
0
 62
    15
 10
3.176800
 20
2.161720
 11
3.811720
 21
2.532200
 12
3.274920
 22
2.114200
 13
3.909840
 23
2.484680
  0
POLYLINE
  8
0
  6
CONTINUOUS
 66
     1
 40
0.000000
 41
0.000000
  0
VERTEX
  8
0
  6
CONTINUOUS
 10
3.176800
 20
2.161720
  0
VERTEX
  8
0
  6
CONTINUOUS
 10
3.811720
 20
2.532200
  0
VERTEX
  8
0
  6
CONTINUOUS
 10
3.909840
 20
2.484680
  0
VERTEX
  8
0
  6
CONTINUOUS
 10
3.274920
 20
2.114200
  0
VERTEX
  8
0
  6
CONTINUOUS
 10
3.176800
 20
2.161720
  0
SEQEND
  8
0
  0
SOLID
  8
0
 62
    15
 10
2.203520
 20
2.114200
 11
2.838440
 21
2.484680
 12
2.301640
 22
2.161720
 13
2.936560
 23
2.532200
  0
POLYLINE
  8
0
  6
CONTINUOUS
 66
     1
 40
0.000000
 41
0.000000
  0
VERTEX
  8
0
  6
CONTINUOUS
 10
2.203520
 20
2.114200
  0
VERTEX
  8
0
  6
CONTINUOUS
 10
2.838440
 20
2.484680
  0
VERTEX
  8
0
  6
CONTINUOUS
 10
2.936560
 20
2.532200
  0
VERTEX
  8
0
  6
CONTINUOUS
 10
2.301640
 20
2.161720
  0
VERTEX
  8
0
  6
CONTINUOUS
 10
2.203520
 20
2.114200
  0
SEQEND
  8
0
  0
SOLID
  8
0
 62
    15
 10
3.367760
 20
2.057880
 11
4.002680
 21
2.428360
 12
3.454440
 22
1.993200
 13
4.089360
 23
2.363680
  0
POLYLINE
  8
0
  6
CONTINUOUS
 66
     1
 40
0.000000
 41
0.000000
  0
VERTEX
  8
0
  6
CONTINUOUS
 10
3.367760
 20
2.057880
  0
VERTEX
  8
0
  6
CONTINUOUS
 10
4.002680
 20
2.428360
  0
VERTEX
  8
0
  6
CONTINUOUS
 10
4.089360
 20
2.363680
  0
VERTEX
  8
0
  6
CONTINUOUS
 10
3.454440
 20
1.993200
  0
VERTEX
  8
0
  6
CONTINUOUS
 10
3.367760
 20
2.057880
  0
SEQEND
  8
0
  0
SOLID
  8
0
 62
    15
 10
3.454440
 20
1.993200
 11
4.089360
 21
2.363680
 12
3.534080
 22
1.920600
 13
4.169000
 23
2.291080
  0
POLYLINE
  8
0
  6
CONTINUOUS
 66
     1
 40
0.000000
 41
0.000000
  0
VERTEX
  8
0
  6
CONTINUOUS
 10
3.454440
 20
1.993200
  0
VERTEX
  8
0
  6
CONTINUOUS
 10
4.089360
 20
2.363680
  0
VERTEX
  8
0
  6
CONTINUOUS
 10
4.169000
 20
2.291080
  0
VERTEX
  8
0
  6
CONTINUOUS
 10
3.534080
 20
1.920600
  0
VERTEX
  8
0
  6
CONTINUOUS
 10
3.454440
 20
1.993200
  0
SEQEND
  8
0
  0
SOLID
  8
0
 62
    15
 10
3.534080
 20
1.920600
 11
4.169000
 21
2.291080
 12
3.606680
 22
1.840960
 13
4.241600
 23
2.211440
  0
POLYLINE
  8
0
  6
CONTINUOUS
 66
     1
 40
0.000000
 41
0.000000
  0
VERTEX
  8
0
  6
CONTINUOUS
 10
3.534080
 20
1.920600
  0
VERTEX
  8
0
  6
CONTINUOUS
 10
4.169000
 20
2.291080
  0
VERTEX
  8
0
  6
CONTINUOUS
 10
4.241600
 20
2.211440
  0
VERTEX
  8
0
  6
CONTINUOUS
 10
3.606680
 20
1.840960
  0
VERTEX
  8
0
  6
CONTINUOUS
 10
3.534080
 20
1.920600
  0
SEQEND
  8
0
  0
SOLID
  8
0
 62
    15
 10
3.606680
 20
1.840960
 11
4.241600
 21
2.211440
 12
3.671360
 22
1.754280
 13
4.306280
 23
2.124760
  0
POLYLINE
  8
0
  6
CONTINUOUS
 66
     1
 40
0.000000
 41
0.000000
  0
VERTEX
  8
0
  6
CONTINUOUS
 10
3.606680
 20
1.840960
  0
VERTEX
  8
0
  6
CONTINUOUS
 10
4.241600
 20
2.211440
  0
VERTEX
  8
0
  6
CONTINUOUS
 10
4.306280
 20
2.124760
  0
VERTEX
  8
0
  6
CONTINUOUS
 10
3.671360
 20
1.754280
  0
VERTEX
  8
0
  6
CONTINUOUS
 10
3.606680
 20
1.840960
  0
SEQEND
  8
0
  0
SOLID
  8
0
 62
    15
 10
3.671360
 20
1.754280
 11
4.306280
 21
2.124760
 12
3.727680
 22
1.661440
 13
4.362600
 23
2.032360
  0
POLYLINE
  8
0
  6
CONTINUOUS
 66
     1
 40
0.000000
 41
0.000000
  0
VERTEX
  8
0
  6
CONTINUOUS
 10
3.671360
 20
1.754280
  0
VERTEX
  8
0
  6
CONTINUOUS
 10
4.306280
 20
2.124760
  0
VERTEX
  8
0
  6
CONTINUOUS
 10
4.362600
 20
2.032360
  0
VERTEX
  8
0
  6
CONTINUOUS
 10
3.727680
 20
1.661440
  0
VERTEX
  8
0
  6
CONTINUOUS
 10
3.671360
 20
1.754280
  0
SEQEND
  8
0
  0
SOLID
  8
0
 62
    15
 10
3.727680
 20
1.661440
 11
4.362600
 21
2.032360
 12
3.775200
 22
1.563320
 13
4.410120
 23
1.933800
  0
POLYLINE
  8
0
  6
CONTINUOUS
 66
     1
 40
0.000000
 41
0.000000
  0
VERTEX
  8
0
  6
CONTINUOUS
 10
3.727680
 20
1.661440
  0
VERTEX
  8
0
  6
CONTINUOUS
 10
4.362600
 20
2.032360
  0
VERTEX
  8
0
  6
CONTINUOUS
 10
4.410120
 20
1.933800
  0
VERTEX
  8
0
  6
CONTINUOUS
 10
3.775200
 20
1.563320
  0
VERTEX
  8
0
  6
CONTINUOUS
 10
3.727680
 20
1.661440
  0
SEQEND
  8
0
  0
SOLID
  8
0
 62
    15
 10
3.775200
 20
1.563320
 11
4.410120
 21
1.933800
 12
3.812600
 22
1.459920
 13
4.447520
 23
1.830840
  0
POLYLINE
  8
0
  6
CONTINUOUS
 66
     1
 40
0.000000
 41
0.000000
  0
VERTEX
  8
0
  6
CONTINUOUS
 10
3.775200
 20
1.563320
  0
VERTEX
  8
0
  6
CONTINUOUS
 10
4.410120
 20
1.933800
  0
VERTEX
  8
0
  6
CONTINUOUS
 10
4.447520
 20
1.830840
  0
VERTEX
  8
0
  6
CONTINUOUS
 10
3.812600
 20
1.459920
  0
VERTEX
  8
0
  6
CONTINUOUS
 10
3.775200
 20
1.563320
  0
SEQEND
  8
0
  0
SOLID
  8
0
 62
    15
 10
3.812600
 20
1.459920
 11
4.447520
 21
1.830840
 12
3.840320
 22
1.352560
 13
4.475240
 23
1.723040
  0
POLYLINE
  8
0
  6
CONTINUOUS
 66
     1
 40
0.000000
 41
0.000000
  0
VERTEX
  8
0
  6
CONTINUOUS
 10
3.812600
 20
1.459920
  0
VERTEX
  8
0
  6
CONTINUOUS
 10
4.447520
 20
1.830840
  0
VERTEX
  8
0
  6
CONTINUOUS
 10
4.475240
 20
1.723040
  0
VERTEX
  8
0
  6
CONTINUOUS
 10
3.840320
 20
1.352560
  0
VERTEX
  8
0
  6
CONTINUOUS
 10
3.812600
 20
1.459920
  0
SEQEND
  8
0
  0
SOLID
  8
0
 62
    15
 10
3.840320
 20
1.352560
 11
4.475240
 21
1.723040
 12
3.857480
 22
1.240800
 13
4.492400
 23
1.611280
  0
POLYLINE
  8
0
  6
CONTINUOUS
 66
     1
 40
0.000000
 41
0.000000
  0
VERTEX
  8
0
  6
CONTINUOUS
 10
3.840320
 20
1.352560
  0
VERTEX
  8
0
  6
CONTINUOUS
 10
4.475240
 20
1.723040
  0
VERTEX
  8
0
  6
CONTINUOUS
 10
4.492400
 20
1.611280
  0
VERTEX
  8
0
  6
CONTINUOUS
 10
3.857480
 20
1.240800
  0
VERTEX
  8
0
  6
CONTINUOUS
 10
3.840320
 20
1.352560
  0
SEQEND
  8
0
  0
SOLID
  8
0
 62
    15
 10
3.857480
 20
1.240800
 11
4.492400
 21
1.611280
 12
3.863200
 22
1.125960
 13
4.498120
 23
1.496440
  0
POLYLINE
  8
0
  6
CONTINUOUS
 66
     1
 40
0.000000
 41
0.000000
  0
VERTEX
  8
0
  6
CONTINUOUS
 10
3.857480
 20
1.240800
  0
VERTEX
  8
0
  6
CONTINUOUS
 10
4.492400
 20
1.611280
  0
VERTEX
  8
0
  6
CONTINUOUS
 10
4.498120
 20
1.496440
  0
VERTEX
  8
0
  6
CONTINUOUS
 10
3.863200
 20
1.125960
  0
VERTEX
  8
0
  6
CONTINUOUS
 10
3.857480
 20
1.240800
  0
SEQEND
  8
0
  0
POLYLINE
  8
0
  6
CONTINUOUS
 66
     1
 40
0.000000
 41
0.000000
  0
VERTEX
  8
0
  6
CONTINUOUS
 10
1.615240
 20
1.125960
  0
VERTEX
  8
0
  6
CONTINUOUS
 10
1.620960
 20
1.240800
  0
VERTEX
  8
0
  6
CONTINUOUS
 10
1.638120
 20
1.352560
  0
VERTEX
  8
0
  6
CONTINUOUS
 10
1.665840
 20
1.459920
  0
VERTEX
  8
0
  6
CONTINUOUS
 10
1.703680
 20
1.563320
  0
VERTEX
  8
0
  6
CONTINUOUS
 10
1.751200
 20
1.661440
  0
VERTEX
  8
0
  6
CONTINUOUS
 10
1.807080
 20
1.754280
  0
VERTEX
  8
0
  6
CONTINUOUS
 10
1.872200
 20
1.840960
  0
VERTEX
  8
0
  6
CONTINUOUS
 10
1.944360
 20
1.920600
  0
VERTEX
  8
0
  6
CONTINUOUS
 10
2.024440
 20
1.993200
  0
VERTEX
  8
0
  6
CONTINUOUS
 10
2.111120
 20
2.057880
  0
VERTEX
  8
0
  6
CONTINUOUS
 10
2.203520
 20
2.114200
  0
VERTEX
  8
0
  6
CONTINUOUS
 10
2.301640
 20
2.161720
  0
VERTEX
  8
0
  6
CONTINUOUS
 10
2.405040
 20
2.199120
  0
VERTEX
  8
0
  6
CONTINUOUS
 10
2.512840
 20
2.226840
  0
VERTEX
  8
0
  6
CONTINUOUS
 10
2.624600
 20
2.244000
  0
VERTEX
  8
0
  6
CONTINUOUS
 10
2.739440
 20
2.249720
  0
VERTEX
  8
0
  6
CONTINUOUS
 10
2.854280
 20
2.244000
  0
VERTEX
  8
0
  6
CONTINUOUS
 10
2.966040
 20
2.226840
  0
VERTEX
  8
0
  6
CONTINUOUS
 10
3.073400
 20
2.199120
  0
VERTEX
  8
0
  6
CONTINUOUS
 10
3.176800
 20
2.161720
  0
VERTEX
  8
0
  6
CONTINUOUS
 10
3.274920
 20
2.114200
  0
VERTEX
  8
0
  6
CONTINUOUS
 10
3.367760
 20
2.057880
  0
VERTEX
  8
0
  6
CONTINUOUS
 10
3.454440
 20
1.993200
  0
VERTEX
  8
0
  6
CONTINUOUS
 10
3.534080
 20
1.920600
  0
VERTEX
  8
0
  6
CONTINUOUS
 10
3.606680
 20
1.840960
  0
VERTEX
  8
0
  6
CONTINUOUS
 10
3.671360
 20
1.754280
  0
VERTEX
  8
0
  6
CONTINUOUS
 10
3.727680
 20
1.661440
  0
VERTEX
  8
0
  6
CONTINUOUS
 10
3.775200
 20
1.563320
  0
VERTEX
  8
0
  6
CONTINUOUS
 10
3.812600
 20
1.459920
  0
VERTEX
  8
0
  6
CONTINUOUS
 10
3.840320
 20
1.352560
  0
VERTEX
  8
0
  6
CONTINUOUS
 10
3.857480
 20
1.240800
  0
VERTEX
  8
0
  6
CONTINUOUS
 10
3.863200
 20
1.125960
  0
VERTEX
  8
0
  6
CONTINUOUS
 10
1.615240
 20
1.125960
  0
SEQEND
  8
0
  0
TEXT
  8
0
 10
2.763200
 20
0.885280
 40
0.138080
  1
BA  536
 41
1.000000
  7
SN0
 71
     0
 72
     5
 11
3.354058
 21
0.885280
  0
TEXT
  8
0
 10
2.840200
 20
0.693880
 40
0.138080
  1
2-1/4"
 41
1.000000
  7
SN0
 71
     0
 72
     5
 11
3.277657
 21
0.693880
  0
ENDSEC
  0
EOF
