  0
SECTION
  2
HEADER
  9
$ACADVER
  1
AC1006
  9
$EXTMIN
 10
3.174600
 20
0.610280
  9
$EXTMAX
 10
7.755880
 20
5.162520
  9
$LTSCALE
 40
0.044000
  9
$PDMODE
 70
    35
  9
$PDSIZE
 40
0.035200
  0
ENDSEC
  0
SECTION
  2
TABLES
  0
TABLE
  2
LTYPE
 70
     9
  0
LTYPE
  2
CONTINUOUS
 70
    64
  3
Solid line
 72
    65
 73
     0
 40
0.000000
  0
LTYPE
  2
DASHED
 70
    64
  3
__ __ __ __ __ __ __ __ __ __ __ __ __ __ __
 72
    65
 73
     2
 40
0.000330
 49
0.000220
 49
-0.000110
  0
LTYPE
  2
HIDDEN
 70
    64
  3
 _ _ _ _ _ _ _ _ _ _ _ _ _ _ _ _ _ _ _ _ _ _
 72
    65
 73
     2
 40
0.000165
 49
0.000110
 49
-0.000055
  0
LTYPE
  2
CENTER
 70
    64
  3
____ _ ____ _ ____ _ ____ _ ____ _ ____ _ ____
 72
    65
 73
     4
 40
0.000880
 49
0.000550
 49
-0.000110
 49
0.000110
 49
-0.000110
  0
LTYPE
  2
PHANTOM
 70
    64
  3
_____ _ _ _____ _ _ _____ _ _ _____ _ _ ____
 72
    65
 73
     6
 40
0.001100
 49
0.000550
 49
-0.000110
 49
0.000110
 49
-0.000110
 49
0.000110
 49
-0.000110
  0
LTYPE
  2
DOT
 70
    64
  3
...............................................
 72
    65
 73
     2
 40
0.000110
 49
0.000000
 49
-0.000110
  0
LTYPE
  2
DASHDOT
 70
    64
  3
__ . __ . __ . __ . __ . __ . __ . __ . __ . __
 72
    65
 73
     4
 40
0.000440
 49
0.000220
 49
-0.000110
 49
0.000000
 49
-0.000110
  0
LTYPE
  2
BORDER
 70
    64
  3
__ __ . __ __ . __ __ . __ __ . __ __ . __ __
 72
    65
 73
     6
 40
0.000770
 49
0.000220
 49
-0.000110
 49
0.000220
 49
-0.000110
 49
0.000000
 49
-0.000110
  0
LTYPE
  2
DIVIDE
 70
    64
  3
__ . . __ . . __ . . __ . . __ . . __ . . __
 72
    65
 73
     6
 40
0.000550
 49
0.000220
 49
-0.000110
 49
0.000000
 49
-0.000110
 49
0.000000
 49
-0.000110
  0
LTYPE
  2
DOTDOT
 70
    64
  3
 . .  . .  . .  . .  . .  . . 
 72
    65
 73
     5
 40
0.000242
 49
-0.000110
 49
0.000000
 49
-0.000110
 49
0.000000
 49
-0.000110
  0
ENDTAB
  0
TABLE
  2
STYLE
 70
     2
  0
STYLE
 70
     0
  2
SN0
 40
0.000000
 41
0.000440
 50
0.000000
 71
     0
 42
0.000000
  3
ROMAND
  0
STYLE
 70
    68
  2
SV0
 40
0.000000
 41
0.000440
 50
0.000000
 71
     0
 42
0.000000
  3
ROMAND
  0
ENDTAB
  0
TABLE
  2
LAYER
 70
     3
  0
LAYER
  2
FOREGROUND
 70
    64
 62
     7
  6
CONTINUOUS
  0
LAYER
  2
BACKGROUND
 70
    65
 62
    -7
  6
CONTINUOUS
  0
LAYER
  2
0
 70
    64
 62
     7
  6
CONTINUOUS
  0
ENDTAB
  0
ENDSEC
  0
SECTION
  2
ENTITIES
  0
POLYLINE
  8
FOREGROUND
  6
CONTINUOUS
 66
     1
 40
0.000000
 41
0.000000
  0
VERTEX
  8
FOREGROUND
  6
CONTINUOUS
 10
0.000000
 20
5.772800
  0
VERTEX
  8
FOREGROUND
  6
CONTINUOUS
 10
8.499920
 20
5.772800
  0
VERTEX
  8
FOREGROUND
  6
CONTINUOUS
 10
8.499920
 20
-5.227200
  0
VERTEX
  8
FOREGROUND
  6
CONTINUOUS
 10
0.000000
 20
-5.227200
  0
VERTEX
  8
FOREGROUND
  6
CONTINUOUS
 10
0.000000
 20
5.772800
  0
SEQEND
  8
0
  0
POLYLINE
  8
0
  6
CONTINUOUS
 66
     1
 40
0.014080
 41
0.014080
  0
VERTEX
  8
0
  6
CONTINUOUS
 10
3.588200
 20
5.156360
  0
VERTEX
  8
0
  6
CONTINUOUS
 10
3.648920
 20
5.113240
  0
VERTEX
  8
0
  6
CONTINUOUS
 10
3.713160
 20
5.074080
  0
VERTEX
  8
0
  6
CONTINUOUS
 10
3.781360
 20
5.039320
  0
VERTEX
  8
0
  6
CONTINUOUS
 10
3.852640
 20
5.008960
  0
VERTEX
  8
0
  6
CONTINUOUS
 10
3.927440
 20
4.982560
  0
VERTEX
  8
0
  6
CONTINUOUS
 10
4.004880
 20
4.961000
  0
VERTEX
  8
0
  6
CONTINUOUS
 10
4.084960
 20
4.943840
  0
VERTEX
  8
0
  6
CONTINUOUS
 10
4.167240
 20
4.931520
  0
VERTEX
  8
0
  6
CONTINUOUS
 10
4.251720
 20
4.924040
  0
VERTEX
  8
0
  6
CONTINUOUS
 10
4.337960
 20
4.921400
  0
VERTEX
  8
0
  6
CONTINUOUS
 10
4.381520
 20
4.921840
  0
VERTEX
  8
0
  6
CONTINUOUS
 10
4.469520
 20
4.927120
  0
VERTEX
  8
0
  6
CONTINUOUS
 10
4.558840
 20
4.936800
  0
VERTEX
  8
0
  6
CONTINUOUS
 10
4.649040
 20
4.952200
  0
VERTEX
  8
0
  6
CONTINUOUS
 10
4.739680
 20
4.972880
  0
VERTEX
  8
0
  6
CONTINUOUS
 10
4.830760
 20
4.999280
  0
VERTEX
  8
0
  6
CONTINUOUS
 10
4.964080
 20
5.043720
  0
VERTEX
  8
0
  6
CONTINUOUS
 10
5.085960
 20
5.079360
  0
VERTEX
  8
0
  6
CONTINUOUS
 10
5.160760
 20
5.097400
  0
VERTEX
  8
0
  6
CONTINUOUS
 10
5.231160
 20
5.111040
  0
VERTEX
  8
0
  6
CONTINUOUS
 10
5.297160
 20
5.120280
  0
VERTEX
  8
0
  6
CONTINUOUS
 10
5.359200
 20
5.125120
  0
VERTEX
  8
0
  6
CONTINUOUS
 10
5.417720
 20
5.125560
  0
VERTEX
  8
0
  6
CONTINUOUS
 10
5.473160
 20
5.121160
  0
VERTEX
  8
0
  6
CONTINUOUS
 10
5.525960
 20
5.112800
  0
VERTEX
  8
0
  6
CONTINUOUS
 10
5.576120
 20
5.100040
  0
VERTEX
  8
0
  6
CONTINUOUS
 10
5.624520
 20
5.082880
  0
VERTEX
  8
0
  6
CONTINUOUS
 10
5.671160
 20
5.061320
  0
VERTEX
  8
0
  6
CONTINUOUS
 10
5.716480
 20
5.035360
  0
VERTEX
  8
0
  6
CONTINUOUS
 10
5.760920
 20
5.005000
  0
VERTEX
  8
0
  6
CONTINUOUS
 10
5.826480
 20
4.951760
  0
VERTEX
  8
0
  6
CONTINUOUS
 10
5.986640
 20
5.078920
  0
VERTEX
  8
0
  6
CONTINUOUS
 10
6.140200
 20
4.935480
  0
VERTEX
  8
0
  6
CONTINUOUS
 10
6.159560
 20
4.961880
  0
VERTEX
  8
0
  6
CONTINUOUS
 10
6.190800
 20
4.990480
  0
VERTEX
  8
0
  6
CONTINUOUS
 10
6.209720
 20
5.004560
  0
VERTEX
  8
0
  6
CONTINUOUS
 10
6.254160
 20
5.030080
  0
VERTEX
  8
0
  6
CONTINUOUS
 10
6.291560
 20
5.044600
  0
VERTEX
  8
0
  6
CONTINUOUS
 10
6.332040
 20
5.053400
  0
VERTEX
  8
0
  6
CONTINUOUS
 10
6.359760
 20
5.056040
  0
VERTEX
  8
0
  6
CONTINUOUS
 10
6.387920
 20
5.054720
  0
VERTEX
  8
0
  6
CONTINUOUS
 10
6.416520
 20
5.049440
  0
VERTEX
  8
0
  6
CONTINUOUS
 10
6.445120
 20
5.039320
  0
VERTEX
  8
0
  6
CONTINUOUS
 10
6.473720
 20
5.024800
  0
VERTEX
  8
0
  6
CONTINUOUS
 10
6.544120
 20
4.973320
  0
VERTEX
  8
0
  6
CONTINUOUS
 10
6.574480
 20
4.955720
  0
VERTEX
  8
0
  6
CONTINUOUS
 10
6.621120
 20
4.934600
  0
VERTEX
  8
0
  6
CONTINUOUS
 10
6.652800
 20
4.924040
  0
VERTEX
  8
0
  6
CONTINUOUS
 10
6.700760
 20
4.912600
  0
VERTEX
  8
0
  6
CONTINUOUS
 10
6.748280
 20
4.906880
  0
VERTEX
  8
0
  6
CONTINUOUS
 10
6.779080
 20
4.906440
  0
VERTEX
  8
0
  6
CONTINUOUS
 10
6.823520
 20
4.910400
  0
VERTEX
  8
0
  6
CONTINUOUS
 10
6.837600
 20
4.912600
  0
VERTEX
  8
0
  6
CONTINUOUS
 10
6.877640
 20
4.924040
  0
VERTEX
  8
0
  6
CONTINUOUS
 10
6.913280
 20
4.940320
  0
VERTEX
  8
0
  6
CONTINUOUS
 10
6.934400
 20
4.953960
  0
VERTEX
  8
0
  6
CONTINUOUS
 10
6.952440
 20
4.970240
  0
VERTEX
  8
0
  6
CONTINUOUS
 10
7.103360
 20
4.823280
  0
VERTEX
  8
0
  6
CONTINUOUS
 10
6.623760
 20
4.333560
  0
VERTEX
  8
0
  6
CONTINUOUS
 10
3.574120
 20
4.333560
  0
VERTEX
  8
0
  6
CONTINUOUS
 10
3.185160
 20
4.733960
  0
VERTEX
  8
0
  6
CONTINUOUS
 10
3.588200
 20
5.156360
  0
SEQEND
  8
0
  0
SOLID
  8
0
 62
    15
 10
5.497800
 20
1.832160
 11
6.134480
 21
1.469600
 12
5.386920
 22
1.818960
 13
6.023600
 23
1.456400
  0
POLYLINE
  8
0
  6
CONTINUOUS
 66
     1
 40
0.000000
 41
0.000000
  0
VERTEX
  8
0
  6
CONTINUOUS
 10
5.497800
 20
1.832160
  0
VERTEX
  8
0
  6
CONTINUOUS
 10
6.134480
 20
1.469600
  0
VERTEX
  8
0
  6
CONTINUOUS
 10
6.023600
 20
1.456400
  0
VERTEX
  8
0
  6
CONTINUOUS
 10
5.386920
 20
1.818960
  0
VERTEX
  8
0
  6
CONTINUOUS
 10
5.497800
 20
1.832160
  0
SEQEND
  8
0
  0
SOLID
  8
0
 62
    15
 10
6.972240
 20
3.221680
 11
7.608920
 21
2.859120
 12
6.827480
 22
3.169320
 13
7.464160
 23
2.807200
  0
POLYLINE
  8
0
  6
CONTINUOUS
 66
     1
 40
0.000000
 41
0.000000
  0
VERTEX
  8
0
  6
CONTINUOUS
 10
6.972240
 20
3.221680
  0
VERTEX
  8
0
  6
CONTINUOUS
 10
7.608920
 20
2.859120
  0
VERTEX
  8
0
  6
CONTINUOUS
 10
7.464160
 20
2.807200
  0
VERTEX
  8
0
  6
CONTINUOUS
 10
6.827480
 20
3.169320
  0
VERTEX
  8
0
  6
CONTINUOUS
 10
6.972240
 20
3.221680
  0
SEQEND
  8
0
  0
SOLID
  8
0
 62
    15
 10
6.827480
 20
3.169320
 11
7.464160
 21
2.807200
 12
6.685800
 22
3.096280
 13
7.322480
 23
2.733720
  0
POLYLINE
  8
0
  6
CONTINUOUS
 66
     1
 40
0.000000
 41
0.000000
  0
VERTEX
  8
0
  6
CONTINUOUS
 10
6.827480
 20
3.169320
  0
VERTEX
  8
0
  6
CONTINUOUS
 10
7.464160
 20
2.807200
  0
VERTEX
  8
0
  6
CONTINUOUS
 10
7.322480
 20
2.733720
  0
VERTEX
  8
0
  6
CONTINUOUS
 10
6.685800
 20
3.096280
  0
VERTEX
  8
0
  6
CONTINUOUS
 10
6.827480
 20
3.169320
  0
SEQEND
  8
0
  0
SOLID
  8
0
 62
    15
 10
6.685800
 20
3.096280
 11
7.322480
 21
2.733720
 12
6.549840
 22
3.002560
 13
7.186520
 23
2.640000
  0
POLYLINE
  8
0
  6
CONTINUOUS
 66
     1
 40
0.000000
 41
0.000000
  0
VERTEX
  8
0
  6
CONTINUOUS
 10
6.685800
 20
3.096280
  0
VERTEX
  8
0
  6
CONTINUOUS
 10
7.322480
 20
2.733720
  0
VERTEX
  8
0
  6
CONTINUOUS
 10
7.186520
 20
2.640000
  0
VERTEX
  8
0
  6
CONTINUOUS
 10
6.549840
 20
3.002560
  0
VERTEX
  8
0
  6
CONTINUOUS
 10
6.685800
 20
3.096280
  0
SEQEND
  8
0
  0
SOLID
  8
0
 62
    15
 10
6.549840
 20
3.002560
 11
7.186520
 21
2.640000
 12
6.421360
 22
2.889920
 13
7.058480
 23
2.527360
  0
POLYLINE
  8
0
  6
CONTINUOUS
 66
     1
 40
0.000000
 41
0.000000
  0
VERTEX
  8
0
  6
CONTINUOUS
 10
6.549840
 20
3.002560
  0
VERTEX
  8
0
  6
CONTINUOUS
 10
7.186520
 20
2.640000
  0
VERTEX
  8
0
  6
CONTINUOUS
 10
7.058480
 20
2.527360
  0
VERTEX
  8
0
  6
CONTINUOUS
 10
6.421360
 20
2.889920
  0
VERTEX
  8
0
  6
CONTINUOUS
 10
6.549840
 20
3.002560
  0
SEQEND
  8
0
  0
SOLID
  8
0
 62
    15
 10
6.421360
 20
2.889920
 11
7.058480
 21
2.527360
 12
6.303440
 22
2.758360
 13
6.940120
 23
2.396240
  0
POLYLINE
  8
0
  6
CONTINUOUS
 66
     1
 40
0.000000
 41
0.000000
  0
VERTEX
  8
0
  6
CONTINUOUS
 10
6.421360
 20
2.889920
  0
VERTEX
  8
0
  6
CONTINUOUS
 10
7.058480
 20
2.527360
  0
VERTEX
  8
0
  6
CONTINUOUS
 10
6.940120
 20
2.396240
  0
VERTEX
  8
0
  6
CONTINUOUS
 10
6.303440
 20
2.758360
  0
VERTEX
  8
0
  6
CONTINUOUS
 10
6.421360
 20
2.889920
  0
SEQEND
  8
0
  0
SOLID
  8
0
 62
    15
 10
6.303440
 20
2.758360
 11
6.940120
 21
2.396240
 12
6.196960
 22
2.609640
 13
6.833640
 23
2.247520
  0
POLYLINE
  8
0
  6
CONTINUOUS
 66
     1
 40
0.000000
 41
0.000000
  0
VERTEX
  8
0
  6
CONTINUOUS
 10
6.303440
 20
2.758360
  0
VERTEX
  8
0
  6
CONTINUOUS
 10
6.940120
 20
2.396240
  0
VERTEX
  8
0
  6
CONTINUOUS
 10
6.833640
 20
2.247520
  0
VERTEX
  8
0
  6
CONTINUOUS
 10
6.196960
 20
2.609640
  0
VERTEX
  8
0
  6
CONTINUOUS
 10
6.303440
 20
2.758360
  0
SEQEND
  8
0
  0
SOLID
  8
0
 62
    15
 10
6.196960
 20
2.609640
 11
6.833640
 21
2.247520
 12
6.105000
 22
2.444640
 13
6.741680
 23
2.082080
  0
POLYLINE
  8
0
  6
CONTINUOUS
 66
     1
 40
0.000000
 41
0.000000
  0
VERTEX
  8
0
  6
CONTINUOUS
 10
6.196960
 20
2.609640
  0
VERTEX
  8
0
  6
CONTINUOUS
 10
6.833640
 20
2.247520
  0
VERTEX
  8
0
  6
CONTINUOUS
 10
6.741680
 20
2.082080
  0
VERTEX
  8
0
  6
CONTINUOUS
 10
6.105000
 20
2.444640
  0
VERTEX
  8
0
  6
CONTINUOUS
 10
6.196960
 20
2.609640
  0
SEQEND
  8
0
  0
SOLID
  8
0
 62
    15
 10
6.105000
 20
2.444640
 11
6.741680
 21
2.082080
 12
6.022280
 22
2.285800
 13
6.658960
 23
1.923680
  0
POLYLINE
  8
0
  6
CONTINUOUS
 66
     1
 40
0.000000
 41
0.000000
  0
VERTEX
  8
0
  6
CONTINUOUS
 10
6.105000
 20
2.444640
  0
VERTEX
  8
0
  6
CONTINUOUS
 10
6.741680
 20
2.082080
  0
VERTEX
  8
0
  6
CONTINUOUS
 10
6.658960
 20
1.923680
  0
VERTEX
  8
0
  6
CONTINUOUS
 10
6.022280
 20
2.285800
  0
VERTEX
  8
0
  6
CONTINUOUS
 10
6.105000
 20
2.444640
  0
SEQEND
  8
0
  0
SOLID
  8
0
 62
    15
 10
6.022280
 20
2.285800
 11
6.658960
 21
1.923680
 12
5.941760
 22
2.154680
 13
6.578440
 23
1.792120
  0
POLYLINE
  8
0
  6
CONTINUOUS
 66
     1
 40
0.000000
 41
0.000000
  0
VERTEX
  8
0
  6
CONTINUOUS
 10
6.022280
 20
2.285800
  0
VERTEX
  8
0
  6
CONTINUOUS
 10
6.658960
 20
1.923680
  0
VERTEX
  8
0
  6
CONTINUOUS
 10
6.578440
 20
1.792120
  0
VERTEX
  8
0
  6
CONTINUOUS
 10
5.941760
 20
2.154680
  0
VERTEX
  8
0
  6
CONTINUOUS
 10
6.022280
 20
2.285800
  0
SEQEND
  8
0
  0
SOLID
  8
0
 62
    15
 10
5.941760
 20
2.154680
 11
6.578440
 21
1.792120
 12
5.860800
 22
2.048640
 13
6.497480
 23
1.686080
  0
POLYLINE
  8
0
  6
CONTINUOUS
 66
     1
 40
0.000000
 41
0.000000
  0
VERTEX
  8
0
  6
CONTINUOUS
 10
5.941760
 20
2.154680
  0
VERTEX
  8
0
  6
CONTINUOUS
 10
6.578440
 20
1.792120
  0
VERTEX
  8
0
  6
CONTINUOUS
 10
6.497480
 20
1.686080
  0
VERTEX
  8
0
  6
CONTINUOUS
 10
5.860800
 20
2.048640
  0
VERTEX
  8
0
  6
CONTINUOUS
 10
5.941760
 20
2.154680
  0
SEQEND
  8
0
  0
SOLID
  8
0
 62
    15
 10
5.860800
 20
2.048640
 11
6.497480
 21
1.686080
 12
5.778080
 22
1.965480
 13
6.414760
 23
1.602920
  0
POLYLINE
  8
0
  6
CONTINUOUS
 66
     1
 40
0.000000
 41
0.000000
  0
VERTEX
  8
0
  6
CONTINUOUS
 10
5.860800
 20
2.048640
  0
VERTEX
  8
0
  6
CONTINUOUS
 10
6.497480
 20
1.686080
  0
VERTEX
  8
0
  6
CONTINUOUS
 10
6.414760
 20
1.602920
  0
VERTEX
  8
0
  6
CONTINUOUS
 10
5.778080
 20
1.965480
  0
VERTEX
  8
0
  6
CONTINUOUS
 10
5.860800
 20
2.048640
  0
SEQEND
  8
0
  0
SOLID
  8
0
 62
    15
 10
5.778080
 20
1.965480
 11
6.414760
 21
1.602920
 12
5.691400
 22
1.903000
 13
6.328080
 23
1.540440
  0
POLYLINE
  8
0
  6
CONTINUOUS
 66
     1
 40
0.000000
 41
0.000000
  0
VERTEX
  8
0
  6
CONTINUOUS
 10
5.778080
 20
1.965480
  0
VERTEX
  8
0
  6
CONTINUOUS
 10
6.414760
 20
1.602920
  0
VERTEX
  8
0
  6
CONTINUOUS
 10
6.328080
 20
1.540440
  0
VERTEX
  8
0
  6
CONTINUOUS
 10
5.691400
 20
1.903000
  0
VERTEX
  8
0
  6
CONTINUOUS
 10
5.778080
 20
1.965480
  0
SEQEND
  8
0
  0
SOLID
  8
0
 62
    15
 10
5.691400
 20
1.903000
 11
6.328080
 21
1.540440
 12
5.598560
 22
1.859440
 13
6.235240
 23
1.496880
  0
POLYLINE
  8
0
  6
CONTINUOUS
 66
     1
 40
0.000000
 41
0.000000
  0
VERTEX
  8
0
  6
CONTINUOUS
 10
5.691400
 20
1.903000
  0
VERTEX
  8
0
  6
CONTINUOUS
 10
6.328080
 20
1.540440
  0
VERTEX
  8
0
  6
CONTINUOUS
 10
6.235240
 20
1.496880
  0
VERTEX
  8
0
  6
CONTINUOUS
 10
5.598560
 20
1.859440
  0
VERTEX
  8
0
  6
CONTINUOUS
 10
5.691400
 20
1.903000
  0
SEQEND
  8
0
  0
SOLID
  8
0
 62
    15
 10
5.598560
 20
1.859440
 11
6.235240
 21
1.496880
 12
5.497800
 22
1.832160
 13
6.134480
 23
1.469600
  0
POLYLINE
  8
0
  6
CONTINUOUS
 66
     1
 40
0.000000
 41
0.000000
  0
VERTEX
  8
0
  6
CONTINUOUS
 10
5.598560
 20
1.859440
  0
VERTEX
  8
0
  6
CONTINUOUS
 10
6.235240
 20
1.496880
  0
VERTEX
  8
0
  6
CONTINUOUS
 10
6.134480
 20
1.469600
  0
VERTEX
  8
0
  6
CONTINUOUS
 10
5.497800
 20
1.832160
  0
VERTEX
  8
0
  6
CONTINUOUS
 10
5.598560
 20
1.859440
  0
SEQEND
  8
0
  0
SOLID
  8
0
 62
    15
 10
7.119200
 20
3.251160
 11
7.755880
 21
2.889040
 12
6.972240
 22
3.221680
 13
7.608920
 23
2.859120
  0
POLYLINE
  8
0
  6
CONTINUOUS
 66
     1
 40
0.000000
 41
0.000000
  0
VERTEX
  8
0
  6
CONTINUOUS
 10
7.119200
 20
3.251160
  0
VERTEX
  8
0
  6
CONTINUOUS
 10
7.755880
 20
2.889040
  0
VERTEX
  8
0
  6
CONTINUOUS
 10
7.608920
 20
2.859120
  0
VERTEX
  8
0
  6
CONTINUOUS
 10
6.972240
 20
3.221680
  0
VERTEX
  8
0
  6
CONTINUOUS
 10
7.119200
 20
3.251160
  0
SEQEND
  8
0
  0
SOLID
  8
0
 62
    15
 10
5.386920
 20
1.818960
 11
6.023600
 21
1.456400
 12
5.362720
 22
1.616120
 13
5.999400
 23
1.253560
  0
POLYLINE
  8
0
  6
CONTINUOUS
 66
     1
 40
0.000000
 41
0.000000
  0
VERTEX
  8
0
  6
CONTINUOUS
 10
5.386920
 20
1.818960
  0
VERTEX
  8
0
  6
CONTINUOUS
 10
6.023600
 20
1.456400
  0
VERTEX
  8
0
  6
CONTINUOUS
 10
5.999400
 20
1.253560
  0
VERTEX
  8
0
  6
CONTINUOUS
 10
5.362720
 20
1.616120
  0
VERTEX
  8
0
  6
CONTINUOUS
 10
5.386920
 20
1.818960
  0
SEQEND
  8
0
  0
SOLID
  8
0
 62
    15
 10
5.362720
 20
1.616120
 11
5.999400
 21
1.253560
 12
5.152840
 22
1.609520
 13
5.789520
 23
1.247400
  0
POLYLINE
  8
0
  6
CONTINUOUS
 66
     1
 40
0.000000
 41
0.000000
  0
VERTEX
  8
0
  6
CONTINUOUS
 10
5.362720
 20
1.616120
  0
VERTEX
  8
0
  6
CONTINUOUS
 10
5.999400
 20
1.253560
  0
VERTEX
  8
0
  6
CONTINUOUS
 10
5.789520
 20
1.247400
  0
VERTEX
  8
0
  6
CONTINUOUS
 10
5.152840
 20
1.609520
  0
VERTEX
  8
0
  6
CONTINUOUS
 10
5.362720
 20
1.616120
  0
SEQEND
  8
0
  0
SOLID
  8
0
 62
    15
 10
5.152840
 20
1.609520
 11
5.789520
 21
1.247400
 12
5.155920
 22
1.535160
 13
5.792600
 23
1.172600
  0
POLYLINE
  8
0
  6
CONTINUOUS
 66
     1
 40
0.000000
 41
0.000000
  0
VERTEX
  8
0
  6
CONTINUOUS
 10
5.152840
 20
1.609520
  0
VERTEX
  8
0
  6
CONTINUOUS
 10
5.789520
 20
1.247400
  0
VERTEX
  8
0
  6
CONTINUOUS
 10
5.792600
 20
1.172600
  0
VERTEX
  8
0
  6
CONTINUOUS
 10
5.155920
 20
1.535160
  0
VERTEX
  8
0
  6
CONTINUOUS
 10
5.152840
 20
1.609520
  0
SEQEND
  8
0
  0
SOLID
  8
0
 62
    15
 10
5.155920
 20
1.535160
 11
5.792600
 21
1.172600
 12
5.128200
 22
1.437920
 13
5.764880
 23
1.075360
  0
POLYLINE
  8
0
  6
CONTINUOUS
 66
     1
 40
0.000000
 41
0.000000
  0
VERTEX
  8
0
  6
CONTINUOUS
 10
5.155920
 20
1.535160
  0
VERTEX
  8
0
  6
CONTINUOUS
 10
5.792600
 20
1.172600
  0
VERTEX
  8
0
  6
CONTINUOUS
 10
5.764880
 20
1.075360
  0
VERTEX
  8
0
  6
CONTINUOUS
 10
5.128200
 20
1.437920
  0
VERTEX
  8
0
  6
CONTINUOUS
 10
5.155920
 20
1.535160
  0
SEQEND
  8
0
  0
SOLID
  8
0
 62
    15
 10
5.128200
 20
1.437920
 11
5.764880
 21
1.075360
 12
5.100040
 22
1.390840
 13
5.736720
 23
1.028280
  0
POLYLINE
  8
0
  6
CONTINUOUS
 66
     1
 40
0.000000
 41
0.000000
  0
VERTEX
  8
0
  6
CONTINUOUS
 10
5.128200
 20
1.437920
  0
VERTEX
  8
0
  6
CONTINUOUS
 10
5.764880
 20
1.075360
  0
VERTEX
  8
0
  6
CONTINUOUS
 10
5.736720
 20
1.028280
  0
VERTEX
  8
0
  6
CONTINUOUS
 10
5.100040
 20
1.390840
  0
VERTEX
  8
0
  6
CONTINUOUS
 10
5.128200
 20
1.437920
  0
SEQEND
  8
0
  0
SOLID
  8
0
 62
    15
 10
5.100040
 20
1.390840
 11
5.736720
 21
1.028280
 12
5.060880
 22
1.350360
 13
5.697560
 23
0.988240
  0
POLYLINE
  8
0
  6
CONTINUOUS
 66
     1
 40
0.000000
 41
0.000000
  0
VERTEX
  8
0
  6
CONTINUOUS
 10
5.100040
 20
1.390840
  0
VERTEX
  8
0
  6
CONTINUOUS
 10
5.736720
 20
1.028280
  0
VERTEX
  8
0
  6
CONTINUOUS
 10
5.697560
 20
0.988240
  0
VERTEX
  8
0
  6
CONTINUOUS
 10
5.060880
 20
1.350360
  0
VERTEX
  8
0
  6
CONTINUOUS
 10
5.100040
 20
1.390840
  0
SEQEND
  8
0
  0
SOLID
  8
0
 62
    15
 10
5.060880
 20
1.350360
 11
5.697560
 21
0.988240
 12
5.009400
 22
1.320880
 13
5.646080
 23
0.958320
  0
POLYLINE
  8
0
  6
CONTINUOUS
 66
     1
 40
0.000000
 41
0.000000
  0
VERTEX
  8
0
  6
CONTINUOUS
 10
5.060880
 20
1.350360
  0
VERTEX
  8
0
  6
CONTINUOUS
 10
5.697560
 20
0.988240
  0
VERTEX
  8
0
  6
CONTINUOUS
 10
5.646080
 20
0.958320
  0
VERTEX
  8
0
  6
CONTINUOUS
 10
5.009400
 20
1.320880
  0
VERTEX
  8
0
  6
CONTINUOUS
 10
5.060880
 20
1.350360
  0
SEQEND
  8
0
  0
SOLID
  8
0
 62
    15
 10
5.009400
 20
1.320880
 11
5.646080
 21
0.958320
 12
4.945160
 22
1.305920
 13
5.581840
 23
0.943800
  0
POLYLINE
  8
0
  6
CONTINUOUS
 66
     1
 40
0.000000
 41
0.000000
  0
VERTEX
  8
0
  6
CONTINUOUS
 10
5.009400
 20
1.320880
  0
VERTEX
  8
0
  6
CONTINUOUS
 10
5.646080
 20
0.958320
  0
VERTEX
  8
0
  6
CONTINUOUS
 10
5.581840
 20
0.943800
  0
VERTEX
  8
0
  6
CONTINUOUS
 10
4.945160
 20
1.305920
  0
VERTEX
  8
0
  6
CONTINUOUS
 10
5.009400
 20
1.320880
  0
SEQEND
  8
0
  0
SOLID
  8
0
 62
    15
 10
4.945160
 20
1.305920
 11
5.581840
 21
0.943800
 12
4.810960
 22
1.271600
 13
5.447640
 23
0.909040
  0
POLYLINE
  8
0
  6
CONTINUOUS
 66
     1
 40
0.000000
 41
0.000000
  0
VERTEX
  8
0
  6
CONTINUOUS
 10
4.945160
 20
1.305920
  0
VERTEX
  8
0
  6
CONTINUOUS
 10
5.581840
 20
0.943800
  0
VERTEX
  8
0
  6
CONTINUOUS
 10
5.447640
 20
0.909040
  0
VERTEX
  8
0
  6
CONTINUOUS
 10
4.810960
 20
1.271600
  0
VERTEX
  8
0
  6
CONTINUOUS
 10
4.945160
 20
1.305920
  0
SEQEND
  8
0
  0
SOLID
  8
0
 62
    15
 10
4.810960
 20
1.271600
 11
5.447640
 21
0.909040
 12
4.701400
 22
1.201640
 13
5.338080
 23
0.839080
  0
POLYLINE
  8
0
  6
CONTINUOUS
 66
     1
 40
0.000000
 41
0.000000
  0
VERTEX
  8
0
  6
CONTINUOUS
 10
4.810960
 20
1.271600
  0
VERTEX
  8
0
  6
CONTINUOUS
 10
5.447640
 20
0.909040
  0
VERTEX
  8
0
  6
CONTINUOUS
 10
5.338080
 20
0.839080
  0
VERTEX
  8
0
  6
CONTINUOUS
 10
4.701400
 20
1.201640
  0
VERTEX
  8
0
  6
CONTINUOUS
 10
4.810960
 20
1.271600
  0
SEQEND
  8
0
  0
SOLID
  8
0
 62
    15
 10
4.701400
 20
1.201640
 11
5.338080
 21
0.839080
 12
4.627480
 22
1.110560
 13
5.264160
 23
0.748000
  0
POLYLINE
  8
0
  6
CONTINUOUS
 66
     1
 40
0.000000
 41
0.000000
  0
VERTEX
  8
0
  6
CONTINUOUS
 10
4.701400
 20
1.201640
  0
VERTEX
  8
0
  6
CONTINUOUS
 10
5.338080
 20
0.839080
  0
VERTEX
  8
0
  6
CONTINUOUS
 10
5.264160
 20
0.748000
  0
VERTEX
  8
0
  6
CONTINUOUS
 10
4.627480
 20
1.110560
  0
VERTEX
  8
0
  6
CONTINUOUS
 10
4.701400
 20
1.201640
  0
SEQEND
  8
0
  0
SOLID
  8
0
 62
    15
 10
4.627480
 20
1.110560
 11
5.264160
 21
0.748000
 12
4.600640
 22
1.012880
 13
5.237320
 23
0.650320
  0
POLYLINE
  8
0
  6
CONTINUOUS
 66
     1
 40
0.000000
 41
0.000000
  0
VERTEX
  8
0
  6
CONTINUOUS
 10
4.627480
 20
1.110560
  0
VERTEX
  8
0
  6
CONTINUOUS
 10
5.264160
 20
0.748000
  0
VERTEX
  8
0
  6
CONTINUOUS
 10
5.237320
 20
0.650320
  0
VERTEX
  8
0
  6
CONTINUOUS
 10
4.600640
 20
1.012880
  0
VERTEX
  8
0
  6
CONTINUOUS
 10
4.627480
 20
1.110560
  0
SEQEND
  8
0
  0
SOLID
  8
0
 62
    15
 10
4.600640
 20
1.012880
 11
5.237320
 21
0.650320
 12
4.390320
 22
1.010680
 13
5.027000
 23
0.648120
  0
POLYLINE
  8
0
  6
CONTINUOUS
 66
     1
 40
0.000000
 41
0.000000
  0
VERTEX
  8
0
  6
CONTINUOUS
 10
4.600640
 20
1.012880
  0
VERTEX
  8
0
  6
CONTINUOUS
 10
5.237320
 20
0.650320
  0
VERTEX
  8
0
  6
CONTINUOUS
 10
5.027000
 20
0.648120
  0
VERTEX
  8
0
  6
CONTINUOUS
 10
4.390320
 20
1.010680
  0
VERTEX
  8
0
  6
CONTINUOUS
 10
4.600640
 20
1.012880
  0
SEQEND
  8
0
  0
SOLID
  8
0
 62
    15
 10
7.107320
 20
3.834600
 11
7.744000
 21
3.472480
 12
7.119200
 22
3.251160
 13
7.755880
 23
2.889040
  0
POLYLINE
  8
0
  6
CONTINUOUS
 66
     1
 40
0.000000
 41
0.000000
  0
VERTEX
  8
0
  6
CONTINUOUS
 10
7.107320
 20
3.834600
  0
VERTEX
  8
0
  6
CONTINUOUS
 10
7.744000
 20
3.472480
  0
VERTEX
  8
0
  6
CONTINUOUS
 10
7.755880
 20
2.889040
  0
VERTEX
  8
0
  6
CONTINUOUS
 10
7.119200
 20
3.251160
  0
VERTEX
  8
0
  6
CONTINUOUS
 10
7.107320
 20
3.834600
  0
SEQEND
  8
0
  0
POLYLINE
  8
0
  6
CONTINUOUS
 66
     1
 40
0.000000
 41
0.000000
  0
VERTEX
  8
0
  6
CONTINUOUS
 10
7.119200
 20
3.251160
  0
VERTEX
  8
0
  6
CONTINUOUS
 10
6.972240
 20
3.221680
  0
VERTEX
  8
0
  6
CONTINUOUS
 10
6.827480
 20
3.169320
  0
VERTEX
  8
0
  6
CONTINUOUS
 10
6.685800
 20
3.096280
  0
VERTEX
  8
0
  6
CONTINUOUS
 10
6.549840
 20
3.002560
  0
VERTEX
  8
0
  6
CONTINUOUS
 10
6.421360
 20
2.889920
  0
VERTEX
  8
0
  6
CONTINUOUS
 10
6.303440
 20
2.758360
  0
VERTEX
  8
0
  6
CONTINUOUS
 10
6.196960
 20
2.609640
  0
VERTEX
  8
0
  6
CONTINUOUS
 10
6.105000
 20
2.444640
  0
VERTEX
  8
0
  6
CONTINUOUS
 10
6.022280
 20
2.285800
  0
VERTEX
  8
0
  6
CONTINUOUS
 10
5.941760
 20
2.154680
  0
VERTEX
  8
0
  6
CONTINUOUS
 10
5.860800
 20
2.048640
  0
VERTEX
  8
0
  6
CONTINUOUS
 10
5.778080
 20
1.965480
  0
VERTEX
  8
0
  6
CONTINUOUS
 10
5.691400
 20
1.903000
  0
VERTEX
  8
0
  6
CONTINUOUS
 10
5.598560
 20
1.859440
  0
VERTEX
  8
0
  6
CONTINUOUS
 10
5.497800
 20
1.832160
  0
VERTEX
  8
0
  6
CONTINUOUS
 10
5.386920
 20
1.818960
  0
VERTEX
  8
0
  6
CONTINUOUS
 10
5.362720
 20
1.616120
  0
VERTEX
  8
0
  6
CONTINUOUS
 10
5.152840
 20
1.609520
  0
VERTEX
  8
0
  6
CONTINUOUS
 10
5.155920
 20
1.535160
  0
VERTEX
  8
0
  6
CONTINUOUS
 10
5.128200
 20
1.437920
  0
VERTEX
  8
0
  6
CONTINUOUS
 10
5.100040
 20
1.390840
  0
VERTEX
  8
0
  6
CONTINUOUS
 10
5.060880
 20
1.350360
  0
VERTEX
  8
0
  6
CONTINUOUS
 10
5.009400
 20
1.320880
  0
VERTEX
  8
0
  6
CONTINUOUS
 10
4.945160
 20
1.305920
  0
VERTEX
  8
0
  6
CONTINUOUS
 10
4.810960
 20
1.271600
  0
VERTEX
  8
0
  6
CONTINUOUS
 10
4.701400
 20
1.201640
  0
VERTEX
  8
0
  6
CONTINUOUS
 10
4.627480
 20
1.110560
  0
VERTEX
  8
0
  6
CONTINUOUS
 10
4.600640
 20
1.012880
  0
VERTEX
  8
0
  6
CONTINUOUS
 10
4.390320
 20
1.010680
  0
VERTEX
  8
0
  6
CONTINUOUS
 10
4.385480
 20
1.696200
  0
VERTEX
  8
0
  6
CONTINUOUS
 10
6.548960
 20
3.844720
  0
VERTEX
  8
0
  6
CONTINUOUS
 10
7.107320
 20
3.834600
  0
VERTEX
  8
0
  6
CONTINUOUS
 10
7.119200
 20
3.251160
  0
SEQEND
  8
0
  0
TEXT
  8
0
 10
6.144160
 20
0.844800
 40
0.138169
  1
BA  534
 41
1.000000
  7
SN0
 71
     0
 72
     5
 11
6.735145
 21
0.844800
  0
TEXT
  8
0
 10
5.896000
 20
0.653400
 40
0.138169
  1
3/4" x 3-13/16"
 41
1.000000
  7
SN0
 71
     0
 72
     5
 11
6.982680
 21
0.653400
  0
ENDSEC
  0
EOF
