  0
SECTION
  2
HEADER
  9
$ACADVER
  1
AC1006
  9
$EXTMIN
 10
2.958560
 20
0.431200
  9
$EXTMAX
 10
7.594840
 20
3.218160
  9
$LTSCALE
 40
0.044000
  9
$PDMODE
 70
    35
  9
$PDSIZE
 40
0.035200
  0
ENDSEC
  0
SECTION
  2
TABLES
  0
TABLE
  2
LTYPE
 70
     9
  0
LTYPE
  2
CONTINUOUS
 70
    64
  3
Solid line
 72
    65
 73
     0
 40
0.000000
  0
LTYPE
  2
DASHED
 70
    64
  3
__ __ __ __ __ __ __ __ __ __ __ __ __ __ __
 72
    65
 73
     2
 40
0.000330
 49
0.000220
 49
-0.000110
  0
LTYPE
  2
HIDDEN
 70
    64
  3
 _ _ _ _ _ _ _ _ _ _ _ _ _ _ _ _ _ _ _ _ _ _
 72
    65
 73
     2
 40
0.000165
 49
0.000110
 49
-0.000055
  0
LTYPE
  2
CENTER
 70
    64
  3
____ _ ____ _ ____ _ ____ _ ____ _ ____ _ ____
 72
    65
 73
     4
 40
0.000880
 49
0.000550
 49
-0.000110
 49
0.000110
 49
-0.000110
  0
LTYPE
  2
PHANTOM
 70
    64
  3
_____ _ _ _____ _ _ _____ _ _ _____ _ _ ____
 72
    65
 73
     6
 40
0.001100
 49
0.000550
 49
-0.000110
 49
0.000110
 49
-0.000110
 49
0.000110
 49
-0.000110
  0
LTYPE
  2
DOT
 70
    64
  3
...............................................
 72
    65
 73
     2
 40
0.000110
 49
0.000000
 49
-0.000110
  0
LTYPE
  2
DASHDOT
 70
    64
  3
__ . __ . __ . __ . __ . __ . __ . __ . __ . __
 72
    65
 73
     4
 40
0.000440
 49
0.000220
 49
-0.000110
 49
0.000000
 49
-0.000110
  0
LTYPE
  2
BORDER
 70
    64
  3
__ __ . __ __ . __ __ . __ __ . __ __ . __ __
 72
    65
 73
     6
 40
0.000770
 49
0.000220
 49
-0.000110
 49
0.000220
 49
-0.000110
 49
0.000000
 49
-0.000110
  0
LTYPE
  2
DIVIDE
 70
    64
  3
__ . . __ . . __ . . __ . . __ . . __ . . __
 72
    65
 73
     6
 40
0.000550
 49
0.000220
 49
-0.000110
 49
0.000000
 49
-0.000110
 49
0.000000
 49
-0.000110
  0
LTYPE
  2
DOTDOT
 70
    64
  3
 . .  . .  . .  . .  . .  . . 
 72
    65
 73
     5
 40
0.000242
 49
-0.000110
 49
0.000000
 49
-0.000110
 49
0.000000
 49
-0.000110
  0
ENDTAB
  0
TABLE
  2
STYLE
 70
     2
  0
STYLE
 70
     0
  2
SN0
 40
0.000000
 41
0.000440
 50
0.000000
 71
     0
 42
0.000000
  3
ROMAND
  0
STYLE
 70
    68
  2
SV0
 40
0.000000
 41
0.000440
 50
0.000000
 71
     0
 42
0.000000
  3
ROMAND
  0
ENDTAB
  0
TABLE
  2
LAYER
 70
     3
  0
LAYER
  2
FOREGROUND
 70
    64
 62
     7
  6
CONTINUOUS
  0
LAYER
  2
BACKGROUND
 70
    65
 62
    -7
  6
CONTINUOUS
  0
LAYER
  2
0
 70
    64
 62
     7
  6
CONTINUOUS
  0
ENDTAB
  0
ENDSEC
  0
SECTION
  2
ENTITIES
  0
POLYLINE
  8
FOREGROUND
  6
CONTINUOUS
 66
     1
 40
0.000000
 41
0.000000
  0
VERTEX
  8
FOREGROUND
  6
CONTINUOUS
 10
0.000000
 20
3.649360
  0
VERTEX
  8
FOREGROUND
  6
CONTINUOUS
 10
8.499920
 20
3.649360
  0
VERTEX
  8
FOREGROUND
  6
CONTINUOUS
 10
8.499920
 20
-7.350640
  0
VERTEX
  8
FOREGROUND
  6
CONTINUOUS
 10
0.000000
 20
-7.350640
  0
VERTEX
  8
FOREGROUND
  6
CONTINUOUS
 10
0.000000
 20
3.649360
  0
SEQEND
  8
0
  0
POLYLINE
  8
FOREGROUND
  6
CONTINUOUS
 66
     1
 40
0.000000
 41
0.000000
  0
VERTEX
  8
FOREGROUND
  6
CONTINUOUS
 10
0.000000
 20
3.649360
  0
VERTEX
  8
FOREGROUND
  6
CONTINUOUS
 10
8.499920
 20
3.649360
  0
VERTEX
  8
FOREGROUND
  6
CONTINUOUS
 10
8.499920
 20
-7.350640
  0
VERTEX
  8
FOREGROUND
  6
CONTINUOUS
 10
0.000000
 20
-7.350640
  0
VERTEX
  8
FOREGROUND
  6
CONTINUOUS
 10
0.000000
 20
3.649360
  0
SEQEND
  8
0
  0
POLYLINE
  8
0
  6
CONTINUOUS
 66
     1
 40
0.014080
 41
0.014080
  0
VERTEX
  8
0
  6
CONTINUOUS
 10
6.310480
 20
3.210680
  0
VERTEX
  8
0
  6
CONTINUOUS
 10
3.029400
 20
3.210680
  0
VERTEX
  8
0
  6
CONTINUOUS
 10
3.029400
 20
2.422200
  0
VERTEX
  8
0
  6
CONTINUOUS
 10
7.023720
 20
2.422200
  0
VERTEX
  8
0
  6
CONTINUOUS
 10
7.023280
 20
2.910600
  0
VERTEX
  8
0
  6
CONTINUOUS
 10
7.020200
 20
2.940520
  0
VERTEX
  8
0
  6
CONTINUOUS
 10
7.010520
 20
2.983200
  0
VERTEX
  8
0
  6
CONTINUOUS
 10
6.994680
 20
3.023240
  0
VERTEX
  8
0
  6
CONTINUOUS
 10
6.973560
 20
3.060200
  0
VERTEX
  8
0
  6
CONTINUOUS
 10
6.947160
 20
3.093200
  0
VERTEX
  8
0
  6
CONTINUOUS
 10
6.916360
 20
3.122240
  0
VERTEX
  8
0
  6
CONTINUOUS
 10
6.882040
 20
3.146880
  0
VERTEX
  8
0
  6
CONTINUOUS
 10
6.843760
 20
3.166680
  0
VERTEX
  8
0
  6
CONTINUOUS
 10
6.802840
 20
3.180320
  0
VERTEX
  8
0
  6
CONTINUOUS
 10
6.759280
 20
3.188240
  0
VERTEX
  8
0
  6
CONTINUOUS
 10
6.729360
 20
3.189560
  0
VERTEX
  8
0
  6
CONTINUOUS
 10
6.699440
 20
3.188240
  0
VERTEX
  8
0
  6
CONTINUOUS
 10
6.655880
 20
3.180320
  0
VERTEX
  8
0
  6
CONTINUOUS
 10
6.614960
 20
3.166680
  0
VERTEX
  8
0
  6
CONTINUOUS
 10
6.577120
 20
3.146880
  0
VERTEX
  8
0
  6
CONTINUOUS
 10
6.553360
 20
3.131040
  0
VERTEX
  8
0
  6
CONTINUOUS
 10
6.521680
 20
3.103320
  0
VERTEX
  8
0
  6
CONTINUOUS
 10
6.493960
 20
3.071640
  0
VERTEX
  8
0
  6
CONTINUOUS
 10
6.478120
 20
3.047880
  0
VERTEX
  8
0
  6
CONTINUOUS
 10
6.458320
 20
3.010040
  0
VERTEX
  8
0
  6
CONTINUOUS
 10
6.444680
 20
2.969120
  0
VERTEX
  8
0
  6
CONTINUOUS
 10
6.436760
 20
2.925560
  0
VERTEX
  8
0
  6
CONTINUOUS
 10
6.435440
 20
2.874520
  0
VERTEX
  8
0
  6
CONTINUOUS
 10
6.350520
 20
2.874520
  0
VERTEX
  8
0
  6
CONTINUOUS
 10
6.310480
 20
3.209800
  0
SEQEND
  8
0
  0
SOLID
  8
0
 62
    15
 10
6.823520
 20
1.629760
 11
7.464600
 21
2.010360
 12
6.867080
 22
1.593680
 13
7.508160
 23
1.974280
  0
POLYLINE
  8
0
  6
CONTINUOUS
 66
     1
 40
0.000000
 41
0.000000
  0
VERTEX
  8
0
  6
CONTINUOUS
 10
6.823520
 20
1.629760
  0
VERTEX
  8
0
  6
CONTINUOUS
 10
7.464600
 20
2.010360
  0
VERTEX
  8
0
  6
CONTINUOUS
 10
7.508160
 20
1.974280
  0
VERTEX
  8
0
  6
CONTINUOUS
 10
6.867080
 20
1.593680
  0
VERTEX
  8
0
  6
CONTINUOUS
 10
6.823520
 20
1.629760
  0
SEQEND
  8
0
  0
SOLID
  8
0
 62
    15
 10
6.280560
 20
1.364880
 11
6.921640
 21
1.745480
 12
6.365040
 22
1.364880
 13
7.006120
 23
1.745480
  0
POLYLINE
  8
0
  6
CONTINUOUS
 66
     1
 40
0.000000
 41
0.000000
  0
VERTEX
  8
0
  6
CONTINUOUS
 10
6.280560
 20
1.364880
  0
VERTEX
  8
0
  6
CONTINUOUS
 10
6.921640
 20
1.745480
  0
VERTEX
  8
0
  6
CONTINUOUS
 10
7.006120
 20
1.745480
  0
VERTEX
  8
0
  6
CONTINUOUS
 10
6.365040
 20
1.364880
  0
VERTEX
  8
0
  6
CONTINUOUS
 10
6.280560
 20
1.364880
  0
SEQEND
  8
0
  0
SOLID
  8
0
 62
    15
 10
6.240520
 20
1.699720
 11
6.881600
 21
2.080320
 12
6.280560
 22
1.364880
 13
6.921640
 23
1.745480
  0
POLYLINE
  8
0
  6
CONTINUOUS
 66
     1
 40
0.000000
 41
0.000000
  0
VERTEX
  8
0
  6
CONTINUOUS
 10
6.240520
 20
1.699720
  0
VERTEX
  8
0
  6
CONTINUOUS
 10
6.881600
 20
2.080320
  0
VERTEX
  8
0
  6
CONTINUOUS
 10
6.921640
 20
1.745480
  0
VERTEX
  8
0
  6
CONTINUOUS
 10
6.280560
 20
1.364880
  0
VERTEX
  8
0
  6
CONTINUOUS
 10
6.240520
 20
1.699720
  0
SEQEND
  8
0
  0
SOLID
  8
0
 62
    15
 10
6.544560
 20
1.656600
 11
7.186080
 21
2.037640
 12
6.600000
 22
1.673760
 13
7.241080
 23
2.054800
  0
POLYLINE
  8
0
  6
CONTINUOUS
 66
     1
 40
0.000000
 41
0.000000
  0
VERTEX
  8
0
  6
CONTINUOUS
 10
6.544560
 20
1.656600
  0
VERTEX
  8
0
  6
CONTINUOUS
 10
7.186080
 20
2.037640
  0
VERTEX
  8
0
  6
CONTINUOUS
 10
7.241080
 20
2.054800
  0
VERTEX
  8
0
  6
CONTINUOUS
 10
6.600000
 20
1.673760
  0
VERTEX
  8
0
  6
CONTINUOUS
 10
6.544560
 20
1.656600
  0
SEQEND
  8
0
  0
SOLID
  8
0
 62
    15
 10
6.600000
 20
1.673760
 11
7.241080
 21
2.054800
 12
6.659400
 22
1.679920
 13
7.300480
 23
2.060520
  0
POLYLINE
  8
0
  6
CONTINUOUS
 66
     1
 40
0.000000
 41
0.000000
  0
VERTEX
  8
0
  6
CONTINUOUS
 10
6.600000
 20
1.673760
  0
VERTEX
  8
0
  6
CONTINUOUS
 10
7.241080
 20
2.054800
  0
VERTEX
  8
0
  6
CONTINUOUS
 10
7.300480
 20
2.060520
  0
VERTEX
  8
0
  6
CONTINUOUS
 10
6.659400
 20
1.679920
  0
VERTEX
  8
0
  6
CONTINUOUS
 10
6.600000
 20
1.673760
  0
SEQEND
  8
0
  0
SOLID
  8
0
 62
    15
 10
6.659400
 20
1.679920
 11
7.300480
 21
2.060520
 12
6.718360
 22
1.673760
 13
7.359440
 23
2.054800
  0
POLYLINE
  8
0
  6
CONTINUOUS
 66
     1
 40
0.000000
 41
0.000000
  0
VERTEX
  8
0
  6
CONTINUOUS
 10
6.659400
 20
1.679920
  0
VERTEX
  8
0
  6
CONTINUOUS
 10
7.300480
 20
2.060520
  0
VERTEX
  8
0
  6
CONTINUOUS
 10
7.359440
 20
2.054800
  0
VERTEX
  8
0
  6
CONTINUOUS
 10
6.718360
 20
1.673760
  0
VERTEX
  8
0
  6
CONTINUOUS
 10
6.659400
 20
1.679920
  0
SEQEND
  8
0
  0
SOLID
  8
0
 62
    15
 10
6.718360
 20
1.673760
 11
7.359440
 21
2.054800
 12
6.773800
 22
1.656600
 13
7.414880
 23
2.037640
  0
POLYLINE
  8
0
  6
CONTINUOUS
 66
     1
 40
0.000000
 41
0.000000
  0
VERTEX
  8
0
  6
CONTINUOUS
 10
6.718360
 20
1.673760
  0
VERTEX
  8
0
  6
CONTINUOUS
 10
7.359440
 20
2.054800
  0
VERTEX
  8
0
  6
CONTINUOUS
 10
7.414880
 20
2.037640
  0
VERTEX
  8
0
  6
CONTINUOUS
 10
6.773800
 20
1.656600
  0
VERTEX
  8
0
  6
CONTINUOUS
 10
6.718360
 20
1.673760
  0
SEQEND
  8
0
  0
SOLID
  8
0
 62
    15
 10
6.773800
 20
1.656600
 11
7.414880
 21
2.037640
 12
6.823520
 22
1.629760
 13
7.464600
 23
2.010360
  0
POLYLINE
  8
0
  6
CONTINUOUS
 66
     1
 40
0.000000
 41
0.000000
  0
VERTEX
  8
0
  6
CONTINUOUS
 10
6.773800
 20
1.656600
  0
VERTEX
  8
0
  6
CONTINUOUS
 10
7.414880
 20
2.037640
  0
VERTEX
  8
0
  6
CONTINUOUS
 10
7.464600
 20
2.010360
  0
VERTEX
  8
0
  6
CONTINUOUS
 10
6.823520
 20
1.629760
  0
VERTEX
  8
0
  6
CONTINUOUS
 10
6.773800
 20
1.656600
  0
SEQEND
  8
0
  0
SOLID
  8
0
 62
    15
 10
6.494840
 20
1.629760
 11
7.135920
 21
2.010360
 12
6.544560
 22
1.656600
 13
7.186080
 23
2.037640
  0
POLYLINE
  8
0
  6
CONTINUOUS
 66
     1
 40
0.000000
 41
0.000000
  0
VERTEX
  8
0
  6
CONTINUOUS
 10
6.494840
 20
1.629760
  0
VERTEX
  8
0
  6
CONTINUOUS
 10
7.135920
 20
2.010360
  0
VERTEX
  8
0
  6
CONTINUOUS
 10
7.186080
 20
2.037640
  0
VERTEX
  8
0
  6
CONTINUOUS
 10
6.544560
 20
1.656600
  0
VERTEX
  8
0
  6
CONTINUOUS
 10
6.494840
 20
1.629760
  0
SEQEND
  8
0
  0
SOLID
  8
0
 62
    15
 10
6.867080
 20
1.593680
 11
7.508160
 21
1.974280
 12
6.903160
 22
1.550120
 13
7.544240
 23
1.930720
  0
POLYLINE
  8
0
  6
CONTINUOUS
 66
     1
 40
0.000000
 41
0.000000
  0
VERTEX
  8
0
  6
CONTINUOUS
 10
6.867080
 20
1.593680
  0
VERTEX
  8
0
  6
CONTINUOUS
 10
7.508160
 20
1.974280
  0
VERTEX
  8
0
  6
CONTINUOUS
 10
7.544240
 20
1.930720
  0
VERTEX
  8
0
  6
CONTINUOUS
 10
6.903160
 20
1.550120
  0
VERTEX
  8
0
  6
CONTINUOUS
 10
6.867080
 20
1.593680
  0
SEQEND
  8
0
  0
SOLID
  8
0
 62
    15
 10
6.903160
 20
1.550120
 11
7.544240
 21
1.930720
 12
6.930440
 22
1.500400
 13
7.571520
 23
1.881000
  0
POLYLINE
  8
0
  6
CONTINUOUS
 66
     1
 40
0.000000
 41
0.000000
  0
VERTEX
  8
0
  6
CONTINUOUS
 10
6.903160
 20
1.550120
  0
VERTEX
  8
0
  6
CONTINUOUS
 10
7.544240
 20
1.930720
  0
VERTEX
  8
0
  6
CONTINUOUS
 10
7.571520
 20
1.881000
  0
VERTEX
  8
0
  6
CONTINUOUS
 10
6.930440
 20
1.500400
  0
VERTEX
  8
0
  6
CONTINUOUS
 10
6.903160
 20
1.550120
  0
SEQEND
  8
0
  0
SOLID
  8
0
 62
    15
 10
6.930440
 20
1.500400
 11
7.571520
 21
1.881000
 12
6.947600
 22
1.444960
 13
7.588680
 23
1.825560
  0
POLYLINE
  8
0
  6
CONTINUOUS
 66
     1
 40
0.000000
 41
0.000000
  0
VERTEX
  8
0
  6
CONTINUOUS
 10
6.930440
 20
1.500400
  0
VERTEX
  8
0
  6
CONTINUOUS
 10
7.571520
 20
1.881000
  0
VERTEX
  8
0
  6
CONTINUOUS
 10
7.588680
 20
1.825560
  0
VERTEX
  8
0
  6
CONTINUOUS
 10
6.947600
 20
1.444960
  0
VERTEX
  8
0
  6
CONTINUOUS
 10
6.930440
 20
1.500400
  0
SEQEND
  8
0
  0
SOLID
  8
0
 62
    15
 10
6.947600
 20
1.444960
 11
7.588680
 21
1.825560
 12
6.953320
 22
1.385560
 13
7.594400
 23
1.766600
  0
POLYLINE
  8
0
  6
CONTINUOUS
 66
     1
 40
0.000000
 41
0.000000
  0
VERTEX
  8
0
  6
CONTINUOUS
 10
6.947600
 20
1.444960
  0
VERTEX
  8
0
  6
CONTINUOUS
 10
7.588680
 20
1.825560
  0
VERTEX
  8
0
  6
CONTINUOUS
 10
7.594400
 20
1.766600
  0
VERTEX
  8
0
  6
CONTINUOUS
 10
6.953320
 20
1.385560
  0
VERTEX
  8
0
  6
CONTINUOUS
 10
6.947600
 20
1.444960
  0
SEQEND
  8
0
  0
SOLID
  8
0
 62
    15
 10
6.953320
 20
1.385560
 11
7.594400
 21
1.766600
 12
6.953320
 22
0.912120
 13
7.594400
 23
1.293160
  0
POLYLINE
  8
0
  6
CONTINUOUS
 66
     1
 40
0.000000
 41
0.000000
  0
VERTEX
  8
0
  6
CONTINUOUS
 10
6.953320
 20
1.385560
  0
VERTEX
  8
0
  6
CONTINUOUS
 10
7.594400
 20
1.766600
  0
VERTEX
  8
0
  6
CONTINUOUS
 10
7.594400
 20
1.293160
  0
VERTEX
  8
0
  6
CONTINUOUS
 10
6.953320
 20
0.912120
  0
VERTEX
  8
0
  6
CONTINUOUS
 10
6.953320
 20
1.385560
  0
SEQEND
  8
0
  0
SOLID
  8
0
 62
    15
 10
2.959000
 20
1.700600
 11
3.600080
 21
2.081200
 12
6.240520
 22
1.700600
 13
6.881600
 23
2.081200
  0
POLYLINE
  8
0
  6
CONTINUOUS
 66
     1
 40
0.000000
 41
0.000000
  0
VERTEX
  8
0
  6
CONTINUOUS
 10
2.959000
 20
1.700600
  0
VERTEX
  8
0
  6
CONTINUOUS
 10
3.600080
 20
2.081200
  0
VERTEX
  8
0
  6
CONTINUOUS
 10
6.881600
 20
2.081200
  0
VERTEX
  8
0
  6
CONTINUOUS
 10
6.240520
 20
1.700600
  0
VERTEX
  8
0
  6
CONTINUOUS
 10
2.959000
 20
1.700600
  0
SEQEND
  8
0
  0
SOLID
  8
0
 62
    15
 10
6.240520
 20
1.700600
 11
6.881600
 21
2.081200
 12
6.240520
 22
1.699720
 13
6.881600
 23
2.080320
  0
POLYLINE
  8
0
  6
CONTINUOUS
 66
     1
 40
0.000000
 41
0.000000
  0
VERTEX
  8
0
  6
CONTINUOUS
 10
6.240520
 20
1.700600
  0
VERTEX
  8
0
  6
CONTINUOUS
 10
6.881600
 20
2.081200
  0
VERTEX
  8
0
  6
CONTINUOUS
 10
6.881600
 20
2.080320
  0
VERTEX
  8
0
  6
CONTINUOUS
 10
6.240520
 20
1.699720
  0
VERTEX
  8
0
  6
CONTINUOUS
 10
6.240520
 20
1.700600
  0
SEQEND
  8
0
  0
POLYLINE
  8
0
  6
CONTINUOUS
 66
     1
 40
0.000000
 41
0.000000
  0
VERTEX
  8
0
  6
CONTINUOUS
 10
6.240520
 20
1.699720
  0
VERTEX
  8
0
  6
CONTINUOUS
 10
6.280560
 20
1.364880
  0
VERTEX
  8
0
  6
CONTINUOUS
 10
6.365040
 20
1.364880
  0
VERTEX
  8
0
  6
CONTINUOUS
 10
6.365040
 20
1.385560
  0
VERTEX
  8
0
  6
CONTINUOUS
 10
6.371200
 20
1.444960
  0
VERTEX
  8
0
  6
CONTINUOUS
 10
6.388360
 20
1.500400
  0
VERTEX
  8
0
  6
CONTINUOUS
 10
6.415200
 20
1.550120
  0
VERTEX
  8
0
  6
CONTINUOUS
 10
6.451280
 20
1.593680
  0
VERTEX
  8
0
  6
CONTINUOUS
 10
6.494840
 20
1.629760
  0
VERTEX
  8
0
  6
CONTINUOUS
 10
6.544560
 20
1.656600
  0
VERTEX
  8
0
  6
CONTINUOUS
 10
6.600000
 20
1.673760
  0
VERTEX
  8
0
  6
CONTINUOUS
 10
6.659400
 20
1.679920
  0
VERTEX
  8
0
  6
CONTINUOUS
 10
6.718360
 20
1.673760
  0
VERTEX
  8
0
  6
CONTINUOUS
 10
6.773800
 20
1.656600
  0
VERTEX
  8
0
  6
CONTINUOUS
 10
6.823520
 20
1.629760
  0
VERTEX
  8
0
  6
CONTINUOUS
 10
6.867080
 20
1.593680
  0
VERTEX
  8
0
  6
CONTINUOUS
 10
6.903160
 20
1.550120
  0
VERTEX
  8
0
  6
CONTINUOUS
 10
6.930440
 20
1.500400
  0
VERTEX
  8
0
  6
CONTINUOUS
 10
6.947600
 20
1.444960
  0
VERTEX
  8
0
  6
CONTINUOUS
 10
6.953320
 20
1.385560
  0
VERTEX
  8
0
  6
CONTINUOUS
 10
6.953320
 20
0.912120
  0
VERTEX
  8
0
  6
CONTINUOUS
 10
2.959000
 20
0.912120
  0
VERTEX
  8
0
  6
CONTINUOUS
 10
2.959000
 20
1.700600
  0
VERTEX
  8
0
  6
CONTINUOUS
 10
6.240520
 20
1.700600
  0
VERTEX
  8
0
  6
CONTINUOUS
 10
6.240520
 20
1.699720
  0
SEQEND
  8
0
  0
TEXT
  8
0
 10
4.982560
 20
0.667040
 40
0.138128
  1
BA  530
 41
1.000000
  7
SN0
 71
     0
 72
     5
 11
5.572990
 21
0.667040
  0
TEXT
  8
0
 10
4.969800
 20
0.475200
 40
0.138128
  1
3/4" x 4"
 41
1.000000
  7
SN0
 71
     0
 72
     5
 11
5.585266
 21
0.475200
  0
ENDSEC
  0
EOF
