  0
SECTION
  2
HEADER
  9
$ACADVER
  1
AC1006
  9
$EXTMIN
 10
4.763880
 20
0.467280
  9
$EXTMAX
 10
7.268800
 20
2.371160
  9
$LTSCALE
 40
0.044000
  9
$PDMODE
 70
    35
  9
$PDSIZE
 40
0.035200
  0
ENDSEC
  0
SECTION
  2
TABLES
  0
TABLE
  2
LTYPE
 70
     9
  0
LTYPE
  2
CONTINUOUS
 70
    64
  3
Solid line
 72
    65
 73
     0
 40
0.000000
  0
LTYPE
  2
DASHED
 70
    64
  3
__ __ __ __ __ __ __ __ __ __ __ __ __ __ __
 72
    65
 73
     2
 40
0.000330
 49
0.000220
 49
-0.000110
  0
LTYPE
  2
HIDDEN
 70
    64
  3
 _ _ _ _ _ _ _ _ _ _ _ _ _ _ _ _ _ _ _ _ _ _
 72
    65
 73
     2
 40
0.000165
 49
0.000110
 49
-0.000055
  0
LTYPE
  2
CENTER
 70
    64
  3
____ _ ____ _ ____ _ ____ _ ____ _ ____ _ ____
 72
    65
 73
     4
 40
0.000880
 49
0.000550
 49
-0.000110
 49
0.000110
 49
-0.000110
  0
LTYPE
  2
PHANTOM
 70
    64
  3
_____ _ _ _____ _ _ _____ _ _ _____ _ _ ____
 72
    65
 73
     6
 40
0.001100
 49
0.000550
 49
-0.000110
 49
0.000110
 49
-0.000110
 49
0.000110
 49
-0.000110
  0
LTYPE
  2
DOT
 70
    64
  3
...............................................
 72
    65
 73
     2
 40
0.000110
 49
0.000000
 49
-0.000110
  0
LTYPE
  2
DASHDOT
 70
    64
  3
__ . __ . __ . __ . __ . __ . __ . __ . __ . __
 72
    65
 73
     4
 40
0.000440
 49
0.000220
 49
-0.000110
 49
0.000000
 49
-0.000110
  0
LTYPE
  2
BORDER
 70
    64
  3
__ __ . __ __ . __ __ . __ __ . __ __ . __ __
 72
    65
 73
     6
 40
0.000770
 49
0.000220
 49
-0.000110
 49
0.000220
 49
-0.000110
 49
0.000000
 49
-0.000110
  0
LTYPE
  2
DIVIDE
 70
    64
  3
__ . . __ . . __ . . __ . . __ . . __ . . __
 72
    65
 73
     6
 40
0.000550
 49
0.000220
 49
-0.000110
 49
0.000000
 49
-0.000110
 49
0.000000
 49
-0.000110
  0
LTYPE
  2
DOTDOT
 70
    64
  3
 . .  . .  . .  . .  . .  . . 
 72
    65
 73
     5
 40
0.000242
 49
-0.000110
 49
0.000000
 49
-0.000110
 49
0.000000
 49
-0.000110
  0
ENDTAB
  0
TABLE
  2
STYLE
 70
     2
  0
STYLE
 70
     0
  2
SN0
 40
0.000000
 41
0.000440
 50
0.000000
 71
     0
 42
0.000000
  3
ROMAND
  0
STYLE
 70
    68
  2
SV0
 40
0.000000
 41
0.000440
 50
0.000000
 71
     0
 42
0.000000
  3
ROMAND
  0
ENDTAB
  0
TABLE
  2
LAYER
 70
     3
  0
LAYER
  2
FOREGROUND
 70
    64
 62
     7
  6
CONTINUOUS
  0
LAYER
  2
BACKGROUND
 70
    65
 62
    -7
  6
CONTINUOUS
  0
LAYER
  2
0
 70
    64
 62
     7
  6
CONTINUOUS
  0
ENDTAB
  0
ENDSEC
  0
SECTION
  2
ENTITIES
  0
POLYLINE
  8
FOREGROUND
  6
CONTINUOUS
 66
     1
 40
0.000000
 41
0.000000
  0
VERTEX
  8
FOREGROUND
  6
CONTINUOUS
 10
0.000000
 20
2.838440
  0
VERTEX
  8
FOREGROUND
  6
CONTINUOUS
 10
8.499920
 20
2.838440
  0
VERTEX
  8
FOREGROUND
  6
CONTINUOUS
 10
8.499920
 20
-8.161560
  0
VERTEX
  8
FOREGROUND
  6
CONTINUOUS
 10
0.000000
 20
-8.161560
  0
VERTEX
  8
FOREGROUND
  6
CONTINUOUS
 10
0.000000
 20
2.838440
  0
SEQEND
  8
0
  0
POLYLINE
  8
FOREGROUND
  6
CONTINUOUS
 66
     1
 40
0.000000
 41
0.000000
  0
VERTEX
  8
FOREGROUND
  6
CONTINUOUS
 10
0.000000
 20
2.838440
  0
VERTEX
  8
FOREGROUND
  6
CONTINUOUS
 10
8.499920
 20
2.838440
  0
VERTEX
  8
FOREGROUND
  6
CONTINUOUS
 10
8.499920
 20
-8.161560
  0
VERTEX
  8
FOREGROUND
  6
CONTINUOUS
 10
0.000000
 20
-8.161560
  0
VERTEX
  8
FOREGROUND
  6
CONTINUOUS
 10
0.000000
 20
2.838440
  0
SEQEND
  8
0
  0
SOLID
  8
0
 62
    15
 10
4.949560
 20
1.476640
 11
5.591080
 21
1.110120
 12
4.925360
 22
1.463440
 13
5.566880
 23
1.096920
  0
POLYLINE
  8
0
  6
CONTINUOUS
 66
     1
 40
0.000000
 41
0.000000
  0
VERTEX
  8
0
  6
CONTINUOUS
 10
4.949560
 20
1.476640
  0
VERTEX
  8
0
  6
CONTINUOUS
 10
5.591080
 20
1.110120
  0
VERTEX
  8
0
  6
CONTINUOUS
 10
5.566880
 20
1.096920
  0
VERTEX
  8
0
  6
CONTINUOUS
 10
4.925360
 20
1.463440
  0
VERTEX
  8
0
  6
CONTINUOUS
 10
4.949560
 20
1.476640
  0
SEQEND
  8
0
  0
SOLID
  8
0
 62
     7
 10
5.209160
 20
2.093080
 11
5.851120
 21
1.727000
 12
5.198600
 22
1.999360
 13
5.840120
 23
1.632840
  0
POLYLINE
  8
0
  6
CONTINUOUS
 66
     1
 40
0.000000
 41
0.000000
  0
VERTEX
  8
0
  6
CONTINUOUS
 10
5.209160
 20
2.093080
  0
VERTEX
  8
0
  6
CONTINUOUS
 10
5.851120
 20
1.727000
  0
VERTEX
  8
0
  6
CONTINUOUS
 10
5.840120
 20
1.632840
  0
VERTEX
  8
0
  6
CONTINUOUS
 10
5.198600
 20
1.999360
  0
VERTEX
  8
0
  6
CONTINUOUS
 10
5.209160
 20
2.093080
  0
SEQEND
  8
0
  0
SOLID
  8
0
 62
     7
 10
5.198600
 20
1.999360
 11
5.840120
 21
1.632840
 12
5.182760
 22
1.904320
 13
5.824720
 23
1.537800
  0
POLYLINE
  8
0
  6
CONTINUOUS
 66
     1
 40
0.000000
 41
0.000000
  0
VERTEX
  8
0
  6
CONTINUOUS
 10
5.198600
 20
1.999360
  0
VERTEX
  8
0
  6
CONTINUOUS
 10
5.840120
 20
1.632840
  0
VERTEX
  8
0
  6
CONTINUOUS
 10
5.824720
 20
1.537800
  0
VERTEX
  8
0
  6
CONTINUOUS
 10
5.182760
 20
1.904320
  0
VERTEX
  8
0
  6
CONTINUOUS
 10
5.198600
 20
1.999360
  0
SEQEND
  8
0
  0
SOLID
  8
0
 62
     7
 10
5.182760
 20
1.904320
 11
5.824720
 21
1.537800
 12
5.161200
 22
1.812360
 13
5.803160
 23
1.446280
  0
POLYLINE
  8
0
  6
CONTINUOUS
 66
     1
 40
0.000000
 41
0.000000
  0
VERTEX
  8
0
  6
CONTINUOUS
 10
5.182760
 20
1.904320
  0
VERTEX
  8
0
  6
CONTINUOUS
 10
5.824720
 20
1.537800
  0
VERTEX
  8
0
  6
CONTINUOUS
 10
5.803160
 20
1.446280
  0
VERTEX
  8
0
  6
CONTINUOUS
 10
5.161200
 20
1.812360
  0
VERTEX
  8
0
  6
CONTINUOUS
 10
5.182760
 20
1.904320
  0
SEQEND
  8
0
  0
SOLID
  8
0
 62
     7
 10
5.161200
 20
1.812360
 11
5.803160
 21
1.446280
 12
5.148000
 22
1.769240
 13
5.789520
 23
1.403160
  0
POLYLINE
  8
0
  6
CONTINUOUS
 66
     1
 40
0.000000
 41
0.000000
  0
VERTEX
  8
0
  6
CONTINUOUS
 10
5.161200
 20
1.812360
  0
VERTEX
  8
0
  6
CONTINUOUS
 10
5.803160
 20
1.446280
  0
VERTEX
  8
0
  6
CONTINUOUS
 10
5.789520
 20
1.403160
  0
VERTEX
  8
0
  6
CONTINUOUS
 10
5.148000
 20
1.769240
  0
VERTEX
  8
0
  6
CONTINUOUS
 10
5.161200
 20
1.812360
  0
SEQEND
  8
0
  0
SOLID
  8
0
 62
     7
 10
5.148000
 20
1.769240
 11
5.789520
 21
1.403160
 12
5.133040
 22
1.728760
 13
5.774560
 23
1.362680
  0
POLYLINE
  8
0
  6
CONTINUOUS
 66
     1
 40
0.000000
 41
0.000000
  0
VERTEX
  8
0
  6
CONTINUOUS
 10
5.148000
 20
1.769240
  0
VERTEX
  8
0
  6
CONTINUOUS
 10
5.789520
 20
1.403160
  0
VERTEX
  8
0
  6
CONTINUOUS
 10
5.774560
 20
1.362680
  0
VERTEX
  8
0
  6
CONTINUOUS
 10
5.133040
 20
1.728760
  0
VERTEX
  8
0
  6
CONTINUOUS
 10
5.148000
 20
1.769240
  0
SEQEND
  8
0
  0
SOLID
  8
0
 62
     7
 10
5.133040
 20
1.728760
 11
5.774560
 21
1.362680
 12
5.115880
 22
1.691360
 13
5.757400
 23
1.325280
  0
POLYLINE
  8
0
  6
CONTINUOUS
 66
     1
 40
0.000000
 41
0.000000
  0
VERTEX
  8
0
  6
CONTINUOUS
 10
5.133040
 20
1.728760
  0
VERTEX
  8
0
  6
CONTINUOUS
 10
5.774560
 20
1.362680
  0
VERTEX
  8
0
  6
CONTINUOUS
 10
5.757400
 20
1.325280
  0
VERTEX
  8
0
  6
CONTINUOUS
 10
5.115880
 20
1.691360
  0
VERTEX
  8
0
  6
CONTINUOUS
 10
5.133040
 20
1.728760
  0
SEQEND
  8
0
  0
SOLID
  8
0
 62
     7
 10
5.115880
 20
1.691360
 11
5.757400
 21
1.325280
 12
5.096960
 22
1.657920
 13
5.738480
 23
1.291400
  0
POLYLINE
  8
0
  6
CONTINUOUS
 66
     1
 40
0.000000
 41
0.000000
  0
VERTEX
  8
0
  6
CONTINUOUS
 10
5.115880
 20
1.691360
  0
VERTEX
  8
0
  6
CONTINUOUS
 10
5.757400
 20
1.325280
  0
VERTEX
  8
0
  6
CONTINUOUS
 10
5.738480
 20
1.291400
  0
VERTEX
  8
0
  6
CONTINUOUS
 10
5.096960
 20
1.657920
  0
VERTEX
  8
0
  6
CONTINUOUS
 10
5.115880
 20
1.691360
  0
SEQEND
  8
0
  0
SOLID
  8
0
 62
     7
 10
5.096960
 20
1.657920
 11
5.738480
 21
1.291400
 12
5.075840
 22
1.628440
 13
5.717360
 23
1.262360
  0
POLYLINE
  8
0
  6
CONTINUOUS
 66
     1
 40
0.000000
 41
0.000000
  0
VERTEX
  8
0
  6
CONTINUOUS
 10
5.096960
 20
1.657920
  0
VERTEX
  8
0
  6
CONTINUOUS
 10
5.738480
 20
1.291400
  0
VERTEX
  8
0
  6
CONTINUOUS
 10
5.717360
 20
1.262360
  0
VERTEX
  8
0
  6
CONTINUOUS
 10
5.075840
 20
1.628440
  0
VERTEX
  8
0
  6
CONTINUOUS
 10
5.096960
 20
1.657920
  0
SEQEND
  8
0
  0
SOLID
  8
0
 62
     7
 10
5.075840
 20
1.628440
 11
5.717360
 21
1.262360
 12
5.052520
 22
1.604240
 13
5.694040
 23
1.237720
  0
POLYLINE
  8
0
  6
CONTINUOUS
 66
     1
 40
0.000000
 41
0.000000
  0
VERTEX
  8
0
  6
CONTINUOUS
 10
5.075840
 20
1.628440
  0
VERTEX
  8
0
  6
CONTINUOUS
 10
5.717360
 20
1.262360
  0
VERTEX
  8
0
  6
CONTINUOUS
 10
5.694040
 20
1.237720
  0
VERTEX
  8
0
  6
CONTINUOUS
 10
5.052520
 20
1.604240
  0
VERTEX
  8
0
  6
CONTINUOUS
 10
5.075840
 20
1.628440
  0
SEQEND
  8
0
  0
SOLID
  8
0
 62
    15
 10
5.052520
 20
1.604240
 11
5.694040
 21
1.237720
 12
5.026560
 22
1.585320
 13
5.668520
 23
1.218800
  0
POLYLINE
  8
0
  6
CONTINUOUS
 66
     1
 40
0.000000
 41
0.000000
  0
VERTEX
  8
0
  6
CONTINUOUS
 10
5.052520
 20
1.604240
  0
VERTEX
  8
0
  6
CONTINUOUS
 10
5.694040
 20
1.237720
  0
VERTEX
  8
0
  6
CONTINUOUS
 10
5.668520
 20
1.218800
  0
VERTEX
  8
0
  6
CONTINUOUS
 10
5.026560
 20
1.585320
  0
VERTEX
  8
0
  6
CONTINUOUS
 10
5.052520
 20
1.604240
  0
SEQEND
  8
0
  0
SOLID
  8
0
 62
    15
 10
5.026560
 20
1.585320
 11
5.668520
 21
1.218800
 12
4.998400
 22
1.572560
 13
5.640360
 23
1.206040
  0
POLYLINE
  8
0
  6
CONTINUOUS
 66
     1
 40
0.000000
 41
0.000000
  0
VERTEX
  8
0
  6
CONTINUOUS
 10
5.026560
 20
1.585320
  0
VERTEX
  8
0
  6
CONTINUOUS
 10
5.668520
 20
1.218800
  0
VERTEX
  8
0
  6
CONTINUOUS
 10
5.640360
 20
1.206040
  0
VERTEX
  8
0
  6
CONTINUOUS
 10
4.998400
 20
1.572560
  0
VERTEX
  8
0
  6
CONTINUOUS
 10
5.026560
 20
1.585320
  0
SEQEND
  8
0
  0
SOLID
  8
0
 62
     7
 10
4.998400
 20
1.572560
 11
5.640360
 21
1.206040
 12
4.998400
 22
1.492920
 13
5.640360
 23
1.126840
  0
POLYLINE
  8
0
  6
CONTINUOUS
 66
     1
 40
0.000000
 41
0.000000
  0
VERTEX
  8
0
  6
CONTINUOUS
 10
4.998400
 20
1.572560
  0
VERTEX
  8
0
  6
CONTINUOUS
 10
5.640360
 20
1.206040
  0
VERTEX
  8
0
  6
CONTINUOUS
 10
5.640360
 20
1.126840
  0
VERTEX
  8
0
  6
CONTINUOUS
 10
4.998400
 20
1.492920
  0
VERTEX
  8
0
  6
CONTINUOUS
 10
4.998400
 20
1.572560
  0
SEQEND
  8
0
  0
SOLID
  8
0
 62
    15
 10
4.998400
 20
1.492920
 11
5.640360
 21
1.126840
 12
4.974640
 22
1.485880
 13
5.616160
 23
1.119800
  0
POLYLINE
  8
0
  6
CONTINUOUS
 66
     1
 40
0.000000
 41
0.000000
  0
VERTEX
  8
0
  6
CONTINUOUS
 10
4.998400
 20
1.492920
  0
VERTEX
  8
0
  6
CONTINUOUS
 10
5.640360
 20
1.126840
  0
VERTEX
  8
0
  6
CONTINUOUS
 10
5.616160
 20
1.119800
  0
VERTEX
  8
0
  6
CONTINUOUS
 10
4.974640
 20
1.485880
  0
VERTEX
  8
0
  6
CONTINUOUS
 10
4.998400
 20
1.492920
  0
SEQEND
  8
0
  0
SOLID
  8
0
 62
    15
 10
4.974640
 20
1.485880
 11
5.616160
 21
1.119800
 12
4.949560
 22
1.476640
 13
5.591080
 23
1.110120
  0
POLYLINE
  8
0
  6
CONTINUOUS
 66
     1
 40
0.000000
 41
0.000000
  0
VERTEX
  8
0
  6
CONTINUOUS
 10
4.974640
 20
1.485880
  0
VERTEX
  8
0
  6
CONTINUOUS
 10
5.616160
 20
1.119800
  0
VERTEX
  8
0
  6
CONTINUOUS
 10
5.591080
 20
1.110120
  0
VERTEX
  8
0
  6
CONTINUOUS
 10
4.949560
 20
1.476640
  0
VERTEX
  8
0
  6
CONTINUOUS
 10
4.974640
 20
1.485880
  0
SEQEND
  8
0
  0
SOLID
  8
0
 62
     7
 10
5.215760
 20
2.181080
 11
5.857280
 21
1.815000
 12
5.209160
 22
2.093080
 13
5.851120
 23
1.727000
  0
POLYLINE
  8
0
  6
CONTINUOUS
 66
     1
 40
0.000000
 41
0.000000
  0
VERTEX
  8
0
  6
CONTINUOUS
 10
5.215760
 20
2.181080
  0
VERTEX
  8
0
  6
CONTINUOUS
 10
5.857280
 20
1.815000
  0
VERTEX
  8
0
  6
CONTINUOUS
 10
5.851120
 20
1.727000
  0
VERTEX
  8
0
  6
CONTINUOUS
 10
5.209160
 20
2.093080
  0
VERTEX
  8
0
  6
CONTINUOUS
 10
5.215760
 20
2.181080
  0
SEQEND
  8
0
  0
SOLID
  8
0
 62
    15
 10
4.925360
 20
1.463440
 11
5.566880
 21
1.096920
 12
4.902920
 22
1.445840
 13
5.544440
 23
1.079320
  0
POLYLINE
  8
0
  6
CONTINUOUS
 66
     1
 40
0.000000
 41
0.000000
  0
VERTEX
  8
0
  6
CONTINUOUS
 10
4.925360
 20
1.463440
  0
VERTEX
  8
0
  6
CONTINUOUS
 10
5.566880
 20
1.096920
  0
VERTEX
  8
0
  6
CONTINUOUS
 10
5.544440
 20
1.079320
  0
VERTEX
  8
0
  6
CONTINUOUS
 10
4.902920
 20
1.445840
  0
VERTEX
  8
0
  6
CONTINUOUS
 10
4.925360
 20
1.463440
  0
SEQEND
  8
0
  0
SOLID
  8
0
 62
     7
 10
4.902920
 20
1.445840
 11
5.544440
 21
1.079320
 12
4.883120
 22
1.422520
 13
5.525080
 23
1.056440
  0
POLYLINE
  8
0
  6
CONTINUOUS
 66
     1
 40
0.000000
 41
0.000000
  0
VERTEX
  8
0
  6
CONTINUOUS
 10
4.902920
 20
1.445840
  0
VERTEX
  8
0
  6
CONTINUOUS
 10
5.544440
 20
1.079320
  0
VERTEX
  8
0
  6
CONTINUOUS
 10
5.525080
 20
1.056440
  0
VERTEX
  8
0
  6
CONTINUOUS
 10
4.883120
 20
1.422520
  0
VERTEX
  8
0
  6
CONTINUOUS
 10
4.902920
 20
1.445840
  0
SEQEND
  8
0
  0
SOLID
  8
0
 62
     7
 10
4.883120
 20
1.422520
 11
5.525080
 21
1.056440
 12
4.867720
 22
1.393480
 13
5.509240
 23
1.027400
  0
POLYLINE
  8
0
  6
CONTINUOUS
 66
     1
 40
0.000000
 41
0.000000
  0
VERTEX
  8
0
  6
CONTINUOUS
 10
4.883120
 20
1.422520
  0
VERTEX
  8
0
  6
CONTINUOUS
 10
5.525080
 20
1.056440
  0
VERTEX
  8
0
  6
CONTINUOUS
 10
5.509240
 20
1.027400
  0
VERTEX
  8
0
  6
CONTINUOUS
 10
4.867720
 20
1.393480
  0
VERTEX
  8
0
  6
CONTINUOUS
 10
4.883120
 20
1.422520
  0
SEQEND
  8
0
  0
SOLID
  8
0
 62
     7
 10
4.867720
 20
1.393480
 11
5.509240
 21
1.027400
 12
4.857600
 22
1.357400
 13
5.499120
 23
0.990880
  0
POLYLINE
  8
0
  6
CONTINUOUS
 66
     1
 40
0.000000
 41
0.000000
  0
VERTEX
  8
0
  6
CONTINUOUS
 10
4.867720
 20
1.393480
  0
VERTEX
  8
0
  6
CONTINUOUS
 10
5.509240
 20
1.027400
  0
VERTEX
  8
0
  6
CONTINUOUS
 10
5.499120
 20
0.990880
  0
VERTEX
  8
0
  6
CONTINUOUS
 10
4.857600
 20
1.357400
  0
VERTEX
  8
0
  6
CONTINUOUS
 10
4.867720
 20
1.393480
  0
SEQEND
  8
0
  0
SOLID
  8
0
 62
     7
 10
4.857600
 20
1.357400
 11
5.499120
 21
0.990880
 12
4.854960
 22
1.336280
 13
5.496480
 23
0.970200
  0
POLYLINE
  8
0
  6
CONTINUOUS
 66
     1
 40
0.000000
 41
0.000000
  0
VERTEX
  8
0
  6
CONTINUOUS
 10
4.857600
 20
1.357400
  0
VERTEX
  8
0
  6
CONTINUOUS
 10
5.499120
 20
0.990880
  0
VERTEX
  8
0
  6
CONTINUOUS
 10
5.496480
 20
0.970200
  0
VERTEX
  8
0
  6
CONTINUOUS
 10
4.854960
 20
1.336280
  0
VERTEX
  8
0
  6
CONTINUOUS
 10
4.857600
 20
1.357400
  0
SEQEND
  8
0
  0
SOLID
  8
0
 62
     7
 10
4.854960
 20
1.336280
 11
5.496480
 21
0.970200
 12
4.853640
 22
1.312960
 13
5.495600
 23
0.946880
  0
POLYLINE
  8
0
  6
CONTINUOUS
 66
     1
 40
0.000000
 41
0.000000
  0
VERTEX
  8
0
  6
CONTINUOUS
 10
4.854960
 20
1.336280
  0
VERTEX
  8
0
  6
CONTINUOUS
 10
5.496480
 20
0.970200
  0
VERTEX
  8
0
  6
CONTINUOUS
 10
5.495600
 20
0.946880
  0
VERTEX
  8
0
  6
CONTINUOUS
 10
4.853640
 20
1.312960
  0
VERTEX
  8
0
  6
CONTINUOUS
 10
4.854960
 20
1.336280
  0
SEQEND
  8
0
  0
SOLID
  8
0
 62
    15
 10
4.853640
 20
1.312960
 11
5.495600
 21
0.946880
 12
4.764320
 22
1.312960
 13
5.405840
 23
0.946880
  0
POLYLINE
  8
0
  6
CONTINUOUS
 66
     1
 40
0.000000
 41
0.000000
  0
VERTEX
  8
0
  6
CONTINUOUS
 10
4.853640
 20
1.312960
  0
VERTEX
  8
0
  6
CONTINUOUS
 10
5.495600
 20
0.946880
  0
VERTEX
  8
0
  6
CONTINUOUS
 10
5.405840
 20
0.946880
  0
VERTEX
  8
0
  6
CONTINUOUS
 10
4.764320
 20
1.312960
  0
VERTEX
  8
0
  6
CONTINUOUS
 10
4.853640
 20
1.312960
  0
SEQEND
  8
0
  0
SOLID
  8
0
 62
     7
 10
5.309040
 20
2.317040
 11
5.950560
 21
1.950520
 12
5.309040
 22
2.227280
 13
5.950560
 23
1.861200
  0
POLYLINE
  8
0
  6
CONTINUOUS
 66
     1
 40
0.000000
 41
0.000000
  0
VERTEX
  8
0
  6
CONTINUOUS
 10
5.309040
 20
2.317040
  0
VERTEX
  8
0
  6
CONTINUOUS
 10
5.950560
 20
1.950520
  0
VERTEX
  8
0
  6
CONTINUOUS
 10
5.950560
 20
1.861200
  0
VERTEX
  8
0
  6
CONTINUOUS
 10
5.309040
 20
2.227280
  0
VERTEX
  8
0
  6
CONTINUOUS
 10
5.309040
 20
2.317040
  0
SEQEND
  8
0
  0
SOLID
  8
0
 62
     7
 10
5.309040
 20
2.227280
 11
5.950560
 21
1.861200
 12
5.306840
 22
2.217160
 13
5.948360
 23
1.850640
  0
POLYLINE
  8
0
  6
CONTINUOUS
 66
     1
 40
0.000000
 41
0.000000
  0
VERTEX
  8
0
  6
CONTINUOUS
 10
5.309040
 20
2.227280
  0
VERTEX
  8
0
  6
CONTINUOUS
 10
5.950560
 20
1.861200
  0
VERTEX
  8
0
  6
CONTINUOUS
 10
5.948360
 20
1.850640
  0
VERTEX
  8
0
  6
CONTINUOUS
 10
5.306840
 20
2.217160
  0
VERTEX
  8
0
  6
CONTINUOUS
 10
5.309040
 20
2.227280
  0
SEQEND
  8
0
  0
SOLID
  8
0
 62
     7
 10
5.306840
 20
2.217160
 11
5.948360
 21
1.850640
 12
5.300240
 22
2.207920
 13
5.941760
 23
1.841840
  0
POLYLINE
  8
0
  6
CONTINUOUS
 66
     1
 40
0.000000
 41
0.000000
  0
VERTEX
  8
0
  6
CONTINUOUS
 10
5.306840
 20
2.217160
  0
VERTEX
  8
0
  6
CONTINUOUS
 10
5.948360
 20
1.850640
  0
VERTEX
  8
0
  6
CONTINUOUS
 10
5.941760
 20
1.841840
  0
VERTEX
  8
0
  6
CONTINUOUS
 10
5.300240
 20
2.207920
  0
VERTEX
  8
0
  6
CONTINUOUS
 10
5.306840
 20
2.217160
  0
SEQEND
  8
0
  0
SOLID
  8
0
 62
     7
 10
5.300240
 20
2.207920
 11
5.941760
 21
1.841840
 12
5.290560
 22
2.200000
 13
5.932080
 23
1.833920
  0
POLYLINE
  8
0
  6
CONTINUOUS
 66
     1
 40
0.000000
 41
0.000000
  0
VERTEX
  8
0
  6
CONTINUOUS
 10
5.300240
 20
2.207920
  0
VERTEX
  8
0
  6
CONTINUOUS
 10
5.941760
 20
1.841840
  0
VERTEX
  8
0
  6
CONTINUOUS
 10
5.932080
 20
1.833920
  0
VERTEX
  8
0
  6
CONTINUOUS
 10
5.290560
 20
2.200000
  0
VERTEX
  8
0
  6
CONTINUOUS
 10
5.300240
 20
2.207920
  0
SEQEND
  8
0
  0
SOLID
  8
0
 62
    15
 10
5.290560
 20
2.200000
 11
5.932080
 21
1.833920
 12
5.277800
 22
2.193400
 13
5.919760
 23
1.827320
  0
POLYLINE
  8
0
  6
CONTINUOUS
 66
     1
 40
0.000000
 41
0.000000
  0
VERTEX
  8
0
  6
CONTINUOUS
 10
5.290560
 20
2.200000
  0
VERTEX
  8
0
  6
CONTINUOUS
 10
5.932080
 20
1.833920
  0
VERTEX
  8
0
  6
CONTINUOUS
 10
5.919760
 20
1.827320
  0
VERTEX
  8
0
  6
CONTINUOUS
 10
5.277800
 20
2.193400
  0
VERTEX
  8
0
  6
CONTINUOUS
 10
5.290560
 20
2.200000
  0
SEQEND
  8
0
  0
SOLID
  8
0
 62
    15
 10
5.277800
 20
2.193400
 11
5.919760
 21
1.827320
 12
5.247880
 22
2.184600
 13
5.889400
 23
1.818080
  0
POLYLINE
  8
0
  6
CONTINUOUS
 66
     1
 40
0.000000
 41
0.000000
  0
VERTEX
  8
0
  6
CONTINUOUS
 10
5.277800
 20
2.193400
  0
VERTEX
  8
0
  6
CONTINUOUS
 10
5.919760
 20
1.827320
  0
VERTEX
  8
0
  6
CONTINUOUS
 10
5.889400
 20
1.818080
  0
VERTEX
  8
0
  6
CONTINUOUS
 10
5.247880
 20
2.184600
  0
VERTEX
  8
0
  6
CONTINUOUS
 10
5.277800
 20
2.193400
  0
SEQEND
  8
0
  0
SOLID
  8
0
 62
    15
 10
5.247880
 20
2.184600
 11
5.889400
 21
1.818080
 12
5.215760
 22
2.181080
 13
5.857280
 23
1.815000
  0
POLYLINE
  8
0
  6
CONTINUOUS
 66
     1
 40
0.000000
 41
0.000000
  0
VERTEX
  8
0
  6
CONTINUOUS
 10
5.247880
 20
2.184600
  0
VERTEX
  8
0
  6
CONTINUOUS
 10
5.889400
 20
1.818080
  0
VERTEX
  8
0
  6
CONTINUOUS
 10
5.857280
 20
1.815000
  0
VERTEX
  8
0
  6
CONTINUOUS
 10
5.215760
 20
2.181080
  0
VERTEX
  8
0
  6
CONTINUOUS
 10
5.247880
 20
2.184600
  0
SEQEND
  8
0
  0
POLYLINE
  8
0
  6
CONTINUOUS
 66
     1
 40
0.000000
 41
0.000000
  0
VERTEX
  8
0
  6
CONTINUOUS
 10
5.215760
 20
2.181080
  0
VERTEX
  8
0
  6
CONTINUOUS
 10
5.209160
 20
2.093080
  0
VERTEX
  8
0
  6
CONTINUOUS
 10
5.198600
 20
1.999360
  0
VERTEX
  8
0
  6
CONTINUOUS
 10
5.182760
 20
1.904320
  0
VERTEX
  8
0
  6
CONTINUOUS
 10
5.161200
 20
1.812360
  0
VERTEX
  8
0
  6
CONTINUOUS
 10
5.148000
 20
1.769240
  0
VERTEX
  8
0
  6
CONTINUOUS
 10
5.133040
 20
1.728760
  0
VERTEX
  8
0
  6
CONTINUOUS
 10
5.115880
 20
1.691360
  0
VERTEX
  8
0
  6
CONTINUOUS
 10
5.096960
 20
1.657920
  0
VERTEX
  8
0
  6
CONTINUOUS
 10
5.075840
 20
1.628440
  0
VERTEX
  8
0
  6
CONTINUOUS
 10
5.052520
 20
1.604240
  0
VERTEX
  8
0
  6
CONTINUOUS
 10
5.026560
 20
1.585320
  0
VERTEX
  8
0
  6
CONTINUOUS
 10
4.998400
 20
1.572560
  0
VERTEX
  8
0
  6
CONTINUOUS
 10
4.998400
 20
1.492920
  0
VERTEX
  8
0
  6
CONTINUOUS
 10
4.974640
 20
1.485880
  0
VERTEX
  8
0
  6
CONTINUOUS
 10
4.949560
 20
1.476640
  0
VERTEX
  8
0
  6
CONTINUOUS
 10
4.925360
 20
1.463440
  0
VERTEX
  8
0
  6
CONTINUOUS
 10
4.902920
 20
1.445840
  0
VERTEX
  8
0
  6
CONTINUOUS
 10
4.883120
 20
1.422520
  0
VERTEX
  8
0
  6
CONTINUOUS
 10
4.867720
 20
1.393480
  0
VERTEX
  8
0
  6
CONTINUOUS
 10
4.857600
 20
1.357400
  0
VERTEX
  8
0
  6
CONTINUOUS
 10
4.854960
 20
1.336280
  0
VERTEX
  8
0
  6
CONTINUOUS
 10
4.853640
 20
1.312960
  0
VERTEX
  8
0
  6
CONTINUOUS
 10
4.764320
 20
1.312960
  0
VERTEX
  8
0
  6
CONTINUOUS
 10
4.764320
 20
2.317040
  0
VERTEX
  8
0
  6
CONTINUOUS
 10
5.309040
 20
2.317040
  0
VERTEX
  8
0
  6
CONTINUOUS
 10
5.309040
 20
2.227280
  0
VERTEX
  8
0
  6
CONTINUOUS
 10
5.306840
 20
2.217160
  0
VERTEX
  8
0
  6
CONTINUOUS
 10
5.300240
 20
2.207920
  0
VERTEX
  8
0
  6
CONTINUOUS
 10
5.290560
 20
2.200000
  0
VERTEX
  8
0
  6
CONTINUOUS
 10
5.277800
 20
2.193400
  0
VERTEX
  8
0
  6
CONTINUOUS
 10
5.247880
 20
2.184600
  0
VERTEX
  8
0
  6
CONTINUOUS
 10
5.215760
 20
2.181080
  0
SEQEND
  8
0
  0
TEXT
  8
0
 10
5.061760
 20
0.702240
 40
0.138120
  1
BA  528
 41
1.000000
  7
SN0
 71
     0
 72
     5
 11
5.651543
 21
0.702240
  0
TEXT
  8
0
 10
5.003240
 20
0.510840
 40
0.138120
  1
9/16" x 1"
 41
1.000000
  7
SN0
 71
     0
 72
     5
 11
5.710254
 21
0.510840
  0
POLYLINE
  8
0
  6
CONTINUOUS
 66
     1
 40
0.014080
 41
0.014080
  0
VERTEX
  8
0
  6
CONTINUOUS
 10
6.393640
 20
2.269960
  0
VERTEX
  8
0
  6
CONTINUOUS
 10
6.481640
 20
2.263800
  0
VERTEX
  8
0
  6
CONTINUOUS
 10
6.575360
 20
2.253240
  0
VERTEX
  8
0
  6
CONTINUOUS
 10
6.670400
 20
2.237400
  0
VERTEX
  8
0
  6
CONTINUOUS
 10
6.717040
 20
2.227280
  0
VERTEX
  8
0
  6
CONTINUOUS
 10
6.762360
 20
2.215840
  0
VERTEX
  8
0
  6
CONTINUOUS
 10
6.826160
 20
2.195160
  0
VERTEX
  8
0
  6
CONTINUOUS
 10
6.883360
 20
2.170520
  0
VERTEX
  8
0
  6
CONTINUOUS
 10
6.916800
 20
2.151160
  0
VERTEX
  8
0
  6
CONTINUOUS
 10
6.946280
 20
2.130040
  0
VERTEX
  8
0
  6
CONTINUOUS
 10
6.970480
 20
2.106720
  0
VERTEX
  8
0
  6
CONTINUOUS
 10
6.989400
 20
2.081200
  0
VERTEX
  8
0
  6
CONTINUOUS
 10
7.002160
 20
2.053040
  0
VERTEX
  8
0
  6
CONTINUOUS
 10
7.081800
 20
2.053040
  0
VERTEX
  8
0
  6
CONTINUOUS
 10
7.093240
 20
2.016520
  0
VERTEX
  8
0
  6
CONTINUOUS
 10
7.104240
 20
1.991880
  0
VERTEX
  8
0
  6
CONTINUOUS
 10
7.119640
 20
1.968120
  0
VERTEX
  8
0
  6
CONTINUOUS
 10
7.128880
 20
1.957120
  0
VERTEX
  8
0
  6
CONTINUOUS
 10
7.152200
 20
1.937760
  0
VERTEX
  8
0
  6
CONTINUOUS
 10
7.181240
 20
1.921920
  0
VERTEX
  8
0
  6
CONTINUOUS
 10
7.198400
 20
1.916200
  0
VERTEX
  8
0
  6
CONTINUOUS
 10
7.217320
 20
1.911800
  0
VERTEX
  8
0
  6
CONTINUOUS
 10
7.249880
 20
1.908720
  0
VERTEX
  8
0
  6
CONTINUOUS
 10
7.261760
 20
1.908280
  0
VERTEX
  8
0
  6
CONTINUOUS
 10
7.261760
 20
1.818520
  0
VERTEX
  8
0
  6
CONTINUOUS
 10
6.257680
 20
1.818520
  0
VERTEX
  8
0
  6
CONTINUOUS
 10
6.257680
 20
2.363240
  0
VERTEX
  8
0
  6
CONTINUOUS
 10
6.352720
 20
2.362800
  0
VERTEX
  8
0
  6
CONTINUOUS
 10
6.362400
 20
2.358400
  0
VERTEX
  8
0
  6
CONTINUOUS
 10
6.374720
 20
2.344760
  0
VERTEX
  8
0
  6
CONTINUOUS
 10
6.381320
 20
2.332440
  0
VERTEX
  8
0
  6
CONTINUOUS
 10
6.386600
 20
2.317920
  0
VERTEX
  8
0
  6
CONTINUOUS
 10
6.390560
 20
2.302080
  0
VERTEX
  8
0
  6
CONTINUOUS
 10
6.393640
 20
2.269960
  0
SEQEND
  8
0
  0
TEXT
  8
0
 10
6.452160
 20
1.579600
 40
0.138120
  1
BA  528
 41
1.000000
  7
SN0
 71
     0
 72
     5
 11
7.041943
 21
1.579600
  0
TEXT
  8
0
 10
6.393200
 20
1.387760
 40
0.138120
  1
9/16" x 1"
 41
1.000000
  7
SN0
 71
     0
 72
     5
 11
7.100214
 21
1.387760
  0
ENDSEC
  0
EOF
