  0
SECTION
  2
HEADER
  9
$ACADVER
  1
AC1006
  9
$EXTMIN
 10
2.615800
 20
0.784960
  9
$EXTMAX
 10
7.090600
 20
4.891480
  9
$LTSCALE
 40
0.044000
  9
$PDMODE
 70
    35
  9
$PDSIZE
 40
0.035200
  0
ENDSEC
  0
SECTION
  2
TABLES
  0
TABLE
  2
LTYPE
 70
     9
  0
LTYPE
  2
CONTINUOUS
 70
    64
  3
Solid line
 72
    65
 73
     0
 40
0.000000
  0
LTYPE
  2
DASHED
 70
    64
  3
__ __ __ __ __ __ __ __ __ __ __ __ __ __ __
 72
    65
 73
     2
 40
0.000330
 49
0.000220
 49
-0.000110
  0
LTYPE
  2
HIDDEN
 70
    64
  3
 _ _ _ _ _ _ _ _ _ _ _ _ _ _ _ _ _ _ _ _ _ _
 72
    65
 73
     2
 40
0.000165
 49
0.000110
 49
-0.000055
  0
LTYPE
  2
CENTER
 70
    64
  3
____ _ ____ _ ____ _ ____ _ ____ _ ____ _ ____
 72
    65
 73
     4
 40
0.000880
 49
0.000550
 49
-0.000110
 49
0.000110
 49
-0.000110
  0
LTYPE
  2
PHANTOM
 70
    64
  3
_____ _ _ _____ _ _ _____ _ _ _____ _ _ ____
 72
    65
 73
     6
 40
0.001100
 49
0.000550
 49
-0.000110
 49
0.000110
 49
-0.000110
 49
0.000110
 49
-0.000110
  0
LTYPE
  2
DOT
 70
    64
  3
...............................................
 72
    65
 73
     2
 40
0.000110
 49
0.000000
 49
-0.000110
  0
LTYPE
  2
DASHDOT
 70
    64
  3
__ . __ . __ . __ . __ . __ . __ . __ . __ . __
 72
    65
 73
     4
 40
0.000440
 49
0.000220
 49
-0.000110
 49
0.000000
 49
-0.000110
  0
LTYPE
  2
BORDER
 70
    64
  3
__ __ . __ __ . __ __ . __ __ . __ __ . __ __
 72
    65
 73
     6
 40
0.000770
 49
0.000220
 49
-0.000110
 49
0.000220
 49
-0.000110
 49
0.000000
 49
-0.000110
  0
LTYPE
  2
DIVIDE
 70
    64
  3
__ . . __ . . __ . . __ . . __ . . __ . . __
 72
    65
 73
     6
 40
0.000550
 49
0.000220
 49
-0.000110
 49
0.000000
 49
-0.000110
 49
0.000000
 49
-0.000110
  0
LTYPE
  2
DOTDOT
 70
    64
  3
 . .  . .  . .  . .  . .  . . 
 72
    65
 73
     5
 40
0.000242
 49
-0.000110
 49
0.000000
 49
-0.000110
 49
0.000000
 49
-0.000110
  0
ENDTAB
  0
TABLE
  2
STYLE
 70
     2
  0
STYLE
 70
     0
  2
SN0
 40
0.000000
 41
0.000440
 50
0.000000
 71
     0
 42
0.000000
  3
ROMAND
  0
STYLE
 70
    68
  2
SV0
 40
0.000000
 41
0.000440
 50
0.000000
 71
     0
 42
0.000000
  3
ROMAND
  0
ENDTAB
  0
TABLE
  2
LAYER
 70
     3
  0
LAYER
  2
FOREGROUND
 70
    64
 62
     7
  6
CONTINUOUS
  0
LAYER
  2
BACKGROUND
 70
    65
 62
    -7
  6
CONTINUOUS
  0
LAYER
  2
0
 70
    64
 62
     7
  6
CONTINUOUS
  0
ENDTAB
  0
ENDSEC
  0
SECTION
  2
ENTITIES
  0
POLYLINE
  8
FOREGROUND
  6
CONTINUOUS
 66
     1
 40
0.000000
 41
0.000000
  0
VERTEX
  8
FOREGROUND
  6
CONTINUOUS
 10
0.000000
 20
5.676440
  0
VERTEX
  8
FOREGROUND
  6
CONTINUOUS
 10
8.499920
 20
5.676440
  0
VERTEX
  8
FOREGROUND
  6
CONTINUOUS
 10
8.499920
 20
-5.323560
  0
VERTEX
  8
FOREGROUND
  6
CONTINUOUS
 10
0.000000
 20
-5.323560
  0
VERTEX
  8
FOREGROUND
  6
CONTINUOUS
 10
0.000000
 20
5.676440
  0
SEQEND
  8
0
  0
POLYLINE
  8
FOREGROUND
  6
CONTINUOUS
 66
     1
 40
0.000000
 41
0.000000
  0
VERTEX
  8
FOREGROUND
  6
CONTINUOUS
 10
0.000000
 20
5.676440
  0
VERTEX
  8
FOREGROUND
  6
CONTINUOUS
 10
8.499920
 20
5.676440
  0
VERTEX
  8
FOREGROUND
  6
CONTINUOUS
 10
8.499920
 20
-5.323560
  0
VERTEX
  8
FOREGROUND
  6
CONTINUOUS
 10
0.000000
 20
-5.323560
  0
VERTEX
  8
FOREGROUND
  6
CONTINUOUS
 10
0.000000
 20
5.676440
  0
SEQEND
  8
0
  0
POLYLINE
  8
0
  6
CONTINUOUS
 66
     1
 40
0.014080
 41
0.014080
  0
VERTEX
  8
0
  6
CONTINUOUS
 10
3.098480
 20
4.845720
  0
VERTEX
  8
0
  6
CONTINUOUS
 10
3.169760
 20
4.846160
  0
SEQEND
  8
0
  0
POLYLINE
  8
0
  6
CONTINUOUS
 66
     1
 40
0.014080
 41
0.014080
  0
VERTEX
  8
0
  6
CONTINUOUS
 10
3.169760
 20
4.846160
  0
VERTEX
  8
0
  6
CONTINUOUS
 10
3.222560
 20
4.842200
  0
SEQEND
  8
0
  0
POLYLINE
  8
0
  6
CONTINUOUS
 66
     1
 40
0.014080
 41
0.014080
  0
VERTEX
  8
0
  6
CONTINUOUS
 10
3.222560
 20
4.842200
  0
VERTEX
  8
0
  6
CONTINUOUS
 10
3.296920
 20
4.824600
  0
SEQEND
  8
0
  0
POLYLINE
  8
0
  6
CONTINUOUS
 66
     1
 40
0.014080
 41
0.014080
  0
VERTEX
  8
0
  6
CONTINUOUS
 10
3.296920
 20
4.824600
  0
VERTEX
  8
0
  6
CONTINUOUS
 10
3.404720
 20
4.803480
  0
SEQEND
  8
0
  0
POLYLINE
  8
0
  6
CONTINUOUS
 66
     1
 40
0.014080
 41
0.014080
  0
VERTEX
  8
0
  6
CONTINUOUS
 10
3.404720
 20
4.803480
  0
VERTEX
  8
0
  6
CONTINUOUS
 10
3.457080
 20
4.780160
  0
SEQEND
  8
0
  0
POLYLINE
  8
0
  6
CONTINUOUS
 66
     1
 40
0.014080
 41
0.014080
  0
VERTEX
  8
0
  6
CONTINUOUS
 10
3.457080
 20
4.780160
  0
VERTEX
  8
0
  6
CONTINUOUS
 10
3.472920
 20
4.761680
  0
SEQEND
  8
0
  0
POLYLINE
  8
0
  6
CONTINUOUS
 66
     1
 40
0.014080
 41
0.014080
  0
VERTEX
  8
0
  6
CONTINUOUS
 10
3.472920
 20
4.761680
  0
VERTEX
  8
0
  6
CONTINUOUS
 10
3.479080
 20
4.736600
  0
SEQEND
  8
0
  0
POLYLINE
  8
0
  6
CONTINUOUS
 66
     1
 40
0.014080
 41
0.014080
  0
VERTEX
  8
0
  6
CONTINUOUS
 10
3.479080
 20
4.736600
  0
VERTEX
  8
0
  6
CONTINUOUS
 10
4.577760
 20
4.713280
  0
SEQEND
  8
0
  0
POLYLINE
  8
0
  6
CONTINUOUS
 66
     1
 40
0.014080
 41
0.014080
  0
VERTEX
  8
0
  6
CONTINUOUS
 10
4.577760
 20
4.713280
  0
VERTEX
  8
0
  6
CONTINUOUS
 10
4.599320
 20
4.328280
  0
SEQEND
  8
0
  0
POLYLINE
  8
0
  6
CONTINUOUS
 66
     1
 40
0.014080
 41
0.014080
  0
VERTEX
  8
0
  6
CONTINUOUS
 10
4.599320
 20
4.328280
  0
VERTEX
  8
0
  6
CONTINUOUS
 10
5.047680
 20
4.324320
  0
SEQEND
  8
0
  0
POLYLINE
  8
0
  6
CONTINUOUS
 66
     1
 40
0.014080
 41
0.014080
  0
VERTEX
  8
0
  6
CONTINUOUS
 10
5.047680
 20
4.324320
  0
VERTEX
  8
0
  6
CONTINUOUS
 10
5.068800
 20
4.228400
  0
SEQEND
  8
0
  0
POLYLINE
  8
0
  6
CONTINUOUS
 66
     1
 40
0.014080
 41
0.014080
  0
VERTEX
  8
0
  6
CONTINUOUS
 10
5.068800
 20
4.228400
  0
VERTEX
  8
0
  6
CONTINUOUS
 10
5.092560
 20
4.228400
  0
SEQEND
  8
0
  0
POLYLINE
  8
0
  6
CONTINUOUS
 66
     1
 40
0.014080
 41
0.014080
  0
VERTEX
  8
0
  6
CONTINUOUS
 10
5.092560
 20
4.228400
  0
VERTEX
  8
0
  6
CONTINUOUS
 10
5.147560
 20
4.250840
  0
SEQEND
  8
0
  0
POLYLINE
  8
0
  6
CONTINUOUS
 66
     1
 40
0.014080
 41
0.014080
  0
VERTEX
  8
0
  6
CONTINUOUS
 10
5.147560
 20
4.250840
  0
VERTEX
  8
0
  6
CONTINUOUS
 10
5.202560
 20
4.262720
  0
SEQEND
  8
0
  0
POLYLINE
  8
0
  6
CONTINUOUS
 66
     1
 40
0.014080
 41
0.014080
  0
VERTEX
  8
0
  6
CONTINUOUS
 10
5.202560
 20
4.262720
  0
VERTEX
  8
0
  6
CONTINUOUS
 10
5.257120
 20
4.265360
  0
SEQEND
  8
0
  0
POLYLINE
  8
0
  6
CONTINUOUS
 66
     1
 40
0.014080
 41
0.014080
  0
VERTEX
  8
0
  6
CONTINUOUS
 10
5.257120
 20
4.265360
  0
VERTEX
  8
0
  6
CONTINUOUS
 10
5.311680
 20
4.258760
  0
SEQEND
  8
0
  0
POLYLINE
  8
0
  6
CONTINUOUS
 66
     1
 40
0.014080
 41
0.014080
  0
VERTEX
  8
0
  6
CONTINUOUS
 10
5.311680
 20
4.258760
  0
VERTEX
  8
0
  6
CONTINUOUS
 10
5.420360
 20
4.223120
  0
SEQEND
  8
0
  0
POLYLINE
  8
0
  6
CONTINUOUS
 66
     1
 40
0.014080
 41
0.014080
  0
VERTEX
  8
0
  6
CONTINUOUS
 10
5.420360
 20
4.223120
  0
VERTEX
  8
0
  6
CONTINUOUS
 10
5.530800
 20
4.162400
  0
SEQEND
  8
0
  0
POLYLINE
  8
0
  6
CONTINUOUS
 66
     1
 40
0.014080
 41
0.014080
  0
VERTEX
  8
0
  6
CONTINUOUS
 10
5.530800
 20
4.162400
  0
VERTEX
  8
0
  6
CONTINUOUS
 10
5.586240
 20
4.132920
  0
SEQEND
  8
0
  0
POLYLINE
  8
0
  6
CONTINUOUS
 66
     1
 40
0.014080
 41
0.014080
  0
VERTEX
  8
0
  6
CONTINUOUS
 10
5.586240
 20
4.132920
  0
VERTEX
  8
0
  6
CONTINUOUS
 10
5.641240
 20
4.115760
  0
SEQEND
  8
0
  0
POLYLINE
  8
0
  6
CONTINUOUS
 66
     1
 40
0.014080
 41
0.014080
  0
VERTEX
  8
0
  6
CONTINUOUS
 10
5.641240
 20
4.115760
  0
VERTEX
  8
0
  6
CONTINUOUS
 10
5.694480
 20
4.107840
  0
SEQEND
  8
0
  0
POLYLINE
  8
0
  6
CONTINUOUS
 66
     1
 40
0.014080
 41
0.014080
  0
VERTEX
  8
0
  6
CONTINUOUS
 10
5.694480
 20
4.107840
  0
VERTEX
  8
0
  6
CONTINUOUS
 10
5.744200
 20
4.107840
  0
SEQEND
  8
0
  0
POLYLINE
  8
0
  6
CONTINUOUS
 66
     1
 40
0.014080
 41
0.014080
  0
VERTEX
  8
0
  6
CONTINUOUS
 10
5.744200
 20
4.107840
  0
VERTEX
  8
0
  6
CONTINUOUS
 10
5.789080
 20
4.114000
  0
SEQEND
  8
0
  0
POLYLINE
  8
0
  6
CONTINUOUS
 66
     1
 40
0.014080
 41
0.014080
  0
VERTEX
  8
0
  6
CONTINUOUS
 10
5.789080
 20
4.114000
  0
VERTEX
  8
0
  6
CONTINUOUS
 10
5.828680
 20
4.124120
  0
SEQEND
  8
0
  0
POLYLINE
  8
0
  6
CONTINUOUS
 66
     1
 40
0.014080
 41
0.014080
  0
VERTEX
  8
0
  6
CONTINUOUS
 10
5.828680
 20
4.124120
  0
VERTEX
  8
0
  6
CONTINUOUS
 10
5.860360
 20
4.136440
  0
SEQEND
  8
0
  0
POLYLINE
  8
0
  6
CONTINUOUS
 66
     1
 40
0.014080
 41
0.014080
  0
VERTEX
  8
0
  6
CONTINUOUS
 10
5.860360
 20
4.136440
  0
VERTEX
  8
0
  6
CONTINUOUS
 10
5.883680
 20
4.148760
  0
SEQEND
  8
0
  0
POLYLINE
  8
0
  6
CONTINUOUS
 66
     1
 40
0.014080
 41
0.014080
  0
VERTEX
  8
0
  6
CONTINUOUS
 10
5.883680
 20
4.148760
  0
VERTEX
  8
0
  6
CONTINUOUS
 10
6.002040
 20
4.105200
  0
SEQEND
  8
0
  0
POLYLINE
  8
0
  6
CONTINUOUS
 66
     1
 40
0.014080
 41
0.014080
  0
VERTEX
  8
0
  6
CONTINUOUS
 10
6.002040
 20
4.105200
  0
VERTEX
  8
0
  6
CONTINUOUS
 10
6.007760
 20
4.037000
  0
SEQEND
  8
0
  0
POLYLINE
  8
0
  6
CONTINUOUS
 66
     1
 40
0.014080
 41
0.014080
  0
VERTEX
  8
0
  6
CONTINUOUS
 10
6.007760
 20
4.037000
  0
VERTEX
  8
0
  6
CONTINUOUS
 10
6.746520
 20
4.023800
  0
SEQEND
  8
0
  0
POLYLINE
  8
0
  6
CONTINUOUS
 66
     1
 40
0.014080
 41
0.014080
  0
VERTEX
  8
0
  6
CONTINUOUS
 10
6.746520
 20
4.023800
  0
VERTEX
  8
0
  6
CONTINUOUS
 10
6.787000
 20
3.897960
  0
SEQEND
  8
0
  0
POLYLINE
  8
0
  6
CONTINUOUS
 66
     1
 40
0.014080
 41
0.014080
  0
VERTEX
  8
0
  6
CONTINUOUS
 10
6.787000
 20
3.897960
  0
VERTEX
  8
0
  6
CONTINUOUS
 10
6.805920
 20
3.897960
  0
SEQEND
  8
0
  0
POLYLINE
  8
0
  6
CONTINUOUS
 66
     1
 40
0.014080
 41
0.014080
  0
VERTEX
  8
0
  6
CONTINUOUS
 10
6.805920
 20
3.897960
  0
VERTEX
  8
0
  6
CONTINUOUS
 10
6.832760
 20
3.938440
  0
SEQEND
  8
0
  0
POLYLINE
  8
0
  6
CONTINUOUS
 66
     1
 40
0.014080
 41
0.014080
  0
VERTEX
  8
0
  6
CONTINUOUS
 10
6.832760
 20
3.938440
  0
VERTEX
  8
0
  6
CONTINUOUS
 10
6.872360
 20
3.966600
  0
SEQEND
  8
0
  0
POLYLINE
  8
0
  6
CONTINUOUS
 66
     1
 40
0.014080
 41
0.014080
  0
VERTEX
  8
0
  6
CONTINUOUS
 10
6.872360
 20
3.966600
  0
VERTEX
  8
0
  6
CONTINUOUS
 10
6.919000
 20
3.983320
  0
SEQEND
  8
0
  0
POLYLINE
  8
0
  6
CONTINUOUS
 66
     1
 40
0.014080
 41
0.014080
  0
VERTEX
  8
0
  6
CONTINUOUS
 10
6.919000
 20
3.983320
  0
VERTEX
  8
0
  6
CONTINUOUS
 10
6.968280
 20
3.987720
  0
SEQEND
  8
0
  0
POLYLINE
  8
0
  6
CONTINUOUS
 66
     1
 40
0.014080
 41
0.014080
  0
VERTEX
  8
0
  6
CONTINUOUS
 10
6.968280
 20
3.987720
  0
VERTEX
  8
0
  6
CONTINUOUS
 10
7.014480
 20
3.980240
  0
SEQEND
  8
0
  0
POLYLINE
  8
0
  6
CONTINUOUS
 66
     1
 40
0.014080
 41
0.014080
  0
VERTEX
  8
0
  6
CONTINUOUS
 10
7.014480
 20
3.980240
  0
VERTEX
  8
0
  6
CONTINUOUS
 10
7.054080
 20
3.960880
  0
SEQEND
  8
0
  0
POLYLINE
  8
0
  6
CONTINUOUS
 66
     1
 40
0.014080
 41
0.014080
  0
VERTEX
  8
0
  6
CONTINUOUS
 10
7.054080
 20
3.960880
  0
VERTEX
  8
0
  6
CONTINUOUS
 10
7.080920
 20
3.930080
  0
SEQEND
  8
0
  0
POLYLINE
  8
0
  6
CONTINUOUS
 66
     1
 40
0.014080
 41
0.014080
  0
VERTEX
  8
0
  6
CONTINUOUS
 10
7.080920
 20
3.930080
  0
VERTEX
  8
0
  6
CONTINUOUS
 10
7.090600
 20
3.886520
  0
SEQEND
  8
0
  0
POLYLINE
  8
0
  6
CONTINUOUS
 66
     1
 40
0.014080
 41
0.014080
  0
VERTEX
  8
0
  6
CONTINUOUS
 10
7.090600
 20
3.886520
  0
VERTEX
  8
0
  6
CONTINUOUS
 10
7.090600
 20
3.698640
  0
SEQEND
  8
0
  0
POLYLINE
  8
0
  6
CONTINUOUS
 66
     1
 40
0.014080
 41
0.014080
  0
VERTEX
  8
0
  6
CONTINUOUS
 10
7.090600
 20
3.698640
  0
VERTEX
  8
0
  6
CONTINUOUS
 10
2.620200
 20
3.698640
  0
SEQEND
  8
0
  0
POLYLINE
  8
0
  6
CONTINUOUS
 66
     1
 40
0.014080
 41
0.014080
  0
VERTEX
  8
0
  6
CONTINUOUS
 10
2.620200
 20
3.698640
  0
VERTEX
  8
0
  6
CONTINUOUS
 10
2.620640
 20
4.891040
  0
SEQEND
  8
0
  0
POLYLINE
  8
0
  6
CONTINUOUS
 66
     1
 40
0.014080
 41
0.014080
  0
VERTEX
  8
0
  6
CONTINUOUS
 10
2.620640
 20
4.891040
  0
VERTEX
  8
0
  6
CONTINUOUS
 10
3.057120
 20
4.891040
  0
SEQEND
  8
0
  0
POLYLINE
  8
0
  6
CONTINUOUS
 66
     1
 40
0.014080
 41
0.014080
  0
VERTEX
  8
0
  6
CONTINUOUS
 10
3.098480
 20
4.845720
  0
VERTEX
  8
0
  6
CONTINUOUS
 10
3.057120
 20
4.891040
  0
SEQEND
  8
0
  0
POLYLINE
  8
0
  6
CONTINUOUS
 66
     1
 40
0.014080
 41
0.014080
  0
VERTEX
  8
0
  6
CONTINUOUS
 10
3.098480
 20
4.845720
  0
VERTEX
  8
0
  6
CONTINUOUS
 10
3.169760
 20
4.846160
  0
SEQEND
  8
0
  0
POLYLINE
  8
0
  6
CONTINUOUS
 66
     1
 40
0.014080
 41
0.014080
  0
VERTEX
  8
0
  6
CONTINUOUS
 10
3.169760
 20
4.846160
  0
VERTEX
  8
0
  6
CONTINUOUS
 10
3.222560
 20
4.842200
  0
SEQEND
  8
0
  0
POLYLINE
  8
0
  6
CONTINUOUS
 66
     1
 40
0.014080
 41
0.014080
  0
VERTEX
  8
0
  6
CONTINUOUS
 10
3.222560
 20
4.842200
  0
VERTEX
  8
0
  6
CONTINUOUS
 10
3.296920
 20
4.824600
  0
SEQEND
  8
0
  0
POLYLINE
  8
0
  6
CONTINUOUS
 66
     1
 40
0.014080
 41
0.014080
  0
VERTEX
  8
0
  6
CONTINUOUS
 10
3.296920
 20
4.824600
  0
VERTEX
  8
0
  6
CONTINUOUS
 10
3.404720
 20
4.803480
  0
SEQEND
  8
0
  0
POLYLINE
  8
0
  6
CONTINUOUS
 66
     1
 40
0.014080
 41
0.014080
  0
VERTEX
  8
0
  6
CONTINUOUS
 10
3.404720
 20
4.803480
  0
VERTEX
  8
0
  6
CONTINUOUS
 10
3.457080
 20
4.780160
  0
SEQEND
  8
0
  0
POLYLINE
  8
0
  6
CONTINUOUS
 66
     1
 40
0.014080
 41
0.014080
  0
VERTEX
  8
0
  6
CONTINUOUS
 10
3.457080
 20
4.780160
  0
VERTEX
  8
0
  6
CONTINUOUS
 10
3.472920
 20
4.761680
  0
SEQEND
  8
0
  0
POLYLINE
  8
0
  6
CONTINUOUS
 66
     1
 40
0.014080
 41
0.014080
  0
VERTEX
  8
0
  6
CONTINUOUS
 10
3.472920
 20
4.761680
  0
VERTEX
  8
0
  6
CONTINUOUS
 10
3.479080
 20
4.736600
  0
SEQEND
  8
0
  0
POLYLINE
  8
0
  6
CONTINUOUS
 66
     1
 40
0.014080
 41
0.014080
  0
VERTEX
  8
0
  6
CONTINUOUS
 10
3.479080
 20
4.736600
  0
VERTEX
  8
0
  6
CONTINUOUS
 10
4.577760
 20
4.713280
  0
SEQEND
  8
0
  0
POLYLINE
  8
0
  6
CONTINUOUS
 66
     1
 40
0.014080
 41
0.014080
  0
VERTEX
  8
0
  6
CONTINUOUS
 10
4.577760
 20
4.713280
  0
VERTEX
  8
0
  6
CONTINUOUS
 10
4.599320
 20
4.328280
  0
SEQEND
  8
0
  0
POLYLINE
  8
0
  6
CONTINUOUS
 66
     1
 40
0.014080
 41
0.014080
  0
VERTEX
  8
0
  6
CONTINUOUS
 10
4.599320
 20
4.328280
  0
VERTEX
  8
0
  6
CONTINUOUS
 10
5.047680
 20
4.324320
  0
SEQEND
  8
0
  0
POLYLINE
  8
0
  6
CONTINUOUS
 66
     1
 40
0.014080
 41
0.014080
  0
VERTEX
  8
0
  6
CONTINUOUS
 10
5.047680
 20
4.324320
  0
VERTEX
  8
0
  6
CONTINUOUS
 10
5.068800
 20
4.228400
  0
SEQEND
  8
0
  0
POLYLINE
  8
0
  6
CONTINUOUS
 66
     1
 40
0.014080
 41
0.014080
  0
VERTEX
  8
0
  6
CONTINUOUS
 10
5.068800
 20
4.228400
  0
VERTEX
  8
0
  6
CONTINUOUS
 10
5.092560
 20
4.228400
  0
SEQEND
  8
0
  0
POLYLINE
  8
0
  6
CONTINUOUS
 66
     1
 40
0.014080
 41
0.014080
  0
VERTEX
  8
0
  6
CONTINUOUS
 10
5.092560
 20
4.228400
  0
VERTEX
  8
0
  6
CONTINUOUS
 10
5.147560
 20
4.250840
  0
SEQEND
  8
0
  0
POLYLINE
  8
0
  6
CONTINUOUS
 66
     1
 40
0.014080
 41
0.014080
  0
VERTEX
  8
0
  6
CONTINUOUS
 10
5.147560
 20
4.250840
  0
VERTEX
  8
0
  6
CONTINUOUS
 10
5.202560
 20
4.262720
  0
SEQEND
  8
0
  0
POLYLINE
  8
0
  6
CONTINUOUS
 66
     1
 40
0.014080
 41
0.014080
  0
VERTEX
  8
0
  6
CONTINUOUS
 10
5.202560
 20
4.262720
  0
VERTEX
  8
0
  6
CONTINUOUS
 10
5.257120
 20
4.265360
  0
SEQEND
  8
0
  0
POLYLINE
  8
0
  6
CONTINUOUS
 66
     1
 40
0.014080
 41
0.014080
  0
VERTEX
  8
0
  6
CONTINUOUS
 10
5.257120
 20
4.265360
  0
VERTEX
  8
0
  6
CONTINUOUS
 10
5.311680
 20
4.258760
  0
SEQEND
  8
0
  0
POLYLINE
  8
0
  6
CONTINUOUS
 66
     1
 40
0.014080
 41
0.014080
  0
VERTEX
  8
0
  6
CONTINUOUS
 10
5.311680
 20
4.258760
  0
VERTEX
  8
0
  6
CONTINUOUS
 10
5.420360
 20
4.223120
  0
SEQEND
  8
0
  0
POLYLINE
  8
0
  6
CONTINUOUS
 66
     1
 40
0.014080
 41
0.014080
  0
VERTEX
  8
0
  6
CONTINUOUS
 10
5.420360
 20
4.223120
  0
VERTEX
  8
0
  6
CONTINUOUS
 10
5.530800
 20
4.162400
  0
SEQEND
  8
0
  0
POLYLINE
  8
0
  6
CONTINUOUS
 66
     1
 40
0.014080
 41
0.014080
  0
VERTEX
  8
0
  6
CONTINUOUS
 10
5.530800
 20
4.162400
  0
VERTEX
  8
0
  6
CONTINUOUS
 10
5.586240
 20
4.132920
  0
SEQEND
  8
0
  0
POLYLINE
  8
0
  6
CONTINUOUS
 66
     1
 40
0.014080
 41
0.014080
  0
VERTEX
  8
0
  6
CONTINUOUS
 10
5.586240
 20
4.132920
  0
VERTEX
  8
0
  6
CONTINUOUS
 10
5.641240
 20
4.115760
  0
SEQEND
  8
0
  0
POLYLINE
  8
0
  6
CONTINUOUS
 66
     1
 40
0.014080
 41
0.014080
  0
VERTEX
  8
0
  6
CONTINUOUS
 10
5.641240
 20
4.115760
  0
VERTEX
  8
0
  6
CONTINUOUS
 10
5.694480
 20
4.107840
  0
SEQEND
  8
0
  0
POLYLINE
  8
0
  6
CONTINUOUS
 66
     1
 40
0.014080
 41
0.014080
  0
VERTEX
  8
0
  6
CONTINUOUS
 10
5.694480
 20
4.107840
  0
VERTEX
  8
0
  6
CONTINUOUS
 10
5.744200
 20
4.107840
  0
SEQEND
  8
0
  0
POLYLINE
  8
0
  6
CONTINUOUS
 66
     1
 40
0.014080
 41
0.014080
  0
VERTEX
  8
0
  6
CONTINUOUS
 10
5.744200
 20
4.107840
  0
VERTEX
  8
0
  6
CONTINUOUS
 10
5.789080
 20
4.114000
  0
SEQEND
  8
0
  0
POLYLINE
  8
0
  6
CONTINUOUS
 66
     1
 40
0.014080
 41
0.014080
  0
VERTEX
  8
0
  6
CONTINUOUS
 10
5.789080
 20
4.114000
  0
VERTEX
  8
0
  6
CONTINUOUS
 10
5.828680
 20
4.124120
  0
SEQEND
  8
0
  0
POLYLINE
  8
0
  6
CONTINUOUS
 66
     1
 40
0.014080
 41
0.014080
  0
VERTEX
  8
0
  6
CONTINUOUS
 10
5.828680
 20
4.124120
  0
VERTEX
  8
0
  6
CONTINUOUS
 10
5.860360
 20
4.136440
  0
SEQEND
  8
0
  0
POLYLINE
  8
0
  6
CONTINUOUS
 66
     1
 40
0.014080
 41
0.014080
  0
VERTEX
  8
0
  6
CONTINUOUS
 10
5.860360
 20
4.136440
  0
VERTEX
  8
0
  6
CONTINUOUS
 10
5.883680
 20
4.148760
  0
SEQEND
  8
0
  0
POLYLINE
  8
0
  6
CONTINUOUS
 66
     1
 40
0.014080
 41
0.014080
  0
VERTEX
  8
0
  6
CONTINUOUS
 10
5.883680
 20
4.148760
  0
VERTEX
  8
0
  6
CONTINUOUS
 10
6.002040
 20
4.105200
  0
SEQEND
  8
0
  0
POLYLINE
  8
0
  6
CONTINUOUS
 66
     1
 40
0.014080
 41
0.014080
  0
VERTEX
  8
0
  6
CONTINUOUS
 10
6.002040
 20
4.105200
  0
VERTEX
  8
0
  6
CONTINUOUS
 10
6.007760
 20
4.037000
  0
SEQEND
  8
0
  0
POLYLINE
  8
0
  6
CONTINUOUS
 66
     1
 40
0.014080
 41
0.014080
  0
VERTEX
  8
0
  6
CONTINUOUS
 10
6.007760
 20
4.037000
  0
VERTEX
  8
0
  6
CONTINUOUS
 10
6.746520
 20
4.023800
  0
SEQEND
  8
0
  0
POLYLINE
  8
0
  6
CONTINUOUS
 66
     1
 40
0.014080
 41
0.014080
  0
VERTEX
  8
0
  6
CONTINUOUS
 10
6.746520
 20
4.023800
  0
VERTEX
  8
0
  6
CONTINUOUS
 10
6.787000
 20
3.897960
  0
SEQEND
  8
0
  0
POLYLINE
  8
0
  6
CONTINUOUS
 66
     1
 40
0.014080
 41
0.014080
  0
VERTEX
  8
0
  6
CONTINUOUS
 10
6.787000
 20
3.897960
  0
VERTEX
  8
0
  6
CONTINUOUS
 10
6.805920
 20
3.897960
  0
SEQEND
  8
0
  0
POLYLINE
  8
0
  6
CONTINUOUS
 66
     1
 40
0.014080
 41
0.014080
  0
VERTEX
  8
0
  6
CONTINUOUS
 10
6.805920
 20
3.897960
  0
VERTEX
  8
0
  6
CONTINUOUS
 10
6.832760
 20
3.938440
  0
SEQEND
  8
0
  0
POLYLINE
  8
0
  6
CONTINUOUS
 66
     1
 40
0.014080
 41
0.014080
  0
VERTEX
  8
0
  6
CONTINUOUS
 10
6.832760
 20
3.938440
  0
VERTEX
  8
0
  6
CONTINUOUS
 10
6.872360
 20
3.966600
  0
SEQEND
  8
0
  0
POLYLINE
  8
0
  6
CONTINUOUS
 66
     1
 40
0.014080
 41
0.014080
  0
VERTEX
  8
0
  6
CONTINUOUS
 10
6.872360
 20
3.966600
  0
VERTEX
  8
0
  6
CONTINUOUS
 10
6.919000
 20
3.983320
  0
SEQEND
  8
0
  0
POLYLINE
  8
0
  6
CONTINUOUS
 66
     1
 40
0.014080
 41
0.014080
  0
VERTEX
  8
0
  6
CONTINUOUS
 10
6.919000
 20
3.983320
  0
VERTEX
  8
0
  6
CONTINUOUS
 10
6.968280
 20
3.987720
  0
SEQEND
  8
0
  0
POLYLINE
  8
0
  6
CONTINUOUS
 66
     1
 40
0.014080
 41
0.014080
  0
VERTEX
  8
0
  6
CONTINUOUS
 10
6.968280
 20
3.987720
  0
VERTEX
  8
0
  6
CONTINUOUS
 10
7.014480
 20
3.980240
  0
SEQEND
  8
0
  0
POLYLINE
  8
0
  6
CONTINUOUS
 66
     1
 40
0.014080
 41
0.014080
  0
VERTEX
  8
0
  6
CONTINUOUS
 10
7.014480
 20
3.980240
  0
VERTEX
  8
0
  6
CONTINUOUS
 10
7.054080
 20
3.960880
  0
SEQEND
  8
0
  0
POLYLINE
  8
0
  6
CONTINUOUS
 66
     1
 40
0.014080
 41
0.014080
  0
VERTEX
  8
0
  6
CONTINUOUS
 10
7.054080
 20
3.960880
  0
VERTEX
  8
0
  6
CONTINUOUS
 10
7.080920
 20
3.930080
  0
SEQEND
  8
0
  0
POLYLINE
  8
0
  6
CONTINUOUS
 66
     1
 40
0.014080
 41
0.014080
  0
VERTEX
  8
0
  6
CONTINUOUS
 10
7.080920
 20
3.930080
  0
VERTEX
  8
0
  6
CONTINUOUS
 10
7.090600
 20
3.886520
  0
SEQEND
  8
0
  0
POLYLINE
  8
0
  6
CONTINUOUS
 66
     1
 40
0.014080
 41
0.014080
  0
VERTEX
  8
0
  6
CONTINUOUS
 10
7.090600
 20
3.886520
  0
VERTEX
  8
0
  6
CONTINUOUS
 10
7.090600
 20
3.698640
  0
SEQEND
  8
0
  0
POLYLINE
  8
0
  6
CONTINUOUS
 66
     1
 40
0.014080
 41
0.014080
  0
VERTEX
  8
0
  6
CONTINUOUS
 10
7.090600
 20
3.698640
  0
VERTEX
  8
0
  6
CONTINUOUS
 10
2.620200
 20
3.698640
  0
SEQEND
  8
0
  0
POLYLINE
  8
0
  6
CONTINUOUS
 66
     1
 40
0.014080
 41
0.014080
  0
VERTEX
  8
0
  6
CONTINUOUS
 10
2.620200
 20
3.698640
  0
VERTEX
  8
0
  6
CONTINUOUS
 10
2.620640
 20
4.891040
  0
SEQEND
  8
0
  0
POLYLINE
  8
0
  6
CONTINUOUS
 66
     1
 40
0.014080
 41
0.014080
  0
VERTEX
  8
0
  6
CONTINUOUS
 10
2.620640
 20
4.891040
  0
VERTEX
  8
0
  6
CONTINUOUS
 10
3.057120
 20
4.891040
  0
SEQEND
  8
0
  0
POLYLINE
  8
0
  6
CONTINUOUS
 66
     1
 40
0.014080
 41
0.014080
  0
VERTEX
  8
0
  6
CONTINUOUS
 10
3.057120
 20
4.891040
  0
VERTEX
  8
0
  6
CONTINUOUS
 10
3.098480
 20
4.845720
  0
SEQEND
  8
0
  0
SOLID
  8
0
 62
    15
 10
5.529920
 20
1.735360
 11
5.526840
 21
2.471480
 12
5.585360
 22
1.706320
 13
5.582280
 23
2.442440
  0
POLYLINE
  8
0
  6
CONTINUOUS
 66
     1
 40
0.000000
 41
0.000000
  0
VERTEX
  8
0
  6
CONTINUOUS
 10
5.529920
 20
1.735360
  0
VERTEX
  8
0
  6
CONTINUOUS
 10
5.526840
 20
2.471480
  0
VERTEX
  8
0
  6
CONTINUOUS
 10
5.582280
 20
2.442440
  0
VERTEX
  8
0
  6
CONTINUOUS
 10
5.585360
 20
1.706320
  0
VERTEX
  8
0
  6
CONTINUOUS
 10
5.529920
 20
1.735360
  0
SEQEND
  8
0
  0
SOLID
  8
0
 62
    15
 10
3.136320
 20
2.419560
 11
3.132800
 21
3.155680
 12
3.168880
 22
2.419120
 13
3.165800
 23
3.155240
  0
POLYLINE
  8
0
  6
CONTINUOUS
 66
     1
 40
0.000000
 41
0.000000
  0
VERTEX
  8
0
  6
CONTINUOUS
 10
3.136320
 20
2.419560
  0
VERTEX
  8
0
  6
CONTINUOUS
 10
3.132800
 20
3.155680
  0
VERTEX
  8
0
  6
CONTINUOUS
 10
3.165800
 20
3.155240
  0
VERTEX
  8
0
  6
CONTINUOUS
 10
3.168880
 20
2.419120
  0
VERTEX
  8
0
  6
CONTINUOUS
 10
3.136320
 20
2.419560
  0
SEQEND
  8
0
  0
SOLID
  8
0
 62
    15
 10
3.168880
 20
2.419120
 11
3.165800
 21
3.155240
 12
3.221680
 22
2.415160
 13
3.218600
 23
3.151280
  0
POLYLINE
  8
0
  6
CONTINUOUS
 66
     1
 40
0.000000
 41
0.000000
  0
VERTEX
  8
0
  6
CONTINUOUS
 10
3.168880
 20
2.419120
  0
VERTEX
  8
0
  6
CONTINUOUS
 10
3.165800
 20
3.155240
  0
VERTEX
  8
0
  6
CONTINUOUS
 10
3.218600
 20
3.151280
  0
VERTEX
  8
0
  6
CONTINUOUS
 10
3.221680
 20
2.415160
  0
VERTEX
  8
0
  6
CONTINUOUS
 10
3.168880
 20
2.419120
  0
SEQEND
  8
0
  0
SOLID
  8
0
 62
    15
 10
3.221680
 20
2.415160
 11
3.218600
 21
3.151280
 12
3.261720
 22
2.407680
 13
3.258640
 23
3.143800
  0
POLYLINE
  8
0
  6
CONTINUOUS
 66
     1
 40
0.000000
 41
0.000000
  0
VERTEX
  8
0
  6
CONTINUOUS
 10
3.221680
 20
2.415160
  0
VERTEX
  8
0
  6
CONTINUOUS
 10
3.218600
 20
3.151280
  0
VERTEX
  8
0
  6
CONTINUOUS
 10
3.258640
 20
3.143800
  0
VERTEX
  8
0
  6
CONTINUOUS
 10
3.261720
 20
2.407680
  0
VERTEX
  8
0
  6
CONTINUOUS
 10
3.221680
 20
2.415160
  0
SEQEND
  8
0
  0
SOLID
  8
0
 62
    15
 10
3.261720
 20
2.407680
 11
3.258640
 21
3.143800
 12
3.296040
 22
2.397560
 13
3.292960
 23
3.134120
  0
POLYLINE
  8
0
  6
CONTINUOUS
 66
     1
 40
0.000000
 41
0.000000
  0
VERTEX
  8
0
  6
CONTINUOUS
 10
3.261720
 20
2.407680
  0
VERTEX
  8
0
  6
CONTINUOUS
 10
3.258640
 20
3.143800
  0
VERTEX
  8
0
  6
CONTINUOUS
 10
3.292960
 20
3.134120
  0
VERTEX
  8
0
  6
CONTINUOUS
 10
3.296040
 20
2.397560
  0
VERTEX
  8
0
  6
CONTINUOUS
 10
3.261720
 20
2.407680
  0
SEQEND
  8
0
  0
SOLID
  8
0
 62
    15
 10
3.296040
 20
2.397560
 11
3.292960
 21
3.134120
 12
3.316720
 22
2.393160
 13
3.313640
 23
3.129280
  0
POLYLINE
  8
0
  6
CONTINUOUS
 66
     1
 40
0.000000
 41
0.000000
  0
VERTEX
  8
0
  6
CONTINUOUS
 10
3.296040
 20
2.397560
  0
VERTEX
  8
0
  6
CONTINUOUS
 10
3.292960
 20
3.134120
  0
VERTEX
  8
0
  6
CONTINUOUS
 10
3.313640
 20
3.129280
  0
VERTEX
  8
0
  6
CONTINUOUS
 10
3.316720
 20
2.393160
  0
VERTEX
  8
0
  6
CONTINUOUS
 10
3.296040
 20
2.397560
  0
SEQEND
  8
0
  0
SOLID
  8
0
 62
    15
 10
3.316720
 20
2.393160
 11
3.313640
 21
3.129280
 12
3.343120
 22
2.388320
 13
3.340040
 23
3.124880
  0
POLYLINE
  8
0
  6
CONTINUOUS
 66
     1
 40
0.000000
 41
0.000000
  0
VERTEX
  8
0
  6
CONTINUOUS
 10
3.316720
 20
2.393160
  0
VERTEX
  8
0
  6
CONTINUOUS
 10
3.313640
 20
3.129280
  0
VERTEX
  8
0
  6
CONTINUOUS
 10
3.340040
 20
3.124880
  0
VERTEX
  8
0
  6
CONTINUOUS
 10
3.343120
 20
2.388320
  0
VERTEX
  8
0
  6
CONTINUOUS
 10
3.316720
 20
2.393160
  0
SEQEND
  8
0
  0
SOLID
  8
0
 62
    15
 10
3.343120
 20
2.388320
 11
3.340040
 21
3.124880
 12
3.403840
 22
2.376440
 13
3.400760
 23
3.113000
  0
POLYLINE
  8
0
  6
CONTINUOUS
 66
     1
 40
0.000000
 41
0.000000
  0
VERTEX
  8
0
  6
CONTINUOUS
 10
3.343120
 20
2.388320
  0
VERTEX
  8
0
  6
CONTINUOUS
 10
3.340040
 20
3.124880
  0
VERTEX
  8
0
  6
CONTINUOUS
 10
3.400760
 20
3.113000
  0
VERTEX
  8
0
  6
CONTINUOUS
 10
3.403840
 20
2.376440
  0
VERTEX
  8
0
  6
CONTINUOUS
 10
3.343120
 20
2.388320
  0
SEQEND
  8
0
  0
SOLID
  8
0
 62
    15
 10
3.403840
 20
2.376440
 11
3.400760
 21
3.113000
 12
3.432440
 22
2.367200
 13
3.429360
 23
3.103320
  0
POLYLINE
  8
0
  6
CONTINUOUS
 66
     1
 40
0.000000
 41
0.000000
  0
VERTEX
  8
0
  6
CONTINUOUS
 10
3.403840
 20
2.376440
  0
VERTEX
  8
0
  6
CONTINUOUS
 10
3.400760
 20
3.113000
  0
VERTEX
  8
0
  6
CONTINUOUS
 10
3.429360
 20
3.103320
  0
VERTEX
  8
0
  6
CONTINUOUS
 10
3.432440
 20
2.367200
  0
VERTEX
  8
0
  6
CONTINUOUS
 10
3.403840
 20
2.376440
  0
SEQEND
  8
0
  0
SOLID
  8
0
 62
    15
 10
3.432440
 20
2.367200
 11
3.429360
 21
3.103320
 12
3.456200
 22
2.353120
 13
3.453120
 23
3.089680
  0
POLYLINE
  8
0
  6
CONTINUOUS
 66
     1
 40
0.000000
 41
0.000000
  0
VERTEX
  8
0
  6
CONTINUOUS
 10
3.432440
 20
2.367200
  0
VERTEX
  8
0
  6
CONTINUOUS
 10
3.429360
 20
3.103320
  0
VERTEX
  8
0
  6
CONTINUOUS
 10
3.453120
 20
3.089680
  0
VERTEX
  8
0
  6
CONTINUOUS
 10
3.456200
 20
2.353120
  0
VERTEX
  8
0
  6
CONTINUOUS
 10
3.432440
 20
2.367200
  0
SEQEND
  8
0
  0
SOLID
  8
0
 62
    15
 10
3.456200
 20
2.353120
 11
3.453120
 21
3.089680
 12
3.472480
 22
2.334640
 13
3.469400
 23
3.070760
  0
POLYLINE
  8
0
  6
CONTINUOUS
 66
     1
 40
0.000000
 41
0.000000
  0
VERTEX
  8
0
  6
CONTINUOUS
 10
3.456200
 20
2.353120
  0
VERTEX
  8
0
  6
CONTINUOUS
 10
3.453120
 20
3.089680
  0
VERTEX
  8
0
  6
CONTINUOUS
 10
3.469400
 20
3.070760
  0
VERTEX
  8
0
  6
CONTINUOUS
 10
3.472480
 20
2.334640
  0
VERTEX
  8
0
  6
CONTINUOUS
 10
3.456200
 20
2.353120
  0
SEQEND
  8
0
  0
SOLID
  8
0
 62
    15
 10
3.472480
 20
2.334640
 11
3.469400
 21
3.070760
 12
3.478200
 22
2.310000
 13
3.475120
 23
3.046120
  0
POLYLINE
  8
0
  6
CONTINUOUS
 66
     1
 40
0.000000
 41
0.000000
  0
VERTEX
  8
0
  6
CONTINUOUS
 10
3.472480
 20
2.334640
  0
VERTEX
  8
0
  6
CONTINUOUS
 10
3.469400
 20
3.070760
  0
VERTEX
  8
0
  6
CONTINUOUS
 10
3.475120
 20
3.046120
  0
VERTEX
  8
0
  6
CONTINUOUS
 10
3.478200
 20
2.310000
  0
VERTEX
  8
0
  6
CONTINUOUS
 10
3.472480
 20
2.334640
  0
SEQEND
  8
0
  0
SOLID
  8
0
 62
    15
 10
3.478200
 20
2.310000
 11
3.475120
 21
3.046120
 12
4.576880
 22
2.286240
 13
4.573800
 23
3.022800
  0
POLYLINE
  8
0
  6
CONTINUOUS
 66
     1
 40
0.000000
 41
0.000000
  0
VERTEX
  8
0
  6
CONTINUOUS
 10
3.478200
 20
2.310000
  0
VERTEX
  8
0
  6
CONTINUOUS
 10
3.475120
 20
3.046120
  0
VERTEX
  8
0
  6
CONTINUOUS
 10
4.573800
 20
3.022800
  0
VERTEX
  8
0
  6
CONTINUOUS
 10
4.576880
 20
2.286240
  0
VERTEX
  8
0
  6
CONTINUOUS
 10
3.478200
 20
2.310000
  0
SEQEND
  8
0
  0
SOLID
  8
0
 62
    15
 10
4.576880
 20
2.286240
 11
4.573800
 21
3.022800
 12
4.598440
 22
1.901680
 13
4.595360
 23
2.637800
  0
POLYLINE
  8
0
  6
CONTINUOUS
 66
     1
 40
0.000000
 41
0.000000
  0
VERTEX
  8
0
  6
CONTINUOUS
 10
4.576880
 20
2.286240
  0
VERTEX
  8
0
  6
CONTINUOUS
 10
4.573800
 20
3.022800
  0
VERTEX
  8
0
  6
CONTINUOUS
 10
4.595360
 20
2.637800
  0
VERTEX
  8
0
  6
CONTINUOUS
 10
4.598440
 20
1.901680
  0
VERTEX
  8
0
  6
CONTINUOUS
 10
4.576880
 20
2.286240
  0
SEQEND
  8
0
  0
SOLID
  8
0
 62
    15
 10
4.598440
 20
1.901680
 11
4.595360
 21
2.637800
 12
5.046800
 22
1.897720
 13
5.043720
 23
2.633840
  0
POLYLINE
  8
0
  6
CONTINUOUS
 66
     1
 40
0.000000
 41
0.000000
  0
VERTEX
  8
0
  6
CONTINUOUS
 10
4.598440
 20
1.901680
  0
VERTEX
  8
0
  6
CONTINUOUS
 10
4.595360
 20
2.637800
  0
VERTEX
  8
0
  6
CONTINUOUS
 10
5.043720
 20
2.633840
  0
VERTEX
  8
0
  6
CONTINUOUS
 10
5.046800
 20
1.897720
  0
VERTEX
  8
0
  6
CONTINUOUS
 10
4.598440
 20
1.901680
  0
SEQEND
  8
0
  0
SOLID
  8
0
 62
    15
 10
5.046800
 20
1.897720
 11
5.043720
 21
2.633840
 12
5.067920
 22
1.801360
 13
5.064840
 23
2.537480
  0
POLYLINE
  8
0
  6
CONTINUOUS
 66
     1
 40
0.000000
 41
0.000000
  0
VERTEX
  8
0
  6
CONTINUOUS
 10
5.046800
 20
1.897720
  0
VERTEX
  8
0
  6
CONTINUOUS
 10
5.043720
 20
2.633840
  0
VERTEX
  8
0
  6
CONTINUOUS
 10
5.064840
 20
2.537480
  0
VERTEX
  8
0
  6
CONTINUOUS
 10
5.067920
 20
1.801360
  0
VERTEX
  8
0
  6
CONTINUOUS
 10
5.046800
 20
1.897720
  0
SEQEND
  8
0
  0
SOLID
  8
0
 62
    15
 10
5.067920
 20
1.801360
 11
5.064840
 21
2.537480
 12
5.091680
 22
1.801800
 13
5.088600
 23
2.537920
  0
POLYLINE
  8
0
  6
CONTINUOUS
 66
     1
 40
0.000000
 41
0.000000
  0
VERTEX
  8
0
  6
CONTINUOUS
 10
5.067920
 20
1.801360
  0
VERTEX
  8
0
  6
CONTINUOUS
 10
5.064840
 20
2.537480
  0
VERTEX
  8
0
  6
CONTINUOUS
 10
5.088600
 20
2.537920
  0
VERTEX
  8
0
  6
CONTINUOUS
 10
5.091680
 20
1.801800
  0
VERTEX
  8
0
  6
CONTINUOUS
 10
5.067920
 20
1.801360
  0
SEQEND
  8
0
  0
SOLID
  8
0
 62
    15
 10
5.091680
 20
1.801800
 11
5.088600
 21
2.537920
 12
5.146680
 22
1.823800
 13
5.143600
 23
2.560360
  0
POLYLINE
  8
0
  6
CONTINUOUS
 66
     1
 40
0.000000
 41
0.000000
  0
VERTEX
  8
0
  6
CONTINUOUS
 10
5.091680
 20
1.801800
  0
VERTEX
  8
0
  6
CONTINUOUS
 10
5.088600
 20
2.537920
  0
VERTEX
  8
0
  6
CONTINUOUS
 10
5.143600
 20
2.560360
  0
VERTEX
  8
0
  6
CONTINUOUS
 10
5.146680
 20
1.823800
  0
VERTEX
  8
0
  6
CONTINUOUS
 10
5.091680
 20
1.801800
  0
SEQEND
  8
0
  0
SOLID
  8
0
 62
    15
 10
5.146680
 20
1.823800
 11
5.143600
 21
2.560360
 12
5.201680
 22
1.835680
 13
5.198600
 23
2.572240
  0
POLYLINE
  8
0
  6
CONTINUOUS
 66
     1
 40
0.000000
 41
0.000000
  0
VERTEX
  8
0
  6
CONTINUOUS
 10
5.146680
 20
1.823800
  0
VERTEX
  8
0
  6
CONTINUOUS
 10
5.143600
 20
2.560360
  0
VERTEX
  8
0
  6
CONTINUOUS
 10
5.198600
 20
2.572240
  0
VERTEX
  8
0
  6
CONTINUOUS
 10
5.201680
 20
1.835680
  0
VERTEX
  8
0
  6
CONTINUOUS
 10
5.146680
 20
1.823800
  0
SEQEND
  8
0
  0
SOLID
  8
0
 62
    15
 10
5.201680
 20
1.835680
 11
5.198600
 21
2.572240
 12
5.256240
 22
1.838320
 13
5.253160
 23
2.574440
  0
POLYLINE
  8
0
  6
CONTINUOUS
 66
     1
 40
0.000000
 41
0.000000
  0
VERTEX
  8
0
  6
CONTINUOUS
 10
5.201680
 20
1.835680
  0
VERTEX
  8
0
  6
CONTINUOUS
 10
5.198600
 20
2.572240
  0
VERTEX
  8
0
  6
CONTINUOUS
 10
5.253160
 20
2.574440
  0
VERTEX
  8
0
  6
CONTINUOUS
 10
5.256240
 20
1.838320
  0
VERTEX
  8
0
  6
CONTINUOUS
 10
5.201680
 20
1.835680
  0
SEQEND
  8
0
  0
SOLID
  8
0
 62
    15
 10
5.256240
 20
1.838320
 11
5.253160
 21
2.574440
 12
5.310800
 22
1.831720
 13
5.307720
 23
2.568280
  0
POLYLINE
  8
0
  6
CONTINUOUS
 66
     1
 40
0.000000
 41
0.000000
  0
VERTEX
  8
0
  6
CONTINUOUS
 10
5.256240
 20
1.838320
  0
VERTEX
  8
0
  6
CONTINUOUS
 10
5.253160
 20
2.574440
  0
VERTEX
  8
0
  6
CONTINUOUS
 10
5.307720
 20
2.568280
  0
VERTEX
  8
0
  6
CONTINUOUS
 10
5.310800
 20
1.831720
  0
VERTEX
  8
0
  6
CONTINUOUS
 10
5.256240
 20
1.838320
  0
SEQEND
  8
0
  0
SOLID
  8
0
 62
    15
 10
5.310800
 20
1.831720
 11
5.307720
 21
2.568280
 12
5.365360
 22
1.817640
 13
5.362280
 23
2.553760
  0
POLYLINE
  8
0
  6
CONTINUOUS
 66
     1
 40
0.000000
 41
0.000000
  0
VERTEX
  8
0
  6
CONTINUOUS
 10
5.310800
 20
1.831720
  0
VERTEX
  8
0
  6
CONTINUOUS
 10
5.307720
 20
2.568280
  0
VERTEX
  8
0
  6
CONTINUOUS
 10
5.362280
 20
2.553760
  0
VERTEX
  8
0
  6
CONTINUOUS
 10
5.365360
 20
1.817640
  0
VERTEX
  8
0
  6
CONTINUOUS
 10
5.310800
 20
1.831720
  0
SEQEND
  8
0
  0
SOLID
  8
0
 62
    15
 10
5.365360
 20
1.817640
 11
5.362280
 21
2.553760
 12
5.419920
 22
1.796080
 13
5.416840
 23
2.532640
  0
POLYLINE
  8
0
  6
CONTINUOUS
 66
     1
 40
0.000000
 41
0.000000
  0
VERTEX
  8
0
  6
CONTINUOUS
 10
5.365360
 20
1.817640
  0
VERTEX
  8
0
  6
CONTINUOUS
 10
5.362280
 20
2.553760
  0
VERTEX
  8
0
  6
CONTINUOUS
 10
5.416840
 20
2.532640
  0
VERTEX
  8
0
  6
CONTINUOUS
 10
5.419920
 20
1.796080
  0
VERTEX
  8
0
  6
CONTINUOUS
 10
5.365360
 20
1.817640
  0
SEQEND
  8
0
  0
SOLID
  8
0
 62
    15
 10
5.419920
 20
1.796080
 11
5.416840
 21
2.532640
 12
5.529920
 22
1.735360
 13
5.526840
 23
2.471480
  0
POLYLINE
  8
0
  6
CONTINUOUS
 66
     1
 40
0.000000
 41
0.000000
  0
VERTEX
  8
0
  6
CONTINUOUS
 10
5.419920
 20
1.796080
  0
VERTEX
  8
0
  6
CONTINUOUS
 10
5.416840
 20
2.532640
  0
VERTEX
  8
0
  6
CONTINUOUS
 10
5.526840
 20
2.471480
  0
VERTEX
  8
0
  6
CONTINUOUS
 10
5.529920
 20
1.735360
  0
VERTEX
  8
0
  6
CONTINUOUS
 10
5.419920
 20
1.796080
  0
SEQEND
  8
0
  0
SOLID
  8
0
 62
    15
 10
3.097600
 20
2.419120
 11
3.094520
 21
3.155240
 12
3.136320
 22
2.419560
 13
3.132800
 23
3.155680
  0
POLYLINE
  8
0
  6
CONTINUOUS
 66
     1
 40
0.000000
 41
0.000000
  0
VERTEX
  8
0
  6
CONTINUOUS
 10
3.097600
 20
2.419120
  0
VERTEX
  8
0
  6
CONTINUOUS
 10
3.094520
 20
3.155240
  0
VERTEX
  8
0
  6
CONTINUOUS
 10
3.132800
 20
3.155680
  0
VERTEX
  8
0
  6
CONTINUOUS
 10
3.136320
 20
2.419560
  0
VERTEX
  8
0
  6
CONTINUOUS
 10
3.097600
 20
2.419120
  0
SEQEND
  8
0
  0
SOLID
  8
0
 62
    15
 10
5.585360
 20
1.706320
 11
5.582280
 21
2.442440
 12
5.640360
 22
1.688720
 13
5.637280
 23
2.424840
  0
POLYLINE
  8
0
  6
CONTINUOUS
 66
     1
 40
0.000000
 41
0.000000
  0
VERTEX
  8
0
  6
CONTINUOUS
 10
5.585360
 20
1.706320
  0
VERTEX
  8
0
  6
CONTINUOUS
 10
5.582280
 20
2.442440
  0
VERTEX
  8
0
  6
CONTINUOUS
 10
5.637280
 20
2.424840
  0
VERTEX
  8
0
  6
CONTINUOUS
 10
5.640360
 20
1.688720
  0
VERTEX
  8
0
  6
CONTINUOUS
 10
5.585360
 20
1.706320
  0
SEQEND
  8
0
  0
SOLID
  8
0
 62
    15
 10
5.640360
 20
1.688720
 11
5.637280
 21
2.424840
 12
5.693600
 22
1.680800
 13
5.690520
 23
2.417360
  0
POLYLINE
  8
0
  6
CONTINUOUS
 66
     1
 40
0.000000
 41
0.000000
  0
VERTEX
  8
0
  6
CONTINUOUS
 10
5.640360
 20
1.688720
  0
VERTEX
  8
0
  6
CONTINUOUS
 10
5.637280
 20
2.424840
  0
VERTEX
  8
0
  6
CONTINUOUS
 10
5.690520
 20
2.417360
  0
VERTEX
  8
0
  6
CONTINUOUS
 10
5.693600
 20
1.680800
  0
VERTEX
  8
0
  6
CONTINUOUS
 10
5.640360
 20
1.688720
  0
SEQEND
  8
0
  0
SOLID
  8
0
 62
    15
 10
5.693600
 20
1.680800
 11
5.690520
 21
2.417360
 12
5.743320
 22
1.680800
 13
5.740240
 23
2.417360
  0
POLYLINE
  8
0
  6
CONTINUOUS
 66
     1
 40
0.000000
 41
0.000000
  0
VERTEX
  8
0
  6
CONTINUOUS
 10
5.693600
 20
1.680800
  0
VERTEX
  8
0
  6
CONTINUOUS
 10
5.690520
 20
2.417360
  0
VERTEX
  8
0
  6
CONTINUOUS
 10
5.740240
 20
2.417360
  0
VERTEX
  8
0
  6
CONTINUOUS
 10
5.743320
 20
1.680800
  0
VERTEX
  8
0
  6
CONTINUOUS
 10
5.693600
 20
1.680800
  0
SEQEND
  8
0
  0
SOLID
  8
0
 62
    15
 10
5.743320
 20
1.680800
 11
5.740240
 21
2.417360
 12
5.788640
 22
1.686960
 13
5.785560
 23
2.423080
  0
POLYLINE
  8
0
  6
CONTINUOUS
 66
     1
 40
0.000000
 41
0.000000
  0
VERTEX
  8
0
  6
CONTINUOUS
 10
5.743320
 20
1.680800
  0
VERTEX
  8
0
  6
CONTINUOUS
 10
5.740240
 20
2.417360
  0
VERTEX
  8
0
  6
CONTINUOUS
 10
5.785560
 20
2.423080
  0
VERTEX
  8
0
  6
CONTINUOUS
 10
5.788640
 20
1.686960
  0
VERTEX
  8
0
  6
CONTINUOUS
 10
5.743320
 20
1.680800
  0
SEQEND
  8
0
  0
SOLID
  8
0
 62
    15
 10
5.788640
 20
1.686960
 11
5.785560
 21
2.423080
 12
5.827800
 22
1.697080
 13
5.824720
 23
2.433200
  0
POLYLINE
  8
0
  6
CONTINUOUS
 66
     1
 40
0.000000
 41
0.000000
  0
VERTEX
  8
0
  6
CONTINUOUS
 10
5.788640
 20
1.686960
  0
VERTEX
  8
0
  6
CONTINUOUS
 10
5.785560
 20
2.423080
  0
VERTEX
  8
0
  6
CONTINUOUS
 10
5.824720
 20
2.433200
  0
VERTEX
  8
0
  6
CONTINUOUS
 10
5.827800
 20
1.697080
  0
VERTEX
  8
0
  6
CONTINUOUS
 10
5.788640
 20
1.686960
  0
SEQEND
  8
0
  0
SOLID
  8
0
 62
    15
 10
5.827800
 20
1.697080
 11
5.824720
 21
2.433200
 12
5.859480
 22
1.709400
 13
5.856400
 23
2.445520
  0
POLYLINE
  8
0
  6
CONTINUOUS
 66
     1
 40
0.000000
 41
0.000000
  0
VERTEX
  8
0
  6
CONTINUOUS
 10
5.827800
 20
1.697080
  0
VERTEX
  8
0
  6
CONTINUOUS
 10
5.824720
 20
2.433200
  0
VERTEX
  8
0
  6
CONTINUOUS
 10
5.856400
 20
2.445520
  0
VERTEX
  8
0
  6
CONTINUOUS
 10
5.859480
 20
1.709400
  0
VERTEX
  8
0
  6
CONTINUOUS
 10
5.827800
 20
1.697080
  0
SEQEND
  8
0
  0
SOLID
  8
0
 62
    15
 10
5.859480
 20
1.709400
 11
5.856400
 21
2.445520
 12
5.882800
 22
1.722160
 13
5.879720
 23
2.458280
  0
POLYLINE
  8
0
  6
CONTINUOUS
 66
     1
 40
0.000000
 41
0.000000
  0
VERTEX
  8
0
  6
CONTINUOUS
 10
5.859480
 20
1.709400
  0
VERTEX
  8
0
  6
CONTINUOUS
 10
5.856400
 20
2.445520
  0
VERTEX
  8
0
  6
CONTINUOUS
 10
5.879720
 20
2.458280
  0
VERTEX
  8
0
  6
CONTINUOUS
 10
5.882800
 20
1.722160
  0
VERTEX
  8
0
  6
CONTINUOUS
 10
5.859480
 20
1.709400
  0
SEQEND
  8
0
  0
SOLID
  8
0
 62
    15
 10
6.786120
 20
1.470920
 11
6.783040
 21
2.207480
 12
6.805040
 22
1.470920
 13
6.801960
 23
2.207480
  0
POLYLINE
  8
0
  6
CONTINUOUS
 66
     1
 40
0.000000
 41
0.000000
  0
VERTEX
  8
0
  6
CONTINUOUS
 10
6.786120
 20
1.470920
  0
VERTEX
  8
0
  6
CONTINUOUS
 10
6.783040
 20
2.207480
  0
VERTEX
  8
0
  6
CONTINUOUS
 10
6.801960
 20
2.207480
  0
VERTEX
  8
0
  6
CONTINUOUS
 10
6.805040
 20
1.470920
  0
VERTEX
  8
0
  6
CONTINUOUS
 10
6.786120
 20
1.470920
  0
SEQEND
  8
0
  0
SOLID
  8
0
 62
    15
 10
6.745640
 20
1.596760
 11
6.742560
 21
2.332880
 12
6.786120
 22
1.470920
 13
6.783040
 23
2.207480
  0
POLYLINE
  8
0
  6
CONTINUOUS
 66
     1
 40
0.000000
 41
0.000000
  0
VERTEX
  8
0
  6
CONTINUOUS
 10
6.745640
 20
1.596760
  0
VERTEX
  8
0
  6
CONTINUOUS
 10
6.742560
 20
2.332880
  0
VERTEX
  8
0
  6
CONTINUOUS
 10
6.783040
 20
2.207480
  0
VERTEX
  8
0
  6
CONTINUOUS
 10
6.786120
 20
1.470920
  0
VERTEX
  8
0
  6
CONTINUOUS
 10
6.745640
 20
1.596760
  0
SEQEND
  8
0
  0
SOLID
  8
0
 62
    15
 10
6.006880
 20
1.609960
 11
6.003800
 21
2.346520
 12
6.745640
 22
1.596760
 13
6.742560
 23
2.332880
  0
POLYLINE
  8
0
  6
CONTINUOUS
 66
     1
 40
0.000000
 41
0.000000
  0
VERTEX
  8
0
  6
CONTINUOUS
 10
6.006880
 20
1.609960
  0
VERTEX
  8
0
  6
CONTINUOUS
 10
6.003800
 20
2.346520
  0
VERTEX
  8
0
  6
CONTINUOUS
 10
6.742560
 20
2.332880
  0
VERTEX
  8
0
  6
CONTINUOUS
 10
6.745640
 20
1.596760
  0
VERTEX
  8
0
  6
CONTINUOUS
 10
6.006880
 20
1.609960
  0
SEQEND
  8
0
  0
SOLID
  8
0
 62
    15
 10
6.001160
 20
1.678160
 11
5.998080
 21
2.414720
 12
6.006880
 22
1.609960
 13
6.003800
 23
2.346520
  0
POLYLINE
  8
0
  6
CONTINUOUS
 66
     1
 40
0.000000
 41
0.000000
  0
VERTEX
  8
0
  6
CONTINUOUS
 10
6.001160
 20
1.678160
  0
VERTEX
  8
0
  6
CONTINUOUS
 10
5.998080
 20
2.414720
  0
VERTEX
  8
0
  6
CONTINUOUS
 10
6.003800
 20
2.346520
  0
VERTEX
  8
0
  6
CONTINUOUS
 10
6.006880
 20
1.609960
  0
VERTEX
  8
0
  6
CONTINUOUS
 10
6.001160
 20
1.678160
  0
SEQEND
  8
0
  0
SOLID
  8
0
 62
    15
 10
5.882800
 20
1.722160
 11
5.879720
 21
2.458280
 12
6.001160
 22
1.678160
 13
5.998080
 23
2.414720
  0
POLYLINE
  8
0
  6
CONTINUOUS
 66
     1
 40
0.000000
 41
0.000000
  0
VERTEX
  8
0
  6
CONTINUOUS
 10
5.882800
 20
1.722160
  0
VERTEX
  8
0
  6
CONTINUOUS
 10
5.879720
 20
2.458280
  0
VERTEX
  8
0
  6
CONTINUOUS
 10
5.998080
 20
2.414720
  0
VERTEX
  8
0
  6
CONTINUOUS
 10
6.001160
 20
1.678160
  0
VERTEX
  8
0
  6
CONTINUOUS
 10
5.882800
 20
1.722160
  0
SEQEND
  8
0
  0
SOLID
  8
0
 62
    15
 10
6.805040
 20
1.470920
 11
6.801960
 21
2.207480
 12
6.831880
 22
1.511400
 13
6.828800
 23
2.247520
  0
POLYLINE
  8
0
  6
CONTINUOUS
 66
     1
 40
0.000000
 41
0.000000
  0
VERTEX
  8
0
  6
CONTINUOUS
 10
6.805040
 20
1.470920
  0
VERTEX
  8
0
  6
CONTINUOUS
 10
6.801960
 20
2.207480
  0
VERTEX
  8
0
  6
CONTINUOUS
 10
6.828800
 20
2.247520
  0
VERTEX
  8
0
  6
CONTINUOUS
 10
6.831880
 20
1.511400
  0
VERTEX
  8
0
  6
CONTINUOUS
 10
6.805040
 20
1.470920
  0
SEQEND
  8
0
  0
SOLID
  8
0
 62
    15
 10
6.831880
 20
1.511400
 11
6.828800
 21
2.247520
 12
6.871480
 22
1.540000
 13
6.868400
 23
2.276120
  0
POLYLINE
  8
0
  6
CONTINUOUS
 66
     1
 40
0.000000
 41
0.000000
  0
VERTEX
  8
0
  6
CONTINUOUS
 10
6.831880
 20
1.511400
  0
VERTEX
  8
0
  6
CONTINUOUS
 10
6.828800
 20
2.247520
  0
VERTEX
  8
0
  6
CONTINUOUS
 10
6.868400
 20
2.276120
  0
VERTEX
  8
0
  6
CONTINUOUS
 10
6.871480
 20
1.540000
  0
VERTEX
  8
0
  6
CONTINUOUS
 10
6.831880
 20
1.511400
  0
SEQEND
  8
0
  0
SOLID
  8
0
 62
    15
 10
6.871480
 20
1.540000
 11
6.868400
 21
2.276120
 12
6.918120
 22
1.556280
 13
6.915040
 23
2.292400
  0
POLYLINE
  8
0
  6
CONTINUOUS
 66
     1
 40
0.000000
 41
0.000000
  0
VERTEX
  8
0
  6
CONTINUOUS
 10
6.871480
 20
1.540000
  0
VERTEX
  8
0
  6
CONTINUOUS
 10
6.868400
 20
2.276120
  0
VERTEX
  8
0
  6
CONTINUOUS
 10
6.915040
 20
2.292400
  0
VERTEX
  8
0
  6
CONTINUOUS
 10
6.918120
 20
1.556280
  0
VERTEX
  8
0
  6
CONTINUOUS
 10
6.871480
 20
1.540000
  0
SEQEND
  8
0
  0
SOLID
  8
0
 62
    15
 10
6.918120
 20
1.556280
 11
6.915040
 21
2.292400
 12
6.967400
 22
1.560680
 13
6.964320
 23
2.297240
  0
POLYLINE
  8
0
  6
CONTINUOUS
 66
     1
 40
0.000000
 41
0.000000
  0
VERTEX
  8
0
  6
CONTINUOUS
 10
6.918120
 20
1.556280
  0
VERTEX
  8
0
  6
CONTINUOUS
 10
6.915040
 20
2.292400
  0
VERTEX
  8
0
  6
CONTINUOUS
 10
6.964320
 20
2.297240
  0
VERTEX
  8
0
  6
CONTINUOUS
 10
6.967400
 20
1.560680
  0
VERTEX
  8
0
  6
CONTINUOUS
 10
6.918120
 20
1.556280
  0
SEQEND
  8
0
  0
SOLID
  8
0
 62
    15
 10
6.967400
 20
1.560680
 11
6.964320
 21
2.297240
 12
7.014040
 22
1.553640
 13
7.010960
 23
2.289760
  0
POLYLINE
  8
0
  6
CONTINUOUS
 66
     1
 40
0.000000
 41
0.000000
  0
VERTEX
  8
0
  6
CONTINUOUS
 10
6.967400
 20
1.560680
  0
VERTEX
  8
0
  6
CONTINUOUS
 10
6.964320
 20
2.297240
  0
VERTEX
  8
0
  6
CONTINUOUS
 10
7.010960
 20
2.289760
  0
VERTEX
  8
0
  6
CONTINUOUS
 10
7.014040
 20
1.553640
  0
VERTEX
  8
0
  6
CONTINUOUS
 10
6.967400
 20
1.560680
  0
SEQEND
  8
0
  0
SOLID
  8
0
 62
    15
 10
7.014040
 20
1.553640
 11
7.010960
 21
2.289760
 12
7.053200
 22
1.534280
 13
7.050120
 23
2.270400
  0
POLYLINE
  8
0
  6
CONTINUOUS
 66
     1
 40
0.000000
 41
0.000000
  0
VERTEX
  8
0
  6
CONTINUOUS
 10
7.014040
 20
1.553640
  0
VERTEX
  8
0
  6
CONTINUOUS
 10
7.010960
 20
2.289760
  0
VERTEX
  8
0
  6
CONTINUOUS
 10
7.050120
 20
2.270400
  0
VERTEX
  8
0
  6
CONTINUOUS
 10
7.053200
 20
1.534280
  0
VERTEX
  8
0
  6
CONTINUOUS
 10
7.014040
 20
1.553640
  0
SEQEND
  8
0
  0
SOLID
  8
0
 62
    15
 10
7.080040
 20
1.503040
 11
7.076960
 21
2.239160
 12
7.087520
 22
1.482800
 13
7.084000
 23
2.219360
  0
POLYLINE
  8
0
  6
CONTINUOUS
 66
     1
 40
0.000000
 41
0.000000
  0
VERTEX
  8
0
  6
CONTINUOUS
 10
7.080040
 20
1.503040
  0
VERTEX
  8
0
  6
CONTINUOUS
 10
7.076960
 20
2.239160
  0
VERTEX
  8
0
  6
CONTINUOUS
 10
7.084000
 20
2.219360
  0
VERTEX
  8
0
  6
CONTINUOUS
 10
7.087520
 20
1.482800
  0
VERTEX
  8
0
  6
CONTINUOUS
 10
7.080040
 20
1.503040
  0
SEQEND
  8
0
  0
SOLID
  8
0
 62
    15
 10
7.053200
 20
1.534280
 11
7.050120
 21
2.270400
 12
7.080040
 22
1.503040
 13
7.076960
 23
2.239160
  0
POLYLINE
  8
0
  6
CONTINUOUS
 66
     1
 40
0.000000
 41
0.000000
  0
VERTEX
  8
0
  6
CONTINUOUS
 10
7.053200
 20
1.534280
  0
VERTEX
  8
0
  6
CONTINUOUS
 10
7.050120
 20
2.270400
  0
VERTEX
  8
0
  6
CONTINUOUS
 10
7.076960
 20
2.239160
  0
VERTEX
  8
0
  6
CONTINUOUS
 10
7.080040
 20
1.503040
  0
VERTEX
  8
0
  6
CONTINUOUS
 10
7.053200
 20
1.534280
  0
SEQEND
  8
0
  0
SOLID
  8
0
 62
    15
 10
7.087520
 20
1.482800
 11
7.084000
 21
2.219360
 12
7.089720
 22
1.459920
 13
7.086640
 23
2.196040
  0
POLYLINE
  8
0
  6
CONTINUOUS
 66
     1
 40
0.000000
 41
0.000000
  0
VERTEX
  8
0
  6
CONTINUOUS
 10
7.087520
 20
1.482800
  0
VERTEX
  8
0
  6
CONTINUOUS
 10
7.084000
 20
2.219360
  0
VERTEX
  8
0
  6
CONTINUOUS
 10
7.086640
 20
2.196040
  0
VERTEX
  8
0
  6
CONTINUOUS
 10
7.089720
 20
1.459920
  0
VERTEX
  8
0
  6
CONTINUOUS
 10
7.087520
 20
1.482800
  0
SEQEND
  8
0
  0
SOLID
  8
0
 62
    15
 10
2.619320
 20
1.272040
 11
2.616240
 21
2.008160
 12
2.619760
 22
2.464000
 13
2.616680
 23
3.200120
  0
POLYLINE
  8
0
  6
CONTINUOUS
 66
     1
 40
0.000000
 41
0.000000
  0
VERTEX
  8
0
  6
CONTINUOUS
 10
2.619320
 20
1.272040
  0
VERTEX
  8
0
  6
CONTINUOUS
 10
2.616240
 20
2.008160
  0
VERTEX
  8
0
  6
CONTINUOUS
 10
2.616680
 20
3.200120
  0
VERTEX
  8
0
  6
CONTINUOUS
 10
2.619760
 20
2.464000
  0
VERTEX
  8
0
  6
CONTINUOUS
 10
2.619320
 20
1.272040
  0
SEQEND
  8
0
  0
SOLID
  8
0
 62
    15
 10
2.619760
 20
2.464000
 11
2.616680
 21
3.200120
 12
3.056240
 22
2.464000
 13
3.053160
 23
3.200120
  0
POLYLINE
  8
0
  6
CONTINUOUS
 66
     1
 40
0.000000
 41
0.000000
  0
VERTEX
  8
0
  6
CONTINUOUS
 10
2.619760
 20
2.464000
  0
VERTEX
  8
0
  6
CONTINUOUS
 10
2.616680
 20
3.200120
  0
VERTEX
  8
0
  6
CONTINUOUS
 10
3.053160
 20
3.200120
  0
VERTEX
  8
0
  6
CONTINUOUS
 10
3.056240
 20
2.464000
  0
VERTEX
  8
0
  6
CONTINUOUS
 10
2.619760
 20
2.464000
  0
SEQEND
  8
0
  0
SOLID
  8
0
 62
    15
 10
3.056240
 20
2.464000
 11
3.053160
 21
3.200120
 12
3.097600
 22
2.419120
 13
3.094520
 23
3.155240
  0
POLYLINE
  8
0
  6
CONTINUOUS
 66
     1
 40
0.000000
 41
0.000000
  0
VERTEX
  8
0
  6
CONTINUOUS
 10
3.056240
 20
2.464000
  0
VERTEX
  8
0
  6
CONTINUOUS
 10
3.053160
 20
3.200120
  0
VERTEX
  8
0
  6
CONTINUOUS
 10
3.094520
 20
3.155240
  0
VERTEX
  8
0
  6
CONTINUOUS
 10
3.097600
 20
2.419120
  0
VERTEX
  8
0
  6
CONTINUOUS
 10
3.056240
 20
2.464000
  0
SEQEND
  8
0
  0
POLYLINE
  8
0
  6
CONTINUOUS
 66
     1
 40
0.000000
 41
0.000000
  0
VERTEX
  8
0
  6
CONTINUOUS
 10
3.097600
 20
2.419120
  0
VERTEX
  8
0
  6
CONTINUOUS
 10
3.168880
 20
2.419120
  0
VERTEX
  8
0
  6
CONTINUOUS
 10
3.221680
 20
2.415160
  0
VERTEX
  8
0
  6
CONTINUOUS
 10
3.261720
 20
2.407680
  0
VERTEX
  8
0
  6
CONTINUOUS
 10
3.296040
 20
2.397560
  0
VERTEX
  8
0
  6
CONTINUOUS
 10
3.403840
 20
2.376440
  0
VERTEX
  8
0
  6
CONTINUOUS
 10
3.432440
 20
2.367200
  0
VERTEX
  8
0
  6
CONTINUOUS
 10
3.456200
 20
2.353120
  0
VERTEX
  8
0
  6
CONTINUOUS
 10
3.472480
 20
2.334640
  0
VERTEX
  8
0
  6
CONTINUOUS
 10
3.478200
 20
2.310000
  0
VERTEX
  8
0
  6
CONTINUOUS
 10
4.576880
 20
2.286240
  0
VERTEX
  8
0
  6
CONTINUOUS
 10
4.598440
 20
1.901680
  0
VERTEX
  8
0
  6
CONTINUOUS
 10
5.046800
 20
1.897720
  0
VERTEX
  8
0
  6
CONTINUOUS
 10
5.067920
 20
1.801360
  0
VERTEX
  8
0
  6
CONTINUOUS
 10
5.091680
 20
1.801800
  0
VERTEX
  8
0
  6
CONTINUOUS
 10
5.146680
 20
1.823800
  0
VERTEX
  8
0
  6
CONTINUOUS
 10
5.201680
 20
1.835680
  0
VERTEX
  8
0
  6
CONTINUOUS
 10
5.256240
 20
1.838320
  0
VERTEX
  8
0
  6
CONTINUOUS
 10
5.310800
 20
1.831720
  0
VERTEX
  8
0
  6
CONTINUOUS
 10
5.365360
 20
1.817640
  0
VERTEX
  8
0
  6
CONTINUOUS
 10
5.419920
 20
1.796080
  0
VERTEX
  8
0
  6
CONTINUOUS
 10
5.529920
 20
1.735360
  0
VERTEX
  8
0
  6
CONTINUOUS
 10
5.585360
 20
1.706320
  0
VERTEX
  8
0
  6
CONTINUOUS
 10
5.640360
 20
1.688720
  0
VERTEX
  8
0
  6
CONTINUOUS
 10
5.693600
 20
1.680800
  0
VERTEX
  8
0
  6
CONTINUOUS
 10
5.743320
 20
1.680800
  0
VERTEX
  8
0
  6
CONTINUOUS
 10
5.788640
 20
1.686960
  0
VERTEX
  8
0
  6
CONTINUOUS
 10
5.827800
 20
1.697080
  0
VERTEX
  8
0
  6
CONTINUOUS
 10
5.859480
 20
1.709400
  0
VERTEX
  8
0
  6
CONTINUOUS
 10
5.882800
 20
1.722160
  0
VERTEX
  8
0
  6
CONTINUOUS
 10
6.001160
 20
1.678160
  0
VERTEX
  8
0
  6
CONTINUOUS
 10
6.006880
 20
1.609960
  0
VERTEX
  8
0
  6
CONTINUOUS
 10
6.745640
 20
1.596760
  0
VERTEX
  8
0
  6
CONTINUOUS
 10
6.786120
 20
1.470920
  0
VERTEX
  8
0
  6
CONTINUOUS
 10
6.805040
 20
1.470920
  0
VERTEX
  8
0
  6
CONTINUOUS
 10
6.831880
 20
1.511400
  0
VERTEX
  8
0
  6
CONTINUOUS
 10
6.871480
 20
1.540000
  0
VERTEX
  8
0
  6
CONTINUOUS
 10
6.918120
 20
1.556280
  0
VERTEX
  8
0
  6
CONTINUOUS
 10
6.967400
 20
1.560680
  0
VERTEX
  8
0
  6
CONTINUOUS
 10
7.014040
 20
1.553640
  0
VERTEX
  8
0
  6
CONTINUOUS
 10
7.053200
 20
1.534280
  0
VERTEX
  8
0
  6
CONTINUOUS
 10
7.080040
 20
1.503040
  0
VERTEX
  8
0
  6
CONTINUOUS
 10
7.087520
 20
1.482800
  0
VERTEX
  8
0
  6
CONTINUOUS
 10
7.089720
 20
1.459920
  0
VERTEX
  8
0
  6
CONTINUOUS
 10
7.089720
 20
1.272040
  0
VERTEX
  8
0
  6
CONTINUOUS
 10
2.619320
 20
1.272040
  0
VERTEX
  8
0
  6
CONTINUOUS
 10
2.619760
 20
2.464000
  0
VERTEX
  8
0
  6
CONTINUOUS
 10
3.056240
 20
2.464000
  0
VERTEX
  8
0
  6
CONTINUOUS
 10
3.097600
 20
2.419120
  0
SEQEND
  8
0
  0
TEXT
  8
0
 10
4.557960
 20
1.019480
 40
0.138239
  1
BA  527
 41
1.000000
  7
SN0
 71
     0
 72
     5
 11
5.149081
 21
1.019480
  0
TEXT
  8
0
 10
4.282080
 20
0.828080
 40
0.138239
  1
1-3/16" x 4-1/2"
 41
1.000000
  7
SN0
 71
     0
 72
     5
 11
5.424720
 21
0.828080
  0
ENDSEC
  0
EOF
