  0
SECTION
  2
HEADER
  9
$ACADVER
  1
AC1006
  9
$EXTMIN
 10
3.415280
 20
0.527120
  9
$EXTMAX
 10
6.992480
 20
4.103000
  9
$LTSCALE
 40
0.044000
  9
$PDMODE
 70
    35
  9
$PDSIZE
 40
0.035200
  0
ENDSEC
  0
SECTION
  2
TABLES
  0
TABLE
  2
LTYPE
 70
     9
  0
LTYPE
  2
CONTINUOUS
 70
    64
  3
Solid line
 72
    65
 73
     0
 40
0.000000
  0
LTYPE
  2
DASHED
 70
    64
  3
__ __ __ __ __ __ __ __ __ __ __ __ __ __ __
 72
    65
 73
     2
 40
0.000330
 49
0.000220
 49
-0.000110
  0
LTYPE
  2
HIDDEN
 70
    64
  3
 _ _ _ _ _ _ _ _ _ _ _ _ _ _ _ _ _ _ _ _ _ _
 72
    65
 73
     2
 40
0.000165
 49
0.000110
 49
-0.000055
  0
LTYPE
  2
CENTER
 70
    64
  3
____ _ ____ _ ____ _ ____ _ ____ _ ____ _ ____
 72
    65
 73
     4
 40
0.000880
 49
0.000550
 49
-0.000110
 49
0.000110
 49
-0.000110
  0
LTYPE
  2
PHANTOM
 70
    64
  3
_____ _ _ _____ _ _ _____ _ _ _____ _ _ ____
 72
    65
 73
     6
 40
0.001100
 49
0.000550
 49
-0.000110
 49
0.000110
 49
-0.000110
 49
0.000110
 49
-0.000110
  0
LTYPE
  2
DOT
 70
    64
  3
...............................................
 72
    65
 73
     2
 40
0.000110
 49
0.000000
 49
-0.000110
  0
LTYPE
  2
DASHDOT
 70
    64
  3
__ . __ . __ . __ . __ . __ . __ . __ . __ . __
 72
    65
 73
     4
 40
0.000440
 49
0.000220
 49
-0.000110
 49
0.000000
 49
-0.000110
  0
LTYPE
  2
BORDER
 70
    64
  3
__ __ . __ __ . __ __ . __ __ . __ __ . __ __
 72
    65
 73
     6
 40
0.000770
 49
0.000220
 49
-0.000110
 49
0.000220
 49
-0.000110
 49
0.000000
 49
-0.000110
  0
LTYPE
  2
DIVIDE
 70
    64
  3
__ . . __ . . __ . . __ . . __ . . __ . . __
 72
    65
 73
     6
 40
0.000550
 49
0.000220
 49
-0.000110
 49
0.000000
 49
-0.000110
 49
0.000000
 49
-0.000110
  0
LTYPE
  2
DOTDOT
 70
    64
  3
 . .  . .  . .  . .  . .  . . 
 72
    65
 73
     5
 40
0.000242
 49
-0.000110
 49
0.000000
 49
-0.000110
 49
0.000000
 49
-0.000110
  0
ENDTAB
  0
TABLE
  2
STYLE
 70
     2
  0
STYLE
 70
     0
  2
SN0
 40
0.000000
 41
0.000440
 50
0.000000
 71
     0
 42
0.000000
  3
ROMAND
  0
STYLE
 70
    68
  2
SV0
 40
0.000000
 41
0.000440
 50
0.000000
 71
     0
 42
0.000000
  3
ROMAND
  0
ENDTAB
  0
TABLE
  2
LAYER
 70
     3
  0
LAYER
  2
FOREGROUND
 70
    64
 62
     7
  6
CONTINUOUS
  0
LAYER
  2
BACKGROUND
 70
    65
 62
    -7
  6
CONTINUOUS
  0
LAYER
  2
0
 70
    64
 62
     7
  6
CONTINUOUS
  0
ENDTAB
  0
ENDSEC
  0
SECTION
  2
ENTITIES
  0
POLYLINE
  8
FOREGROUND
  6
CONTINUOUS
 66
     1
 40
0.000000
 41
0.000000
  0
VERTEX
  8
FOREGROUND
  6
CONTINUOUS
 10
0.000000
 20
4.630120
  0
VERTEX
  8
FOREGROUND
  6
CONTINUOUS
 10
8.499920
 20
4.630120
  0
VERTEX
  8
FOREGROUND
  6
CONTINUOUS
 10
8.499920
 20
-6.369880
  0
VERTEX
  8
FOREGROUND
  6
CONTINUOUS
 10
0.000000
 20
-6.369880
  0
VERTEX
  8
FOREGROUND
  6
CONTINUOUS
 10
0.000000
 20
4.630120
  0
SEQEND
  8
0
  0
POLYLINE
  8
FOREGROUND
  6
CONTINUOUS
 66
     1
 40
0.000000
 41
0.000000
  0
VERTEX
  8
FOREGROUND
  6
CONTINUOUS
 10
0.000000
 20
4.630120
  0
VERTEX
  8
FOREGROUND
  6
CONTINUOUS
 10
8.499920
 20
4.630120
  0
VERTEX
  8
FOREGROUND
  6
CONTINUOUS
 10
8.499920
 20
-6.369880
  0
VERTEX
  8
FOREGROUND
  6
CONTINUOUS
 10
0.000000
 20
-6.369880
  0
VERTEX
  8
FOREGROUND
  6
CONTINUOUS
 10
0.000000
 20
4.630120
  0
SEQEND
  8
0
  0
POLYLINE
  8
0
  6
CONTINUOUS
 66
     1
 40
0.014080
 41
0.014080
  0
VERTEX
  8
0
  6
CONTINUOUS
 10
6.026240
 20
3.646720
  0
VERTEX
  8
0
  6
CONTINUOUS
 10
6.035480
 20
3.685000
  0
VERTEX
  8
0
  6
CONTINUOUS
 10
6.049560
 20
3.720200
  0
VERTEX
  8
0
  6
CONTINUOUS
 10
6.061440
 20
3.742640
  0
VERTEX
  8
0
  6
CONTINUOUS
 10
6.075080
 20
3.763320
  0
VERTEX
  8
0
  6
CONTINUOUS
 10
6.090480
 20
3.783120
  0
VERTEX
  8
0
  6
CONTINUOUS
 10
6.107640
 20
3.801160
  0
VERTEX
  8
0
  6
CONTINUOUS
 10
6.126120
 20
3.817440
  0
VERTEX
  8
0
  6
CONTINUOUS
 10
6.145920
 20
3.832400
  0
VERTEX
  8
0
  6
CONTINUOUS
 10
6.167040
 20
3.845600
  0
VERTEX
  8
0
  6
CONTINUOUS
 10
6.189480
 20
3.857040
  0
VERTEX
  8
0
  6
CONTINUOUS
 10
6.212800
 20
3.866280
  0
VERTEX
  8
0
  6
CONTINUOUS
 10
6.237000
 20
3.873760
  0
VERTEX
  8
0
  6
CONTINUOUS
 10
6.262080
 20
3.879480
  0
VERTEX
  8
0
  6
CONTINUOUS
 10
6.287600
 20
3.882560
  0
VERTEX
  8
0
  6
CONTINUOUS
 10
6.313560
 20
3.883880
  0
VERTEX
  8
0
  6
CONTINUOUS
 10
6.339520
 20
3.882560
  0
VERTEX
  8
0
  6
CONTINUOUS
 10
6.365480
 20
3.879040
  0
VERTEX
  8
0
  6
CONTINUOUS
 10
6.390120
 20
3.873320
  0
VERTEX
  8
0
  6
CONTINUOUS
 10
6.414760
 20
3.865400
  0
VERTEX
  8
0
  6
CONTINUOUS
 10
6.438080
 20
3.855280
  0
VERTEX
  8
0
  6
CONTINUOUS
 10
6.460520
 20
3.843400
  0
VERTEX
  8
0
  6
CONTINUOUS
 10
6.482080
 20
3.829760
  0
VERTEX
  8
0
  6
CONTINUOUS
 10
6.502320
 20
3.814360
  0
VERTEX
  8
0
  6
CONTINUOUS
 10
6.521240
 20
3.797640
  0
VERTEX
  8
0
  6
CONTINUOUS
 10
6.555120
 20
3.759800
  0
VERTEX
  8
0
  6
CONTINUOUS
 10
6.569200
 20
3.739120
  0
VERTEX
  8
0
  6
CONTINUOUS
 10
6.592960
 20
3.694680
  0
VERTEX
  8
0
  6
CONTINUOUS
 10
6.601760
 20
3.670920
  0
VERTEX
  8
0
  6
CONTINUOUS
 10
6.608360
 20
3.646720
  0
VERTEX
  8
0
  6
CONTINUOUS
 10
6.765000
 20
3.646720
  0
VERTEX
  8
0
  6
CONTINUOUS
 10
6.777760
 20
3.609320
  0
VERTEX
  8
0
  6
CONTINUOUS
 10
6.799760
 20
3.561800
  0
VERTEX
  8
0
  6
CONTINUOUS
 10
6.819560
 20
3.528800
  0
VERTEX
  8
0
  6
CONTINUOUS
 10
6.843320
 20
3.497120
  0
VERTEX
  8
0
  6
CONTINUOUS
 10
6.870600
 20
3.468960
  0
VERTEX
  8
0
  6
CONTINUOUS
 10
6.901840
 20
3.446080
  0
VERTEX
  8
0
  6
CONTINUOUS
 10
6.927800
 20
3.434200
  0
VERTEX
  8
0
  6
CONTINUOUS
 10
6.937040
 20
3.431560
  0
VERTEX
  8
0
  6
CONTINUOUS
 10
6.937040
 20
3.173280
  0
VERTEX
  8
0
  6
CONTINUOUS
 10
3.423200
 20
3.173280
  0
VERTEX
  8
0
  6
CONTINUOUS
 10
3.423200
 20
4.066040
  0
VERTEX
  8
0
  6
CONTINUOUS
 10
4.347640
 20
4.066040
  0
VERTEX
  8
0
  6
CONTINUOUS
 10
4.359520
 20
3.944600
  0
VERTEX
  8
0
  6
CONTINUOUS
 10
4.391200
 20
3.946800
  0
VERTEX
  8
0
  6
CONTINUOUS
 10
4.419800
 20
3.952080
  0
VERTEX
  8
0
  6
CONTINUOUS
 10
4.446200
 20
3.960000
  0
VERTEX
  8
0
  6
CONTINUOUS
 10
4.471280
 20
3.969680
  0
VERTEX
  8
0
  6
CONTINUOUS
 10
4.519240
 20
3.993880
  0
VERTEX
  8
0
  6
CONTINUOUS
 10
4.616920
 20
4.048880
  0
VERTEX
  8
0
  6
CONTINUOUS
 10
4.673240
 20
4.072640
  0
VERTEX
  8
0
  6
CONTINUOUS
 10
4.721200
 20
4.085840
  0
VERTEX
  8
0
  6
CONTINUOUS
 10
4.756840
 20
4.092000
  0
VERTEX
  8
0
  6
CONTINUOUS
 10
4.796000
 20
4.095080
  0
VERTEX
  8
0
  6
CONTINUOUS
 10
4.877840
 20
4.095080
  0
VERTEX
  8
0
  6
CONTINUOUS
 10
4.933280
 20
4.092880
  0
VERTEX
  8
0
  6
CONTINUOUS
 10
4.968480
 20
4.089800
  0
VERTEX
  8
0
  6
CONTINUOUS
 10
5.001920
 20
4.084960
  0
VERTEX
  8
0
  6
CONTINUOUS
 10
5.050760
 20
4.073960
  0
VERTEX
  8
0
  6
CONTINUOUS
 10
5.099160
 20
4.056800
  0
VERTEX
  8
0
  6
CONTINUOUS
 10
5.148440
 20
4.033040
  0
VERTEX
  8
0
  6
CONTINUOUS
 10
5.200360
 20
4.000920
  0
VERTEX
  8
0
  6
CONTINUOUS
 10
5.255800
 20
3.959560
  0
VERTEX
  8
0
  6
CONTINUOUS
 10
5.316960
 20
3.907640
  0
VERTEX
  8
0
  6
CONTINUOUS
 10
5.408920
 20
3.819640
  0
VERTEX
  8
0
  6
CONTINUOUS
 10
5.515840
 20
3.716680
  0
VERTEX
  8
0
  6
CONTINUOUS
 10
5.581400
 20
3.661240
  0
VERTEX
  8
0
  6
CONTINUOUS
 10
5.622320
 20
3.632200
  0
VERTEX
  8
0
  6
CONTINUOUS
 10
5.658840
 20
3.611080
  0
VERTEX
  8
0
  6
CONTINUOUS
 10
5.692720
 20
3.597000
  0
VERTEX
  8
0
  6
CONTINUOUS
 10
5.738480
 20
3.584240
  0
VERTEX
  8
0
  6
CONTINUOUS
 10
5.868280
 20
3.559160
  0
VERTEX
  8
0
  6
CONTINUOUS
 10
5.887200
 20
3.554760
  0
VERTEX
  8
0
  6
CONTINUOUS
 10
5.887200
 20
3.646720
  0
VERTEX
  8
0
  6
CONTINUOUS
 10
6.028440
 20
3.646720
  0
VERTEX
  8
0
  6
CONTINUOUS
 10
6.026240
 20
3.646720
  0
SEQEND
  8
0
  0
SOLID
  8
0
 62
    15
 10
4.573360
 20
1.808840
 11
4.574240
 21
2.518560
 12
4.596680
 22
1.822480
 13
4.598000
 23
2.532200
  0
POLYLINE
  8
0
  6
CONTINUOUS
 66
     1
 40
0.000000
 41
0.000000
  0
VERTEX
  8
0
  6
CONTINUOUS
 10
4.573360
 20
1.808840
  0
VERTEX
  8
0
  6
CONTINUOUS
 10
4.574240
 20
2.518560
  0
VERTEX
  8
0
  6
CONTINUOUS
 10
4.598000
 20
2.532200
  0
VERTEX
  8
0
  6
CONTINUOUS
 10
4.596680
 20
1.822480
  0
VERTEX
  8
0
  6
CONTINUOUS
 10
4.573360
 20
1.808840
  0
SEQEND
  8
0
  0
SOLID
  8
0
 62
    15
 10
6.093560
 20
1.511840
 11
6.094440
 21
2.221560
 12
6.115120
 22
1.557600
 13
6.116440
 23
2.266880
  0
POLYLINE
  8
0
  6
CONTINUOUS
 66
     1
 40
0.000000
 41
0.000000
  0
VERTEX
  8
0
  6
CONTINUOUS
 10
6.093560
 20
1.511840
  0
VERTEX
  8
0
  6
CONTINUOUS
 10
6.094440
 20
2.221560
  0
VERTEX
  8
0
  6
CONTINUOUS
 10
6.116440
 20
2.266880
  0
VERTEX
  8
0
  6
CONTINUOUS
 10
6.115120
 20
1.557600
  0
VERTEX
  8
0
  6
CONTINUOUS
 10
6.093560
 20
1.511840
  0
SEQEND
  8
0
  0
SOLID
  8
0
 62
    15
 10
6.115120
 20
1.557600
 11
6.116440
 21
2.266880
 12
6.144160
 22
1.597640
 13
6.145480
 23
2.307360
  0
POLYLINE
  8
0
  6
CONTINUOUS
 66
     1
 40
0.000000
 41
0.000000
  0
VERTEX
  8
0
  6
CONTINUOUS
 10
6.115120
 20
1.557600
  0
VERTEX
  8
0
  6
CONTINUOUS
 10
6.116440
 20
2.266880
  0
VERTEX
  8
0
  6
CONTINUOUS
 10
6.145480
 20
2.307360
  0
VERTEX
  8
0
  6
CONTINUOUS
 10
6.144160
 20
1.597640
  0
VERTEX
  8
0
  6
CONTINUOUS
 10
6.115120
 20
1.557600
  0
SEQEND
  8
0
  0
SOLID
  8
0
 62
    15
 10
6.144160
 20
1.597640
 11
6.145480
 21
2.307360
 12
6.179800
 22
1.632400
 13
6.181120
 23
2.342120
  0
POLYLINE
  8
0
  6
CONTINUOUS
 66
     1
 40
0.000000
 41
0.000000
  0
VERTEX
  8
0
  6
CONTINUOUS
 10
6.144160
 20
1.597640
  0
VERTEX
  8
0
  6
CONTINUOUS
 10
6.145480
 20
2.307360
  0
VERTEX
  8
0
  6
CONTINUOUS
 10
6.181120
 20
2.342120
  0
VERTEX
  8
0
  6
CONTINUOUS
 10
6.179800
 20
1.632400
  0
VERTEX
  8
0
  6
CONTINUOUS
 10
6.144160
 20
1.597640
  0
SEQEND
  8
0
  0
SOLID
  8
0
 62
    15
 10
6.179800
 20
1.632400
 11
6.181120
 21
2.342120
 12
6.221160
 22
1.660120
 13
6.222040
 23
2.369840
  0
POLYLINE
  8
0
  6
CONTINUOUS
 66
     1
 40
0.000000
 41
0.000000
  0
VERTEX
  8
0
  6
CONTINUOUS
 10
6.179800
 20
1.632400
  0
VERTEX
  8
0
  6
CONTINUOUS
 10
6.181120
 20
2.342120
  0
VERTEX
  8
0
  6
CONTINUOUS
 10
6.222040
 20
2.369840
  0
VERTEX
  8
0
  6
CONTINUOUS
 10
6.221160
 20
1.660120
  0
VERTEX
  8
0
  6
CONTINUOUS
 10
6.179800
 20
1.632400
  0
SEQEND
  8
0
  0
SOLID
  8
0
 62
    15
 10
6.221160
 20
1.660120
 11
6.222040
 21
2.369840
 12
6.266480
 22
1.681240
 13
6.267800
 23
2.390520
  0
POLYLINE
  8
0
  6
CONTINUOUS
 66
     1
 40
0.000000
 41
0.000000
  0
VERTEX
  8
0
  6
CONTINUOUS
 10
6.221160
 20
1.660120
  0
VERTEX
  8
0
  6
CONTINUOUS
 10
6.222040
 20
2.369840
  0
VERTEX
  8
0
  6
CONTINUOUS
 10
6.267800
 20
2.390520
  0
VERTEX
  8
0
  6
CONTINUOUS
 10
6.266480
 20
1.681240
  0
VERTEX
  8
0
  6
CONTINUOUS
 10
6.221160
 20
1.660120
  0
SEQEND
  8
0
  0
SOLID
  8
0
 62
    15
 10
6.266480
 20
1.681240
 11
6.267800
 21
2.390520
 12
6.315760
 22
1.694000
 13
6.317080
 23
2.403720
  0
POLYLINE
  8
0
  6
CONTINUOUS
 66
     1
 40
0.000000
 41
0.000000
  0
VERTEX
  8
0
  6
CONTINUOUS
 10
6.266480
 20
1.681240
  0
VERTEX
  8
0
  6
CONTINUOUS
 10
6.267800
 20
2.390520
  0
VERTEX
  8
0
  6
CONTINUOUS
 10
6.317080
 20
2.403720
  0
VERTEX
  8
0
  6
CONTINUOUS
 10
6.315760
 20
1.694000
  0
VERTEX
  8
0
  6
CONTINUOUS
 10
6.266480
 20
1.681240
  0
SEQEND
  8
0
  0
SOLID
  8
0
 62
    15
 10
6.315760
 20
1.694000
 11
6.317080
 21
2.403720
 12
6.367680
 22
1.698400
 13
6.368560
 23
2.408120
  0
POLYLINE
  8
0
  6
CONTINUOUS
 66
     1
 40
0.000000
 41
0.000000
  0
VERTEX
  8
0
  6
CONTINUOUS
 10
6.315760
 20
1.694000
  0
VERTEX
  8
0
  6
CONTINUOUS
 10
6.317080
 20
2.403720
  0
VERTEX
  8
0
  6
CONTINUOUS
 10
6.368560
 20
2.408120
  0
VERTEX
  8
0
  6
CONTINUOUS
 10
6.367680
 20
1.698400
  0
VERTEX
  8
0
  6
CONTINUOUS
 10
6.315760
 20
1.694000
  0
SEQEND
  8
0
  0
SOLID
  8
0
 62
    15
 10
6.367680
 20
1.698400
 11
6.368560
 21
2.408120
 12
6.419160
 22
1.693560
 13
6.420480
 23
2.403280
  0
POLYLINE
  8
0
  6
CONTINUOUS
 66
     1
 40
0.000000
 41
0.000000
  0
VERTEX
  8
0
  6
CONTINUOUS
 10
6.367680
 20
1.698400
  0
VERTEX
  8
0
  6
CONTINUOUS
 10
6.368560
 20
2.408120
  0
VERTEX
  8
0
  6
CONTINUOUS
 10
6.420480
 20
2.403280
  0
VERTEX
  8
0
  6
CONTINUOUS
 10
6.419160
 20
1.693560
  0
VERTEX
  8
0
  6
CONTINUOUS
 10
6.367680
 20
1.698400
  0
SEQEND
  8
0
  0
SOLID
  8
0
 62
    15
 10
6.419160
 20
1.693560
 11
6.420480
 21
2.403280
 12
6.468440
 22
1.679920
 13
6.469760
 23
2.389640
  0
POLYLINE
  8
0
  6
CONTINUOUS
 66
     1
 40
0.000000
 41
0.000000
  0
VERTEX
  8
0
  6
CONTINUOUS
 10
6.419160
 20
1.693560
  0
VERTEX
  8
0
  6
CONTINUOUS
 10
6.420480
 20
2.403280
  0
VERTEX
  8
0
  6
CONTINUOUS
 10
6.469760
 20
2.389640
  0
VERTEX
  8
0
  6
CONTINUOUS
 10
6.468440
 20
1.679920
  0
VERTEX
  8
0
  6
CONTINUOUS
 10
6.419160
 20
1.693560
  0
SEQEND
  8
0
  0
SOLID
  8
0
 62
    15
 10
6.468440
 20
1.679920
 11
6.469760
 21
2.389640
 12
6.514640
 22
1.657920
 13
6.515520
 23
2.367640
  0
POLYLINE
  8
0
  6
CONTINUOUS
 66
     1
 40
0.000000
 41
0.000000
  0
VERTEX
  8
0
  6
CONTINUOUS
 10
6.468440
 20
1.679920
  0
VERTEX
  8
0
  6
CONTINUOUS
 10
6.469760
 20
2.389640
  0
VERTEX
  8
0
  6
CONTINUOUS
 10
6.515520
 20
2.367640
  0
VERTEX
  8
0
  6
CONTINUOUS
 10
6.514640
 20
1.657920
  0
VERTEX
  8
0
  6
CONTINUOUS
 10
6.468440
 20
1.679920
  0
SEQEND
  8
0
  0
SOLID
  8
0
 62
    15
 10
6.514640
 20
1.657920
 11
6.515520
 21
2.367640
 12
6.556440
 22
1.629320
 13
6.557320
 23
2.339040
  0
POLYLINE
  8
0
  6
CONTINUOUS
 66
     1
 40
0.000000
 41
0.000000
  0
VERTEX
  8
0
  6
CONTINUOUS
 10
6.514640
 20
1.657920
  0
VERTEX
  8
0
  6
CONTINUOUS
 10
6.515520
 20
2.367640
  0
VERTEX
  8
0
  6
CONTINUOUS
 10
6.557320
 20
2.339040
  0
VERTEX
  8
0
  6
CONTINUOUS
 10
6.556440
 20
1.629320
  0
VERTEX
  8
0
  6
CONTINUOUS
 10
6.514640
 20
1.657920
  0
SEQEND
  8
0
  0
SOLID
  8
0
 62
    15
 10
6.556440
 20
1.629320
 11
6.557320
 21
2.339040
 12
6.592960
 22
1.594120
 13
6.593840
 23
2.303840
  0
POLYLINE
  8
0
  6
CONTINUOUS
 66
     1
 40
0.000000
 41
0.000000
  0
VERTEX
  8
0
  6
CONTINUOUS
 10
6.556440
 20
1.629320
  0
VERTEX
  8
0
  6
CONTINUOUS
 10
6.557320
 20
2.339040
  0
VERTEX
  8
0
  6
CONTINUOUS
 10
6.593840
 20
2.303840
  0
VERTEX
  8
0
  6
CONTINUOUS
 10
6.592960
 20
1.594120
  0
VERTEX
  8
0
  6
CONTINUOUS
 10
6.556440
 20
1.629320
  0
SEQEND
  8
0
  0
SOLID
  8
0
 62
    15
 10
6.592960
 20
1.594120
 11
6.593840
 21
2.303840
 12
6.623320
 22
1.553640
 13
6.624640
 23
2.263360
  0
POLYLINE
  8
0
  6
CONTINUOUS
 66
     1
 40
0.000000
 41
0.000000
  0
VERTEX
  8
0
  6
CONTINUOUS
 10
6.592960
 20
1.594120
  0
VERTEX
  8
0
  6
CONTINUOUS
 10
6.593840
 20
2.303840
  0
VERTEX
  8
0
  6
CONTINUOUS
 10
6.624640
 20
2.263360
  0
VERTEX
  8
0
  6
CONTINUOUS
 10
6.623320
 20
1.553640
  0
VERTEX
  8
0
  6
CONTINUOUS
 10
6.592960
 20
1.594120
  0
SEQEND
  8
0
  0
SOLID
  8
0
 62
    15
 10
6.623320
 20
1.553640
 11
6.624640
 21
2.263360
 12
6.646640
 22
1.509200
 13
6.647960
 23
2.218920
  0
POLYLINE
  8
0
  6
CONTINUOUS
 66
     1
 40
0.000000
 41
0.000000
  0
VERTEX
  8
0
  6
CONTINUOUS
 10
6.623320
 20
1.553640
  0
VERTEX
  8
0
  6
CONTINUOUS
 10
6.624640
 20
2.263360
  0
VERTEX
  8
0
  6
CONTINUOUS
 10
6.647960
 20
2.218920
  0
VERTEX
  8
0
  6
CONTINUOUS
 10
6.646640
 20
1.509200
  0
VERTEX
  8
0
  6
CONTINUOUS
 10
6.623320
 20
1.553640
  0
SEQEND
  8
0
  0
SOLID
  8
0
 62
    15
 10
6.646640
 20
1.509200
 11
6.647960
 21
2.218920
 12
6.662480
 22
1.461240
 13
6.663360
 23
2.170960
  0
POLYLINE
  8
0
  6
CONTINUOUS
 66
     1
 40
0.000000
 41
0.000000
  0
VERTEX
  8
0
  6
CONTINUOUS
 10
6.646640
 20
1.509200
  0
VERTEX
  8
0
  6
CONTINUOUS
 10
6.647960
 20
2.218920
  0
VERTEX
  8
0
  6
CONTINUOUS
 10
6.663360
 20
2.170960
  0
VERTEX
  8
0
  6
CONTINUOUS
 10
6.662480
 20
1.461240
  0
VERTEX
  8
0
  6
CONTINUOUS
 10
6.646640
 20
1.509200
  0
SEQEND
  8
0
  0
SOLID
  8
0
 62
    15
 10
6.662480
 20
1.461240
 11
6.663360
 21
2.170960
 12
6.819120
 22
1.461240
 13
6.820000
 23
2.170960
  0
POLYLINE
  8
0
  6
CONTINUOUS
 66
     1
 40
0.000000
 41
0.000000
  0
VERTEX
  8
0
  6
CONTINUOUS
 10
6.662480
 20
1.461240
  0
VERTEX
  8
0
  6
CONTINUOUS
 10
6.663360
 20
2.170960
  0
VERTEX
  8
0
  6
CONTINUOUS
 10
6.820000
 20
2.170960
  0
VERTEX
  8
0
  6
CONTINUOUS
 10
6.819120
 20
1.461240
  0
VERTEX
  8
0
  6
CONTINUOUS
 10
6.662480
 20
1.461240
  0
SEQEND
  8
0
  0
SOLID
  8
0
 62
    15
 10
6.819120
 20
1.461240
 11
6.820000
 21
2.170960
 12
6.826600
 22
1.437920
 13
6.827480
 23
2.147640
  0
POLYLINE
  8
0
  6
CONTINUOUS
 66
     1
 40
0.000000
 41
0.000000
  0
VERTEX
  8
0
  6
CONTINUOUS
 10
6.819120
 20
1.461240
  0
VERTEX
  8
0
  6
CONTINUOUS
 10
6.820000
 20
2.170960
  0
VERTEX
  8
0
  6
CONTINUOUS
 10
6.827480
 20
2.147640
  0
VERTEX
  8
0
  6
CONTINUOUS
 10
6.826600
 20
1.437920
  0
VERTEX
  8
0
  6
CONTINUOUS
 10
6.819120
 20
1.461240
  0
SEQEND
  8
0
  0
SOLID
  8
0
 62
    15
 10
6.826600
 20
1.437920
 11
6.827480
 21
2.147640
 12
6.838040
 22
1.408880
 13
6.839360
 23
2.118600
  0
POLYLINE
  8
0
  6
CONTINUOUS
 66
     1
 40
0.000000
 41
0.000000
  0
VERTEX
  8
0
  6
CONTINUOUS
 10
6.826600
 20
1.437920
  0
VERTEX
  8
0
  6
CONTINUOUS
 10
6.827480
 20
2.147640
  0
VERTEX
  8
0
  6
CONTINUOUS
 10
6.839360
 20
2.118600
  0
VERTEX
  8
0
  6
CONTINUOUS
 10
6.838040
 20
1.408880
  0
VERTEX
  8
0
  6
CONTINUOUS
 10
6.826600
 20
1.437920
  0
SEQEND
  8
0
  0
SOLID
  8
0
 62
    15
 10
6.838040
 20
1.408880
 11
6.839360
 21
2.118600
 12
6.873240
 22
1.343760
 13
6.874560
 23
2.053480
  0
POLYLINE
  8
0
  6
CONTINUOUS
 66
     1
 40
0.000000
 41
0.000000
  0
VERTEX
  8
0
  6
CONTINUOUS
 10
6.838040
 20
1.408880
  0
VERTEX
  8
0
  6
CONTINUOUS
 10
6.839360
 20
2.118600
  0
VERTEX
  8
0
  6
CONTINUOUS
 10
6.874560
 20
2.053480
  0
VERTEX
  8
0
  6
CONTINUOUS
 10
6.873240
 20
1.343760
  0
VERTEX
  8
0
  6
CONTINUOUS
 10
6.838040
 20
1.408880
  0
SEQEND
  8
0
  0
SOLID
  8
0
 62
    15
 10
6.873240
 20
1.343760
 11
6.874560
 21
2.053480
 12
6.897000
 22
1.312080
 13
6.898320
 23
2.021360
  0
POLYLINE
  8
0
  6
CONTINUOUS
 66
     1
 40
0.000000
 41
0.000000
  0
VERTEX
  8
0
  6
CONTINUOUS
 10
6.873240
 20
1.343760
  0
VERTEX
  8
0
  6
CONTINUOUS
 10
6.874560
 20
2.053480
  0
VERTEX
  8
0
  6
CONTINUOUS
 10
6.898320
 20
2.021360
  0
VERTEX
  8
0
  6
CONTINUOUS
 10
6.897000
 20
1.312080
  0
VERTEX
  8
0
  6
CONTINUOUS
 10
6.873240
 20
1.343760
  0
SEQEND
  8
0
  0
SOLID
  8
0
 62
    15
 10
6.897000
 20
1.312080
 11
6.898320
 21
2.021360
 12
6.924720
 22
1.283480
 13
6.925600
 23
1.993200
  0
POLYLINE
  8
0
  6
CONTINUOUS
 66
     1
 40
0.000000
 41
0.000000
  0
VERTEX
  8
0
  6
CONTINUOUS
 10
6.897000
 20
1.312080
  0
VERTEX
  8
0
  6
CONTINUOUS
 10
6.898320
 20
2.021360
  0
VERTEX
  8
0
  6
CONTINUOUS
 10
6.925600
 20
1.993200
  0
VERTEX
  8
0
  6
CONTINUOUS
 10
6.924720
 20
1.283480
  0
VERTEX
  8
0
  6
CONTINUOUS
 10
6.897000
 20
1.312080
  0
SEQEND
  8
0
  0
SOLID
  8
0
 62
    15
 10
6.924720
 20
1.283480
 11
6.925600
 21
1.993200
 12
6.955960
 22
1.261040
 13
6.956840
 23
1.970760
  0
POLYLINE
  8
0
  6
CONTINUOUS
 66
     1
 40
0.000000
 41
0.000000
  0
VERTEX
  8
0
  6
CONTINUOUS
 10
6.924720
 20
1.283480
  0
VERTEX
  8
0
  6
CONTINUOUS
 10
6.925600
 20
1.993200
  0
VERTEX
  8
0
  6
CONTINUOUS
 10
6.956840
 20
1.970760
  0
VERTEX
  8
0
  6
CONTINUOUS
 10
6.955960
 20
1.261040
  0
VERTEX
  8
0
  6
CONTINUOUS
 10
6.924720
 20
1.283480
  0
SEQEND
  8
0
  0
SOLID
  8
0
 62
    15
 10
6.991160
 20
1.246520
 11
6.992040
 21
1.955800
 12
6.991160
 22
0.987800
 13
6.992040
 23
1.697520
  0
POLYLINE
  8
0
  6
CONTINUOUS
 66
     1
 40
0.000000
 41
0.000000
  0
VERTEX
  8
0
  6
CONTINUOUS
 10
6.991160
 20
1.246520
  0
VERTEX
  8
0
  6
CONTINUOUS
 10
6.992040
 20
1.955800
  0
VERTEX
  8
0
  6
CONTINUOUS
 10
6.992040
 20
1.697520
  0
VERTEX
  8
0
  6
CONTINUOUS
 10
6.991160
 20
0.987800
  0
VERTEX
  8
0
  6
CONTINUOUS
 10
6.991160
 20
1.246520
  0
SEQEND
  8
0
  0
SOLID
  8
0
 62
    15
 10
6.955960
 20
1.261040
 11
6.956840
 21
1.970760
 12
6.991160
 22
1.246520
 13
6.992040
 23
1.955800
  0
POLYLINE
  8
0
  6
CONTINUOUS
 66
     1
 40
0.000000
 41
0.000000
  0
VERTEX
  8
0
  6
CONTINUOUS
 10
6.955960
 20
1.261040
  0
VERTEX
  8
0
  6
CONTINUOUS
 10
6.956840
 20
1.970760
  0
VERTEX
  8
0
  6
CONTINUOUS
 10
6.992040
 20
1.955800
  0
VERTEX
  8
0
  6
CONTINUOUS
 10
6.991160
 20
1.246520
  0
VERTEX
  8
0
  6
CONTINUOUS
 10
6.955960
 20
1.261040
  0
SEQEND
  8
0
  0
SOLID
  8
0
 62
    15
 10
3.476880
 20
1.881000
 11
3.478200
 21
2.590280
 12
4.401760
 22
1.881000
 13
4.402640
 23
2.590280
  0
POLYLINE
  8
0
  6
CONTINUOUS
 66
     1
 40
0.000000
 41
0.000000
  0
VERTEX
  8
0
  6
CONTINUOUS
 10
3.476880
 20
1.881000
  0
VERTEX
  8
0
  6
CONTINUOUS
 10
3.478200
 20
2.590280
  0
VERTEX
  8
0
  6
CONTINUOUS
 10
4.402640
 20
2.590280
  0
VERTEX
  8
0
  6
CONTINUOUS
 10
4.401760
 20
1.881000
  0
VERTEX
  8
0
  6
CONTINUOUS
 10
3.476880
 20
1.881000
  0
SEQEND
  8
0
  0
SOLID
  8
0
 62
    15
 10
4.401760
 20
1.881000
 11
4.402640
 21
2.590280
 12
4.413200
 22
1.759560
 13
4.414520
 23
2.469280
  0
POLYLINE
  8
0
  6
CONTINUOUS
 66
     1
 40
0.000000
 41
0.000000
  0
VERTEX
  8
0
  6
CONTINUOUS
 10
4.401760
 20
1.881000
  0
VERTEX
  8
0
  6
CONTINUOUS
 10
4.402640
 20
2.590280
  0
VERTEX
  8
0
  6
CONTINUOUS
 10
4.414520
 20
2.469280
  0
VERTEX
  8
0
  6
CONTINUOUS
 10
4.413200
 20
1.759560
  0
VERTEX
  8
0
  6
CONTINUOUS
 10
4.401760
 20
1.881000
  0
SEQEND
  8
0
  0
SOLID
  8
0
 62
    15
 10
4.413200
 20
1.759560
 11
4.414520
 21
2.469280
 12
4.414960
 22
1.759560
 13
4.415840
 23
2.469280
  0
POLYLINE
  8
0
  6
CONTINUOUS
 66
     1
 40
0.000000
 41
0.000000
  0
VERTEX
  8
0
  6
CONTINUOUS
 10
4.413200
 20
1.759560
  0
VERTEX
  8
0
  6
CONTINUOUS
 10
4.414520
 20
2.469280
  0
VERTEX
  8
0
  6
CONTINUOUS
 10
4.415840
 20
2.469280
  0
VERTEX
  8
0
  6
CONTINUOUS
 10
4.414960
 20
1.759560
  0
VERTEX
  8
0
  6
CONTINUOUS
 10
4.413200
 20
1.759560
  0
SEQEND
  8
0
  0
SOLID
  8
0
 62
    15
 10
4.414960
 20
1.759560
 11
4.415840
 21
2.469280
 12
4.473480
 22
1.767040
 13
4.474800
 23
2.476760
  0
POLYLINE
  8
0
  6
CONTINUOUS
 66
     1
 40
0.000000
 41
0.000000
  0
VERTEX
  8
0
  6
CONTINUOUS
 10
4.414960
 20
1.759560
  0
VERTEX
  8
0
  6
CONTINUOUS
 10
4.415840
 20
2.469280
  0
VERTEX
  8
0
  6
CONTINUOUS
 10
4.474800
 20
2.476760
  0
VERTEX
  8
0
  6
CONTINUOUS
 10
4.473480
 20
1.767040
  0
VERTEX
  8
0
  6
CONTINUOUS
 10
4.414960
 20
1.759560
  0
SEQEND
  8
0
  0
SOLID
  8
0
 62
    15
 10
4.473480
 20
1.767040
 11
4.474800
 21
2.476760
 12
4.525400
 22
1.784640
 13
4.526280
 23
2.494360
  0
POLYLINE
  8
0
  6
CONTINUOUS
 66
     1
 40
0.000000
 41
0.000000
  0
VERTEX
  8
0
  6
CONTINUOUS
 10
4.473480
 20
1.767040
  0
VERTEX
  8
0
  6
CONTINUOUS
 10
4.474800
 20
2.476760
  0
VERTEX
  8
0
  6
CONTINUOUS
 10
4.526280
 20
2.494360
  0
VERTEX
  8
0
  6
CONTINUOUS
 10
4.525400
 20
1.784640
  0
VERTEX
  8
0
  6
CONTINUOUS
 10
4.473480
 20
1.767040
  0
SEQEND
  8
0
  0
SOLID
  8
0
 62
    15
 10
4.525400
 20
1.784640
 11
4.526280
 21
2.494360
 12
4.573360
 22
1.808840
 13
4.574240
 23
2.518560
  0
POLYLINE
  8
0
  6
CONTINUOUS
 66
     1
 40
0.000000
 41
0.000000
  0
VERTEX
  8
0
  6
CONTINUOUS
 10
4.525400
 20
1.784640
  0
VERTEX
  8
0
  6
CONTINUOUS
 10
4.526280
 20
2.494360
  0
VERTEX
  8
0
  6
CONTINUOUS
 10
4.574240
 20
2.518560
  0
VERTEX
  8
0
  6
CONTINUOUS
 10
4.573360
 20
1.808840
  0
VERTEX
  8
0
  6
CONTINUOUS
 10
4.525400
 20
1.784640
  0
SEQEND
  8
0
  0
SOLID
  8
0
 62
    15
 10
6.079920
 20
1.461240
 11
6.081240
 21
2.170960
 12
6.080360
 22
1.461680
 13
6.081240
 23
2.171400
  0
POLYLINE
  8
0
  6
CONTINUOUS
 66
     1
 40
0.000000
 41
0.000000
  0
VERTEX
  8
0
  6
CONTINUOUS
 10
6.079920
 20
1.461240
  0
VERTEX
  8
0
  6
CONTINUOUS
 10
6.081240
 20
2.170960
  0
VERTEX
  8
0
  6
CONTINUOUS
 10
6.081240
 20
2.171400
  0
VERTEX
  8
0
  6
CONTINUOUS
 10
6.080360
 20
1.461680
  0
VERTEX
  8
0
  6
CONTINUOUS
 10
6.079920
 20
1.461240
  0
SEQEND
  8
0
  0
SOLID
  8
0
 62
    15
 10
5.904800
 20
1.377640
 11
5.905680
 21
2.087360
 12
5.940880
 22
1.369720
 13
5.942200
 23
2.079440
  0
POLYLINE
  8
0
  6
CONTINUOUS
 66
     1
 40
0.000000
 41
0.000000
  0
VERTEX
  8
0
  6
CONTINUOUS
 10
5.904800
 20
1.377640
  0
VERTEX
  8
0
  6
CONTINUOUS
 10
5.905680
 20
2.087360
  0
VERTEX
  8
0
  6
CONTINUOUS
 10
5.942200
 20
2.079440
  0
VERTEX
  8
0
  6
CONTINUOUS
 10
5.940880
 20
1.369720
  0
VERTEX
  8
0
  6
CONTINUOUS
 10
5.904800
 20
1.377640
  0
SEQEND
  8
0
  0
SOLID
  8
0
 62
    15
 10
4.596680
 20
1.822480
 11
4.598000
 21
2.532200
 12
4.608560
 22
1.829520
 13
4.609880
 23
2.538800
  0
POLYLINE
  8
0
  6
CONTINUOUS
 66
     1
 40
0.000000
 41
0.000000
  0
VERTEX
  8
0
  6
CONTINUOUS
 10
4.596680
 20
1.822480
  0
VERTEX
  8
0
  6
CONTINUOUS
 10
4.598000
 20
2.532200
  0
VERTEX
  8
0
  6
CONTINUOUS
 10
4.609880
 20
2.538800
  0
VERTEX
  8
0
  6
CONTINUOUS
 10
4.608560
 20
1.829520
  0
VERTEX
  8
0
  6
CONTINUOUS
 10
4.596680
 20
1.822480
  0
SEQEND
  8
0
  0
SOLID
  8
0
 62
    15
 10
4.608560
 20
1.829520
 11
4.609880
 21
2.538800
 12
4.620880
 22
1.836560
 13
4.621760
 23
2.545840
  0
POLYLINE
  8
0
  6
CONTINUOUS
 66
     1
 40
0.000000
 41
0.000000
  0
VERTEX
  8
0
  6
CONTINUOUS
 10
4.608560
 20
1.829520
  0
VERTEX
  8
0
  6
CONTINUOUS
 10
4.609880
 20
2.538800
  0
VERTEX
  8
0
  6
CONTINUOUS
 10
4.621760
 20
2.545840
  0
VERTEX
  8
0
  6
CONTINUOUS
 10
4.620880
 20
1.836560
  0
VERTEX
  8
0
  6
CONTINUOUS
 10
4.608560
 20
1.829520
  0
SEQEND
  8
0
  0
SOLID
  8
0
 62
    15
 10
4.620880
 20
1.836560
 11
4.621760
 21
2.545840
 12
4.671040
 22
1.863840
 13
4.671920
 23
2.573120
  0
POLYLINE
  8
0
  6
CONTINUOUS
 66
     1
 40
0.000000
 41
0.000000
  0
VERTEX
  8
0
  6
CONTINUOUS
 10
4.620880
 20
1.836560
  0
VERTEX
  8
0
  6
CONTINUOUS
 10
4.621760
 20
2.545840
  0
VERTEX
  8
0
  6
CONTINUOUS
 10
4.671920
 20
2.573120
  0
VERTEX
  8
0
  6
CONTINUOUS
 10
4.671040
 20
1.863840
  0
VERTEX
  8
0
  6
CONTINUOUS
 10
4.620880
 20
1.836560
  0
SEQEND
  8
0
  0
SOLID
  8
0
 62
    15
 10
4.671040
 20
1.863840
 11
4.671920
 21
2.573120
 12
4.727360
 22
1.887160
 13
4.728240
 23
2.596880
  0
POLYLINE
  8
0
  6
CONTINUOUS
 66
     1
 40
0.000000
 41
0.000000
  0
VERTEX
  8
0
  6
CONTINUOUS
 10
4.671040
 20
1.863840
  0
VERTEX
  8
0
  6
CONTINUOUS
 10
4.671920
 20
2.573120
  0
VERTEX
  8
0
  6
CONTINUOUS
 10
4.728240
 20
2.596880
  0
VERTEX
  8
0
  6
CONTINUOUS
 10
4.727360
 20
1.887160
  0
VERTEX
  8
0
  6
CONTINUOUS
 10
4.671040
 20
1.863840
  0
SEQEND
  8
0
  0
SOLID
  8
0
 62
    15
 10
4.727360
 20
1.887160
 11
4.728240
 21
2.596880
 12
4.792920
 22
1.903880
 13
4.793800
 23
2.613600
  0
POLYLINE
  8
0
  6
CONTINUOUS
 66
     1
 40
0.000000
 41
0.000000
  0
VERTEX
  8
0
  6
CONTINUOUS
 10
4.727360
 20
1.887160
  0
VERTEX
  8
0
  6
CONTINUOUS
 10
4.728240
 20
2.596880
  0
VERTEX
  8
0
  6
CONTINUOUS
 10
4.793800
 20
2.613600
  0
VERTEX
  8
0
  6
CONTINUOUS
 10
4.792920
 20
1.903880
  0
VERTEX
  8
0
  6
CONTINUOUS
 10
4.727360
 20
1.887160
  0
SEQEND
  8
0
  0
SOLID
  8
0
 62
    15
 10
4.792920
 20
1.903880
 11
4.793800
 21
2.613600
 12
4.829880
 22
1.908720
 13
4.831200
 23
2.618440
  0
POLYLINE
  8
0
  6
CONTINUOUS
 66
     1
 40
0.000000
 41
0.000000
  0
VERTEX
  8
0
  6
CONTINUOUS
 10
4.792920
 20
1.903880
  0
VERTEX
  8
0
  6
CONTINUOUS
 10
4.793800
 20
2.613600
  0
VERTEX
  8
0
  6
CONTINUOUS
 10
4.831200
 20
2.618440
  0
VERTEX
  8
0
  6
CONTINUOUS
 10
4.829880
 20
1.908720
  0
VERTEX
  8
0
  6
CONTINUOUS
 10
4.792920
 20
1.903880
  0
SEQEND
  8
0
  0
SOLID
  8
0
 62
    15
 10
4.829880
 20
1.908720
 11
4.831200
 21
2.618440
 12
4.870800
 22
1.910480
 13
4.872120
 23
2.620200
  0
POLYLINE
  8
0
  6
CONTINUOUS
 66
     1
 40
0.000000
 41
0.000000
  0
VERTEX
  8
0
  6
CONTINUOUS
 10
4.829880
 20
1.908720
  0
VERTEX
  8
0
  6
CONTINUOUS
 10
4.831200
 20
2.618440
  0
VERTEX
  8
0
  6
CONTINUOUS
 10
4.872120
 20
2.620200
  0
VERTEX
  8
0
  6
CONTINUOUS
 10
4.870800
 20
1.910480
  0
VERTEX
  8
0
  6
CONTINUOUS
 10
4.829880
 20
1.908720
  0
SEQEND
  8
0
  0
SOLID
  8
0
 62
    15
 10
4.870800
 20
1.910480
 11
4.872120
 21
2.620200
 12
4.950880
 22
1.909160
 13
4.951760
 23
2.618880
  0
POLYLINE
  8
0
  6
CONTINUOUS
 66
     1
 40
0.000000
 41
0.000000
  0
VERTEX
  8
0
  6
CONTINUOUS
 10
4.870800
 20
1.910480
  0
VERTEX
  8
0
  6
CONTINUOUS
 10
4.872120
 20
2.620200
  0
VERTEX
  8
0
  6
CONTINUOUS
 10
4.951760
 20
2.618880
  0
VERTEX
  8
0
  6
CONTINUOUS
 10
4.950880
 20
1.909160
  0
VERTEX
  8
0
  6
CONTINUOUS
 10
4.870800
 20
1.910480
  0
SEQEND
  8
0
  0
SOLID
  8
0
 62
    15
 10
4.950880
 20
1.909160
 11
4.951760
 21
2.618880
 12
5.022160
 22
1.904320
 13
5.023480
 23
2.614040
  0
POLYLINE
  8
0
  6
CONTINUOUS
 66
     1
 40
0.000000
 41
0.000000
  0
VERTEX
  8
0
  6
CONTINUOUS
 10
4.950880
 20
1.909160
  0
VERTEX
  8
0
  6
CONTINUOUS
 10
4.951760
 20
2.618880
  0
VERTEX
  8
0
  6
CONTINUOUS
 10
5.023480
 20
2.614040
  0
VERTEX
  8
0
  6
CONTINUOUS
 10
5.022160
 20
1.904320
  0
VERTEX
  8
0
  6
CONTINUOUS
 10
4.950880
 20
1.909160
  0
SEQEND
  8
0
  0
SOLID
  8
0
 62
    15
 10
5.022160
 20
1.904320
 11
5.023480
 21
2.614040
 12
5.088600
 22
1.892880
 13
5.089480
 23
2.602600
  0
POLYLINE
  8
0
  6
CONTINUOUS
 66
     1
 40
0.000000
 41
0.000000
  0
VERTEX
  8
0
  6
CONTINUOUS
 10
5.022160
 20
1.904320
  0
VERTEX
  8
0
  6
CONTINUOUS
 10
5.023480
 20
2.614040
  0
VERTEX
  8
0
  6
CONTINUOUS
 10
5.089480
 20
2.602600
  0
VERTEX
  8
0
  6
CONTINUOUS
 10
5.088600
 20
1.892880
  0
VERTEX
  8
0
  6
CONTINUOUS
 10
5.022160
 20
1.904320
  0
SEQEND
  8
0
  0
SOLID
  8
0
 62
    15
 10
5.088600
 20
1.892880
 11
5.089480
 21
2.602600
 12
5.153280
 22
1.871760
 13
5.154160
 23
2.581480
  0
POLYLINE
  8
0
  6
CONTINUOUS
 66
     1
 40
0.000000
 41
0.000000
  0
VERTEX
  8
0
  6
CONTINUOUS
 10
5.088600
 20
1.892880
  0
VERTEX
  8
0
  6
CONTINUOUS
 10
5.089480
 20
2.602600
  0
VERTEX
  8
0
  6
CONTINUOUS
 10
5.154160
 20
2.581480
  0
VERTEX
  8
0
  6
CONTINUOUS
 10
5.153280
 20
1.871760
  0
VERTEX
  8
0
  6
CONTINUOUS
 10
5.088600
 20
1.892880
  0
SEQEND
  8
0
  0
SOLID
  8
0
 62
    15
 10
5.153280
 20
1.871760
 11
5.154160
 21
2.581480
 12
5.219280
 22
1.838320
 13
5.220600
 23
2.548040
  0
POLYLINE
  8
0
  6
CONTINUOUS
 66
     1
 40
0.000000
 41
0.000000
  0
VERTEX
  8
0
  6
CONTINUOUS
 10
5.153280
 20
1.871760
  0
VERTEX
  8
0
  6
CONTINUOUS
 10
5.154160
 20
2.581480
  0
VERTEX
  8
0
  6
CONTINUOUS
 10
5.220600
 20
2.548040
  0
VERTEX
  8
0
  6
CONTINUOUS
 10
5.219280
 20
1.838320
  0
VERTEX
  8
0
  6
CONTINUOUS
 10
5.153280
 20
1.871760
  0
SEQEND
  8
0
  0
SOLID
  8
0
 62
    15
 10
5.219280
 20
1.838320
 11
5.220600
 21
2.548040
 12
5.254040
 22
1.815880
 13
5.255360
 23
2.525600
  0
POLYLINE
  8
0
  6
CONTINUOUS
 66
     1
 40
0.000000
 41
0.000000
  0
VERTEX
  8
0
  6
CONTINUOUS
 10
5.219280
 20
1.838320
  0
VERTEX
  8
0
  6
CONTINUOUS
 10
5.220600
 20
2.548040
  0
VERTEX
  8
0
  6
CONTINUOUS
 10
5.255360
 20
2.525600
  0
VERTEX
  8
0
  6
CONTINUOUS
 10
5.254040
 20
1.815880
  0
VERTEX
  8
0
  6
CONTINUOUS
 10
5.219280
 20
1.838320
  0
SEQEND
  8
0
  0
SOLID
  8
0
 62
    15
 10
5.254040
 20
1.815880
 11
5.255360
 21
2.525600
 12
5.291000
 22
1.789480
 13
5.291880
 23
2.498760
  0
POLYLINE
  8
0
  6
CONTINUOUS
 66
     1
 40
0.000000
 41
0.000000
  0
VERTEX
  8
0
  6
CONTINUOUS
 10
5.254040
 20
1.815880
  0
VERTEX
  8
0
  6
CONTINUOUS
 10
5.255360
 20
2.525600
  0
VERTEX
  8
0
  6
CONTINUOUS
 10
5.291880
 20
2.498760
  0
VERTEX
  8
0
  6
CONTINUOUS
 10
5.291000
 20
1.789480
  0
VERTEX
  8
0
  6
CONTINUOUS
 10
5.254040
 20
1.815880
  0
SEQEND
  8
0
  0
SOLID
  8
0
 62
    15
 10
5.291000
 20
1.789480
 11
5.291880
 21
2.498760
 12
5.329720
 22
1.758240
 13
5.330600
 23
2.467960
  0
POLYLINE
  8
0
  6
CONTINUOUS
 66
     1
 40
0.000000
 41
0.000000
  0
VERTEX
  8
0
  6
CONTINUOUS
 10
5.291000
 20
1.789480
  0
VERTEX
  8
0
  6
CONTINUOUS
 10
5.291880
 20
2.498760
  0
VERTEX
  8
0
  6
CONTINUOUS
 10
5.330600
 20
2.467960
  0
VERTEX
  8
0
  6
CONTINUOUS
 10
5.329720
 20
1.758240
  0
VERTEX
  8
0
  6
CONTINUOUS
 10
5.291000
 20
1.789480
  0
SEQEND
  8
0
  0
SOLID
  8
0
 62
    15
 10
5.329720
 20
1.758240
 11
5.330600
 21
2.467960
 12
5.370640
 22
1.722600
 13
5.371960
 23
2.431880
  0
POLYLINE
  8
0
  6
CONTINUOUS
 66
     1
 40
0.000000
 41
0.000000
  0
VERTEX
  8
0
  6
CONTINUOUS
 10
5.329720
 20
1.758240
  0
VERTEX
  8
0
  6
CONTINUOUS
 10
5.330600
 20
2.467960
  0
VERTEX
  8
0
  6
CONTINUOUS
 10
5.371960
 20
2.431880
  0
VERTEX
  8
0
  6
CONTINUOUS
 10
5.370640
 20
1.722600
  0
VERTEX
  8
0
  6
CONTINUOUS
 10
5.329720
 20
1.758240
  0
SEQEND
  8
0
  0
SOLID
  8
0
 62
    15
 10
5.370640
 20
1.722600
 11
5.371960
 21
2.431880
 12
5.415080
 22
1.681240
 13
5.416400
 23
2.390960
  0
POLYLINE
  8
0
  6
CONTINUOUS
 66
     1
 40
0.000000
 41
0.000000
  0
VERTEX
  8
0
  6
CONTINUOUS
 10
5.370640
 20
1.722600
  0
VERTEX
  8
0
  6
CONTINUOUS
 10
5.371960
 20
2.431880
  0
VERTEX
  8
0
  6
CONTINUOUS
 10
5.416400
 20
2.390960
  0
VERTEX
  8
0
  6
CONTINUOUS
 10
5.415080
 20
1.681240
  0
VERTEX
  8
0
  6
CONTINUOUS
 10
5.370640
 20
1.722600
  0
SEQEND
  8
0
  0
SOLID
  8
0
 62
    15
 10
5.415080
 20
1.681240
 11
5.416400
 21
2.390960
 12
5.463040
 22
1.634600
 13
5.463920
 23
2.344320
  0
POLYLINE
  8
0
  6
CONTINUOUS
 66
     1
 40
0.000000
 41
0.000000
  0
VERTEX
  8
0
  6
CONTINUOUS
 10
5.415080
 20
1.681240
  0
VERTEX
  8
0
  6
CONTINUOUS
 10
5.416400
 20
2.390960
  0
VERTEX
  8
0
  6
CONTINUOUS
 10
5.463920
 20
2.344320
  0
VERTEX
  8
0
  6
CONTINUOUS
 10
5.463040
 20
1.634600
  0
VERTEX
  8
0
  6
CONTINUOUS
 10
5.415080
 20
1.681240
  0
SEQEND
  8
0
  0
SOLID
  8
0
 62
    15
 10
5.463040
 20
1.634600
 11
5.463920
 21
2.344320
 12
5.509680
 22
1.588400
 13
5.511000
 23
2.298120
  0
POLYLINE
  8
0
  6
CONTINUOUS
 66
     1
 40
0.000000
 41
0.000000
  0
VERTEX
  8
0
  6
CONTINUOUS
 10
5.463040
 20
1.634600
  0
VERTEX
  8
0
  6
CONTINUOUS
 10
5.463920
 20
2.344320
  0
VERTEX
  8
0
  6
CONTINUOUS
 10
5.511000
 20
2.298120
  0
VERTEX
  8
0
  6
CONTINUOUS
 10
5.509680
 20
1.588400
  0
VERTEX
  8
0
  6
CONTINUOUS
 10
5.463040
 20
1.634600
  0
SEQEND
  8
0
  0
SOLID
  8
0
 62
    15
 10
5.509680
 20
1.588400
 11
5.511000
 21
2.298120
 12
5.551040
 22
1.549240
 13
5.552360
 23
2.258960
  0
POLYLINE
  8
0
  6
CONTINUOUS
 66
     1
 40
0.000000
 41
0.000000
  0
VERTEX
  8
0
  6
CONTINUOUS
 10
5.509680
 20
1.588400
  0
VERTEX
  8
0
  6
CONTINUOUS
 10
5.511000
 20
2.298120
  0
VERTEX
  8
0
  6
CONTINUOUS
 10
5.552360
 20
2.258960
  0
VERTEX
  8
0
  6
CONTINUOUS
 10
5.551040
 20
1.549240
  0
VERTEX
  8
0
  6
CONTINUOUS
 10
5.509680
 20
1.588400
  0
SEQEND
  8
0
  0
SOLID
  8
0
 62
    15
 10
5.551040
 20
1.549240
 11
5.552360
 21
2.258960
 12
5.587560
 22
1.515800
 13
5.588880
 23
2.225520
  0
POLYLINE
  8
0
  6
CONTINUOUS
 66
     1
 40
0.000000
 41
0.000000
  0
VERTEX
  8
0
  6
CONTINUOUS
 10
5.551040
 20
1.549240
  0
VERTEX
  8
0
  6
CONTINUOUS
 10
5.552360
 20
2.258960
  0
VERTEX
  8
0
  6
CONTINUOUS
 10
5.588880
 20
2.225520
  0
VERTEX
  8
0
  6
CONTINUOUS
 10
5.587560
 20
1.515800
  0
VERTEX
  8
0
  6
CONTINUOUS
 10
5.551040
 20
1.549240
  0
SEQEND
  8
0
  0
SOLID
  8
0
 62
    15
 10
5.587560
 20
1.515800
 11
5.588880
 21
2.225520
 12
5.620560
 22
1.488080
 13
5.621440
 23
2.197800
  0
POLYLINE
  8
0
  6
CONTINUOUS
 66
     1
 40
0.000000
 41
0.000000
  0
VERTEX
  8
0
  6
CONTINUOUS
 10
5.587560
 20
1.515800
  0
VERTEX
  8
0
  6
CONTINUOUS
 10
5.588880
 20
2.225520
  0
VERTEX
  8
0
  6
CONTINUOUS
 10
5.621440
 20
2.197800
  0
VERTEX
  8
0
  6
CONTINUOUS
 10
5.620560
 20
1.488080
  0
VERTEX
  8
0
  6
CONTINUOUS
 10
5.587560
 20
1.515800
  0
SEQEND
  8
0
  0
SOLID
  8
0
 62
    15
 10
5.620560
 20
1.488080
 11
5.621440
 21
2.197800
 12
5.649600
 22
1.465200
 13
5.650920
 23
2.174920
  0
POLYLINE
  8
0
  6
CONTINUOUS
 66
     1
 40
0.000000
 41
0.000000
  0
VERTEX
  8
0
  6
CONTINUOUS
 10
5.620560
 20
1.488080
  0
VERTEX
  8
0
  6
CONTINUOUS
 10
5.621440
 20
2.197800
  0
VERTEX
  8
0
  6
CONTINUOUS
 10
5.650920
 20
2.174920
  0
VERTEX
  8
0
  6
CONTINUOUS
 10
5.649600
 20
1.465200
  0
VERTEX
  8
0
  6
CONTINUOUS
 10
5.620560
 20
1.488080
  0
SEQEND
  8
0
  0
SOLID
  8
0
 62
    15
 10
5.649600
 20
1.465200
 11
5.650920
 21
2.174920
 12
5.676440
 22
1.447160
 13
5.677320
 23
2.156440
  0
POLYLINE
  8
0
  6
CONTINUOUS
 66
     1
 40
0.000000
 41
0.000000
  0
VERTEX
  8
0
  6
CONTINUOUS
 10
5.649600
 20
1.465200
  0
VERTEX
  8
0
  6
CONTINUOUS
 10
5.650920
 20
2.174920
  0
VERTEX
  8
0
  6
CONTINUOUS
 10
5.677320
 20
2.156440
  0
VERTEX
  8
0
  6
CONTINUOUS
 10
5.676440
 20
1.447160
  0
VERTEX
  8
0
  6
CONTINUOUS
 10
5.649600
 20
1.465200
  0
SEQEND
  8
0
  0
SOLID
  8
0
 62
    15
 10
5.676440
 20
1.447160
 11
5.677320
 21
2.156440
 12
5.723960
 22
1.420760
 13
5.725280
 23
2.130480
  0
POLYLINE
  8
0
  6
CONTINUOUS
 66
     1
 40
0.000000
 41
0.000000
  0
VERTEX
  8
0
  6
CONTINUOUS
 10
5.676440
 20
1.447160
  0
VERTEX
  8
0
  6
CONTINUOUS
 10
5.677320
 20
2.156440
  0
VERTEX
  8
0
  6
CONTINUOUS
 10
5.725280
 20
2.130480
  0
VERTEX
  8
0
  6
CONTINUOUS
 10
5.723960
 20
1.420760
  0
VERTEX
  8
0
  6
CONTINUOUS
 10
5.676440
 20
1.447160
  0
SEQEND
  8
0
  0
SOLID
  8
0
 62
    15
 10
5.723960
 20
1.420760
 11
5.725280
 21
2.130480
 12
5.769280
 22
1.404480
 13
5.770160
 23
2.114200
  0
POLYLINE
  8
0
  6
CONTINUOUS
 66
     1
 40
0.000000
 41
0.000000
  0
VERTEX
  8
0
  6
CONTINUOUS
 10
5.723960
 20
1.420760
  0
VERTEX
  8
0
  6
CONTINUOUS
 10
5.725280
 20
2.130480
  0
VERTEX
  8
0
  6
CONTINUOUS
 10
5.770160
 20
2.114200
  0
VERTEX
  8
0
  6
CONTINUOUS
 10
5.769280
 20
1.404480
  0
VERTEX
  8
0
  6
CONTINUOUS
 10
5.723960
 20
1.420760
  0
SEQEND
  8
0
  0
SOLID
  8
0
 62
    15
 10
5.769280
 20
1.404480
 11
5.770160
 21
2.114200
 12
5.816800
 22
1.393920
 13
5.817680
 23
2.103640
  0
POLYLINE
  8
0
  6
CONTINUOUS
 66
     1
 40
0.000000
 41
0.000000
  0
VERTEX
  8
0
  6
CONTINUOUS
 10
5.769280
 20
1.404480
  0
VERTEX
  8
0
  6
CONTINUOUS
 10
5.770160
 20
2.114200
  0
VERTEX
  8
0
  6
CONTINUOUS
 10
5.817680
 20
2.103640
  0
VERTEX
  8
0
  6
CONTINUOUS
 10
5.816800
 20
1.393920
  0
VERTEX
  8
0
  6
CONTINUOUS
 10
5.769280
 20
1.404480
  0
SEQEND
  8
0
  0
SOLID
  8
0
 62
    15
 10
5.816800
 20
1.393920
 11
5.817680
 21
2.103640
 12
5.872240
 22
1.383800
 13
5.873560
 23
2.093520
  0
POLYLINE
  8
0
  6
CONTINUOUS
 66
     1
 40
0.000000
 41
0.000000
  0
VERTEX
  8
0
  6
CONTINUOUS
 10
5.816800
 20
1.393920
  0
VERTEX
  8
0
  6
CONTINUOUS
 10
5.817680
 20
2.103640
  0
VERTEX
  8
0
  6
CONTINUOUS
 10
5.873560
 20
2.093520
  0
VERTEX
  8
0
  6
CONTINUOUS
 10
5.872240
 20
1.383800
  0
VERTEX
  8
0
  6
CONTINUOUS
 10
5.816800
 20
1.393920
  0
SEQEND
  8
0
  0
SOLID
  8
0
 62
    15
 10
5.872240
 20
1.383800
 11
5.873560
 21
2.093520
 12
5.904800
 22
1.377640
 13
5.905680
 23
2.087360
  0
POLYLINE
  8
0
  6
CONTINUOUS
 66
     1
 40
0.000000
 41
0.000000
  0
VERTEX
  8
0
  6
CONTINUOUS
 10
5.872240
 20
1.383800
  0
VERTEX
  8
0
  6
CONTINUOUS
 10
5.873560
 20
2.093520
  0
VERTEX
  8
0
  6
CONTINUOUS
 10
5.905680
 20
2.087360
  0
VERTEX
  8
0
  6
CONTINUOUS
 10
5.904800
 20
1.377640
  0
VERTEX
  8
0
  6
CONTINUOUS
 10
5.872240
 20
1.383800
  0
SEQEND
  8
0
  0
SOLID
  8
0
 62
    15
 10
5.940880
 20
1.461680
 11
5.942200
 21
2.171400
 12
6.082560
 22
1.461680
 13
6.083880
 23
2.171400
  0
POLYLINE
  8
0
  6
CONTINUOUS
 66
     1
 40
0.000000
 41
0.000000
  0
VERTEX
  8
0
  6
CONTINUOUS
 10
5.940880
 20
1.461680
  0
VERTEX
  8
0
  6
CONTINUOUS
 10
5.942200
 20
2.171400
  0
VERTEX
  8
0
  6
CONTINUOUS
 10
6.083880
 20
2.171400
  0
VERTEX
  8
0
  6
CONTINUOUS
 10
6.082560
 20
1.461680
  0
VERTEX
  8
0
  6
CONTINUOUS
 10
5.940880
 20
1.461680
  0
SEQEND
  8
0
  0
SOLID
  8
0
 62
    15
 10
6.081240
 20
2.171400
 11
6.094440
 21
2.221560
 12
6.080360
 22
1.461680
 13
6.093560
 23
1.511840
  0
POLYLINE
  8
0
  6
CONTINUOUS
 66
     1
 40
0.000000
 41
0.000000
  0
VERTEX
  8
0
  6
CONTINUOUS
 10
6.081240
 20
2.171400
  0
VERTEX
  8
0
  6
CONTINUOUS
 10
6.094440
 20
2.221560
  0
VERTEX
  8
0
  6
CONTINUOUS
 10
6.093560
 20
1.511840
  0
VERTEX
  8
0
  6
CONTINUOUS
 10
6.080360
 20
1.461680
  0
VERTEX
  8
0
  6
CONTINUOUS
 10
6.081240
 20
2.171400
  0
SEQEND
  8
0
  0
POLYLINE
  8
0
  6
CONTINUOUS
 66
     1
 40
0.000000
 41
0.000000
  0
VERTEX
  8
0
  6
CONTINUOUS
 10
6.079920
 20
1.461240
  0
VERTEX
  8
0
  6
CONTINUOUS
 10
6.093560
 20
1.511840
  0
VERTEX
  8
0
  6
CONTINUOUS
 10
6.115120
 20
1.557600
  0
VERTEX
  8
0
  6
CONTINUOUS
 10
6.144160
 20
1.597640
  0
VERTEX
  8
0
  6
CONTINUOUS
 10
6.179800
 20
1.632400
  0
VERTEX
  8
0
  6
CONTINUOUS
 10
6.221160
 20
1.660120
  0
VERTEX
  8
0
  6
CONTINUOUS
 10
6.266480
 20
1.681240
  0
VERTEX
  8
0
  6
CONTINUOUS
 10
6.315760
 20
1.694000
  0
VERTEX
  8
0
  6
CONTINUOUS
 10
6.367680
 20
1.698400
  0
VERTEX
  8
0
  6
CONTINUOUS
 10
6.419160
 20
1.693560
  0
VERTEX
  8
0
  6
CONTINUOUS
 10
6.468440
 20
1.679920
  0
VERTEX
  8
0
  6
CONTINUOUS
 10
6.514640
 20
1.657920
  0
VERTEX
  8
0
  6
CONTINUOUS
 10
6.556440
 20
1.629320
  0
VERTEX
  8
0
  6
CONTINUOUS
 10
6.592960
 20
1.594120
  0
VERTEX
  8
0
  6
CONTINUOUS
 10
6.623320
 20
1.553640
  0
VERTEX
  8
0
  6
CONTINUOUS
 10
6.646640
 20
1.509200
  0
VERTEX
  8
0
  6
CONTINUOUS
 10
6.662480
 20
1.461240
  0
VERTEX
  8
0
  6
CONTINUOUS
 10
6.819120
 20
1.461240
  0
VERTEX
  8
0
  6
CONTINUOUS
 10
6.826600
 20
1.437920
  0
VERTEX
  8
0
  6
CONTINUOUS
 10
6.838040
 20
1.408880
  0
VERTEX
  8
0
  6
CONTINUOUS
 10
6.873240
 20
1.343760
  0
VERTEX
  8
0
  6
CONTINUOUS
 10
6.897000
 20
1.312080
  0
VERTEX
  8
0
  6
CONTINUOUS
 10
6.924720
 20
1.283480
  0
VERTEX
  8
0
  6
CONTINUOUS
 10
6.955960
 20
1.261040
  0
VERTEX
  8
0
  6
CONTINUOUS
 10
6.991160
 20
1.246520
  0
VERTEX
  8
0
  6
CONTINUOUS
 10
6.991160
 20
0.987800
  0
VERTEX
  8
0
  6
CONTINUOUS
 10
3.476880
 20
0.987800
  0
VERTEX
  8
0
  6
CONTINUOUS
 10
3.476880
 20
1.881000
  0
VERTEX
  8
0
  6
CONTINUOUS
 10
4.401760
 20
1.881000
  0
VERTEX
  8
0
  6
CONTINUOUS
 10
4.413200
 20
1.759560
  0
VERTEX
  8
0
  6
CONTINUOUS
 10
4.473480
 20
1.767040
  0
VERTEX
  8
0
  6
CONTINUOUS
 10
4.525400
 20
1.784640
  0
VERTEX
  8
0
  6
CONTINUOUS
 10
4.573360
 20
1.808840
  0
VERTEX
  8
0
  6
CONTINUOUS
 10
4.671040
 20
1.863840
  0
VERTEX
  8
0
  6
CONTINUOUS
 10
4.727360
 20
1.887160
  0
VERTEX
  8
0
  6
CONTINUOUS
 10
4.792920
 20
1.903880
  0
VERTEX
  8
0
  6
CONTINUOUS
 10
4.829880
 20
1.908720
  0
VERTEX
  8
0
  6
CONTINUOUS
 10
4.870800
 20
1.910480
  0
VERTEX
  8
0
  6
CONTINUOUS
 10
4.950880
 20
1.909160
  0
VERTEX
  8
0
  6
CONTINUOUS
 10
5.022160
 20
1.904320
  0
VERTEX
  8
0
  6
CONTINUOUS
 10
5.088600
 20
1.892880
  0
VERTEX
  8
0
  6
CONTINUOUS
 10
5.153280
 20
1.871760
  0
VERTEX
  8
0
  6
CONTINUOUS
 10
5.219280
 20
1.838320
  0
VERTEX
  8
0
  6
CONTINUOUS
 10
5.254040
 20
1.815880
  0
VERTEX
  8
0
  6
CONTINUOUS
 10
5.291000
 20
1.789480
  0
VERTEX
  8
0
  6
CONTINUOUS
 10
5.329720
 20
1.758240
  0
VERTEX
  8
0
  6
CONTINUOUS
 10
5.370640
 20
1.722600
  0
VERTEX
  8
0
  6
CONTINUOUS
 10
5.463040
 20
1.634600
  0
VERTEX
  8
0
  6
CONTINUOUS
 10
5.551040
 20
1.549240
  0
VERTEX
  8
0
  6
CONTINUOUS
 10
5.587560
 20
1.515800
  0
VERTEX
  8
0
  6
CONTINUOUS
 10
5.649600
 20
1.465200
  0
VERTEX
  8
0
  6
CONTINUOUS
 10
5.676440
 20
1.447160
  0
VERTEX
  8
0
  6
CONTINUOUS
 10
5.723960
 20
1.420760
  0
VERTEX
  8
0
  6
CONTINUOUS
 10
5.769280
 20
1.404480
  0
VERTEX
  8
0
  6
CONTINUOUS
 10
5.816800
 20
1.393920
  0
VERTEX
  8
0
  6
CONTINUOUS
 10
5.904800
 20
1.377640
  0
VERTEX
  8
0
  6
CONTINUOUS
 10
5.940880
 20
1.369720
  0
VERTEX
  8
0
  6
CONTINUOUS
 10
5.940880
 20
1.461680
  0
VERTEX
  8
0
  6
CONTINUOUS
 10
6.082560
 20
1.461680
  0
VERTEX
  8
0
  6
CONTINUOUS
 10
6.079920
 20
1.461240
  0
SEQEND
  8
0
  0
TEXT
  8
0
 10
4.938560
 20
0.761200
 40
0.138219
  1
BA  523
 41
1.000000
  7
SN0
 71
     0
 72
     5
 11
5.529156
 21
0.761200
  0
TEXT
  8
0
 10
4.782360
 20
0.569800
 40
0.138219
  1
7/8" x 3-1/2"
 41
1.000000
  7
SN0
 71
     0
 72
     5
 11
5.683457
 21
0.569800
  0
ENDSEC
  0
EOF
