  0
SECTION
  2
HEADER
  9
$ACADVER
  1
AC1006
  9
$EXTMIN
 10
3.777400
 20
0.480480
  9
$EXTMAX
 10
6.781280
 20
3.377880
  9
$LTSCALE
 40
0.044000
  9
$PDMODE
 70
    35
  9
$PDSIZE
 40
0.035200
  0
ENDSEC
  0
SECTION
  2
TABLES
  0
TABLE
  2
LTYPE
 70
     9
  0
LTYPE
  2
CONTINUOUS
 70
    64
  3
Solid line
 72
    65
 73
     0
 40
0.000000
  0
LTYPE
  2
DASHED
 70
    64
  3
__ __ __ __ __ __ __ __ __ __ __ __ __ __ __
 72
    65
 73
     2
 40
0.000330
 49
0.000220
 49
-0.000110
  0
LTYPE
  2
HIDDEN
 70
    64
  3
 _ _ _ _ _ _ _ _ _ _ _ _ _ _ _ _ _ _ _ _ _ _
 72
    65
 73
     2
 40
0.000165
 49
0.000110
 49
-0.000055
  0
LTYPE
  2
CENTER
 70
    64
  3
____ _ ____ _ ____ _ ____ _ ____ _ ____ _ ____
 72
    65
 73
     4
 40
0.000880
 49
0.000550
 49
-0.000110
 49
0.000110
 49
-0.000110
  0
LTYPE
  2
PHANTOM
 70
    64
  3
_____ _ _ _____ _ _ _____ _ _ _____ _ _ ____
 72
    65
 73
     6
 40
0.001100
 49
0.000550
 49
-0.000110
 49
0.000110
 49
-0.000110
 49
0.000110
 49
-0.000110
  0
LTYPE
  2
DOT
 70
    64
  3
...............................................
 72
    65
 73
     2
 40
0.000110
 49
0.000000
 49
-0.000110
  0
LTYPE
  2
DASHDOT
 70
    64
  3
__ . __ . __ . __ . __ . __ . __ . __ . __ . __
 72
    65
 73
     4
 40
0.000440
 49
0.000220
 49
-0.000110
 49
0.000000
 49
-0.000110
  0
LTYPE
  2
BORDER
 70
    64
  3
__ __ . __ __ . __ __ . __ __ . __ __ . __ __
 72
    65
 73
     6
 40
0.000770
 49
0.000220
 49
-0.000110
 49
0.000220
 49
-0.000110
 49
0.000000
 49
-0.000110
  0
LTYPE
  2
DIVIDE
 70
    64
  3
__ . . __ . . __ . . __ . . __ . . __ . . __
 72
    65
 73
     6
 40
0.000550
 49
0.000220
 49
-0.000110
 49
0.000000
 49
-0.000110
 49
0.000000
 49
-0.000110
  0
LTYPE
  2
DOTDOT
 70
    64
  3
 . .  . .  . .  . .  . .  . . 
 72
    65
 73
     5
 40
0.000242
 49
-0.000110
 49
0.000000
 49
-0.000110
 49
0.000000
 49
-0.000110
  0
ENDTAB
  0
TABLE
  2
STYLE
 70
     2
  0
STYLE
 70
     0
  2
SN0
 40
0.000000
 41
0.000440
 50
0.000000
 71
     0
 42
0.000000
  3
ROMAND
  0
STYLE
 70
    68
  2
SV0
 40
0.000000
 41
0.000440
 50
0.000000
 71
     0
 42
0.000000
  3
ROMAND
  0
ENDTAB
  0
TABLE
  2
LAYER
 70
     3
  0
LAYER
  2
FOREGROUND
 70
    64
 62
     7
  6
CONTINUOUS
  0
LAYER
  2
BACKGROUND
 70
    65
 62
    -7
  6
CONTINUOUS
  0
LAYER
  2
0
 70
    64
 62
     7
  6
CONTINUOUS
  0
ENDTAB
  0
ENDSEC
  0
SECTION
  2
ENTITIES
  0
POLYLINE
  8
FOREGROUND
  6
CONTINUOUS
 66
     1
 40
0.000000
 41
0.000000
  0
VERTEX
  8
FOREGROUND
  6
CONTINUOUS
 10
0.000000
 20
3.858360
  0
VERTEX
  8
FOREGROUND
  6
CONTINUOUS
 10
8.499920
 20
3.858360
  0
VERTEX
  8
FOREGROUND
  6
CONTINUOUS
 10
8.499920
 20
-7.141640
  0
VERTEX
  8
FOREGROUND
  6
CONTINUOUS
 10
0.000000
 20
-7.141640
  0
VERTEX
  8
FOREGROUND
  6
CONTINUOUS
 10
0.000000
 20
3.858360
  0
SEQEND
  8
0
  0
POLYLINE
  8
FOREGROUND
  6
CONTINUOUS
 66
     1
 40
0.000000
 41
0.000000
  0
VERTEX
  8
FOREGROUND
  6
CONTINUOUS
 10
0.000000
 20
3.858360
  0
VERTEX
  8
FOREGROUND
  6
CONTINUOUS
 10
8.499920
 20
3.858360
  0
VERTEX
  8
FOREGROUND
  6
CONTINUOUS
 10
8.499920
 20
-7.141640
  0
VERTEX
  8
FOREGROUND
  6
CONTINUOUS
 10
0.000000
 20
-7.141640
  0
VERTEX
  8
FOREGROUND
  6
CONTINUOUS
 10
0.000000
 20
3.858360
  0
SEQEND
  8
0
  0
POLYLINE
  8
0
  6
CONTINUOUS
 66
     1
 40
0.014080
 41
0.014080
  0
VERTEX
  8
0
  6
CONTINUOUS
 10
6.471520
 20
1.337600
  0
VERTEX
  8
0
  6
CONTINUOUS
 10
6.471520
 20
1.471360
  0
VERTEX
  8
0
  6
CONTINUOUS
 10
6.498800
 20
1.472680
  0
VERTEX
  8
0
  6
CONTINUOUS
 10
6.524760
 20
1.477080
  0
VERTEX
  8
0
  6
CONTINUOUS
 10
6.562160
 20
1.488080
  0
VERTEX
  8
0
  6
CONTINUOUS
 10
6.596920
 20
1.504800
  0
VERTEX
  8
0
  6
CONTINUOUS
 10
6.618040
 20
1.518440
  0
VERTEX
  8
0
  6
CONTINUOUS
 10
6.638720
 20
1.534280
  0
VERTEX
  8
0
  6
CONTINUOUS
 10
6.675240
 20
1.571680
  0
VERTEX
  8
0
  6
CONTINUOUS
 10
6.706480
 20
1.616120
  0
VERTEX
  8
0
  6
CONTINUOUS
 10
6.732440
 20
1.665840
  0
VERTEX
  8
0
  6
CONTINUOUS
 10
6.752240
 20
1.719960
  0
VERTEX
  8
0
  6
CONTINUOUS
 10
6.765880
 20
1.777600
  0
VERTEX
  8
0
  6
CONTINUOUS
 10
6.770280
 20
1.807520
  0
VERTEX
  8
0
  6
CONTINUOUS
 10
6.774240
 20
1.868240
  0
VERTEX
  8
0
  6
CONTINUOUS
 10
6.773800
 20
1.899040
  0
VERTEX
  8
0
  6
CONTINUOUS
 10
6.771600
 20
1.929840
  0
VERTEX
  8
0
  6
CONTINUOUS
 10
6.761480
 20
1.991000
  0
VERTEX
  8
0
  6
CONTINUOUS
 10
6.754000
 20
2.021360
  0
VERTEX
  8
0
  6
CONTINUOUS
 10
6.744320
 20
2.050840
  0
VERTEX
  8
0
  6
CONTINUOUS
 10
6.732880
 20
2.079880
  0
VERTEX
  8
0
  6
CONTINUOUS
 10
6.719680
 20
2.108040
  0
VERTEX
  8
0
  6
CONTINUOUS
 10
6.704280
 20
2.135320
  0
VERTEX
  8
0
  6
CONTINUOUS
 10
6.687120
 20
2.161720
  0
VERTEX
  8
0
  6
CONTINUOUS
 10
6.657640
 20
2.198680
  0
VERTEX
  8
0
  6
CONTINUOUS
 10
6.582840
 20
2.273480
  0
VERTEX
  8
0
  6
CONTINUOUS
 10
6.508040
 20
2.339480
  0
VERTEX
  8
0
  6
CONTINUOUS
 10
6.430160
 20
2.398880
  0
VERTEX
  8
0
  6
CONTINUOUS
 10
6.342600
 20
2.460920
  0
VERTEX
  8
0
  6
CONTINUOUS
 10
6.321040
 20
2.478960
  0
VERTEX
  8
0
  6
CONTINUOUS
 10
6.306520
 20
2.497000
  0
VERTEX
  8
0
  6
CONTINUOUS
 10
6.299920
 20
2.510200
  0
VERTEX
  8
0
  6
CONTINUOUS
 10
6.295960
 20
2.532200
  0
VERTEX
  8
0
  6
CONTINUOUS
 10
6.296840
 20
2.548920
  0
VERTEX
  8
0
  6
CONTINUOUS
 10
6.303000
 20
2.573560
  0
VERTEX
  8
0
  6
CONTINUOUS
 10
6.317960
 20
2.603040
  0
VERTEX
  8
0
  6
CONTINUOUS
 10
6.338640
 20
2.629000
  0
VERTEX
  8
0
  6
CONTINUOUS
 10
6.374280
 20
2.661120
  0
VERTEX
  8
0
  6
CONTINUOUS
 10
6.424880
 20
2.698520
  0
VERTEX
  8
0
  6
CONTINUOUS
 10
6.425320
 20
2.962520
  0
VERTEX
  8
0
  6
CONTINUOUS
 10
6.387480
 20
2.964280
  0
VERTEX
  8
0
  6
CONTINUOUS
 10
6.354920
 20
2.969120
  0
VERTEX
  8
0
  6
CONTINUOUS
 10
6.314880
 20
2.982320
  0
VERTEX
  8
0
  6
CONTINUOUS
 10
6.293320
 20
2.994200
  0
VERTEX
  8
0
  6
CONTINUOUS
 10
6.267360
 20
3.016200
  0
VERTEX
  8
0
  6
CONTINUOUS
 10
6.248000
 20
3.042600
  0
VERTEX
  8
0
  6
CONTINUOUS
 10
6.233040
 20
3.071640
  0
VERTEX
  8
0
  6
CONTINUOUS
 10
6.194760
 20
3.181640
  0
VERTEX
  8
0
  6
CONTINUOUS
 10
6.174520
 20
3.224760
  0
VERTEX
  8
0
  6
CONTINUOUS
 10
6.149880
 20
3.263040
  0
VERTEX
  8
0
  6
CONTINUOUS
 10
6.124360
 20
3.294720
  0
VERTEX
  8
0
  6
CONTINUOUS
 10
6.098840
 20
3.319360
  0
VERTEX
  8
0
  6
CONTINUOUS
 10
6.072440
 20
3.338720
  0
VERTEX
  8
0
  6
CONTINUOUS
 10
6.045600
 20
3.352800
  0
VERTEX
  8
0
  6
CONTINUOUS
 10
6.018760
 20
3.362480
  0
VERTEX
  8
0
  6
CONTINUOUS
 10
5.991480
 20
3.368200
  0
VERTEX
  8
0
  6
CONTINUOUS
 10
5.963760
 20
3.370400
  0
VERTEX
  8
0
  6
CONTINUOUS
 10
5.963760
 20
1.336720
  0
VERTEX
  8
0
  6
CONTINUOUS
 10
6.469320
 20
1.336720
  0
VERTEX
  8
0
  6
CONTINUOUS
 10
6.471520
 20
1.337600
  0
SEQEND
  8
0
  0
SOLID
  8
0
 62
    15
 10
4.116640
 20
2.194720
 11
4.756400
 21
2.574440
 12
4.110040
 22
2.162160
 13
4.749360
 23
2.541880
  0
POLYLINE
  8
0
  6
CONTINUOUS
 66
     1
 40
0.000000
 41
0.000000
  0
VERTEX
  8
0
  6
CONTINUOUS
 10
4.116640
 20
2.194720
  0
VERTEX
  8
0
  6
CONTINUOUS
 10
4.756400
 20
2.574440
  0
VERTEX
  8
0
  6
CONTINUOUS
 10
4.749360
 20
2.541880
  0
VERTEX
  8
0
  6
CONTINUOUS
 10
4.110040
 20
2.162160
  0
VERTEX
  8
0
  6
CONTINUOUS
 10
4.116640
 20
2.194720
  0
SEQEND
  8
0
  0
SOLID
  8
0
 62
    15
 10
3.832840
 20
2.983640
 11
4.472600
 21
3.363360
 12
3.859680
 22
2.974400
 13
4.499440
 23
3.354120
  0
POLYLINE
  8
0
  6
CONTINUOUS
 66
     1
 40
0.000000
 41
0.000000
  0
VERTEX
  8
0
  6
CONTINUOUS
 10
3.832840
 20
2.983640
  0
VERTEX
  8
0
  6
CONTINUOUS
 10
4.472600
 20
3.363360
  0
VERTEX
  8
0
  6
CONTINUOUS
 10
4.499440
 20
3.354120
  0
VERTEX
  8
0
  6
CONTINUOUS
 10
3.859680
 20
2.974400
  0
VERTEX
  8
0
  6
CONTINUOUS
 10
3.832840
 20
2.983640
  0
SEQEND
  8
0
  0
SOLID
  8
0
 62
    15
 10
3.859680
 20
2.974400
 11
4.499440
 21
3.354120
 12
3.886520
 22
2.960320
 13
4.526280
 23
3.339600
  0
POLYLINE
  8
0
  6
CONTINUOUS
 66
     1
 40
0.000000
 41
0.000000
  0
VERTEX
  8
0
  6
CONTINUOUS
 10
3.859680
 20
2.974400
  0
VERTEX
  8
0
  6
CONTINUOUS
 10
4.499440
 20
3.354120
  0
VERTEX
  8
0
  6
CONTINUOUS
 10
4.526280
 20
3.339600
  0
VERTEX
  8
0
  6
CONTINUOUS
 10
3.886520
 20
2.960320
  0
VERTEX
  8
0
  6
CONTINUOUS
 10
3.859680
 20
2.974400
  0
SEQEND
  8
0
  0
SOLID
  8
0
 62
    15
 10
3.886520
 20
2.960320
 11
4.526280
 21
3.339600
 12
3.912920
 22
2.940960
 13
4.552240
 23
3.320680
  0
POLYLINE
  8
0
  6
CONTINUOUS
 66
     1
 40
0.000000
 41
0.000000
  0
VERTEX
  8
0
  6
CONTINUOUS
 10
3.886520
 20
2.960320
  0
VERTEX
  8
0
  6
CONTINUOUS
 10
4.526280
 20
3.339600
  0
VERTEX
  8
0
  6
CONTINUOUS
 10
4.552240
 20
3.320680
  0
VERTEX
  8
0
  6
CONTINUOUS
 10
3.912920
 20
2.940960
  0
VERTEX
  8
0
  6
CONTINUOUS
 10
3.886520
 20
2.960320
  0
SEQEND
  8
0
  0
SOLID
  8
0
 62
    15
 10
3.912920
 20
2.940960
 11
4.552240
 21
3.320680
 12
3.938440
 22
2.915880
 13
4.578200
 23
3.295600
  0
POLYLINE
  8
0
  6
CONTINUOUS
 66
     1
 40
0.000000
 41
0.000000
  0
VERTEX
  8
0
  6
CONTINUOUS
 10
3.912920
 20
2.940960
  0
VERTEX
  8
0
  6
CONTINUOUS
 10
4.552240
 20
3.320680
  0
VERTEX
  8
0
  6
CONTINUOUS
 10
4.578200
 20
3.295600
  0
VERTEX
  8
0
  6
CONTINUOUS
 10
3.938440
 20
2.915880
  0
VERTEX
  8
0
  6
CONTINUOUS
 10
3.912920
 20
2.940960
  0
SEQEND
  8
0
  0
SOLID
  8
0
 62
    15
 10
3.938440
 20
2.915880
 11
4.578200
 21
3.295600
 12
3.963520
 22
2.884640
 13
4.603280
 23
3.264360
  0
POLYLINE
  8
0
  6
CONTINUOUS
 66
     1
 40
0.000000
 41
0.000000
  0
VERTEX
  8
0
  6
CONTINUOUS
 10
3.938440
 20
2.915880
  0
VERTEX
  8
0
  6
CONTINUOUS
 10
4.578200
 20
3.295600
  0
VERTEX
  8
0
  6
CONTINUOUS
 10
4.603280
 20
3.264360
  0
VERTEX
  8
0
  6
CONTINUOUS
 10
3.963520
 20
2.884640
  0
VERTEX
  8
0
  6
CONTINUOUS
 10
3.938440
 20
2.915880
  0
SEQEND
  8
0
  0
SOLID
  8
0
 62
    15
 10
3.963520
 20
2.884640
 11
4.603280
 21
3.264360
 12
3.988160
 22
2.846360
 13
4.627920
 23
3.226080
  0
POLYLINE
  8
0
  6
CONTINUOUS
 66
     1
 40
0.000000
 41
0.000000
  0
VERTEX
  8
0
  6
CONTINUOUS
 10
3.963520
 20
2.884640
  0
VERTEX
  8
0
  6
CONTINUOUS
 10
4.603280
 20
3.264360
  0
VERTEX
  8
0
  6
CONTINUOUS
 10
4.627920
 20
3.226080
  0
VERTEX
  8
0
  6
CONTINUOUS
 10
3.988160
 20
2.846360
  0
VERTEX
  8
0
  6
CONTINUOUS
 10
3.963520
 20
2.884640
  0
SEQEND
  8
0
  0
SOLID
  8
0
 62
    15
 10
3.988160
 20
2.846360
 11
4.627920
 21
3.226080
 12
4.008840
 22
2.802800
 13
4.648600
 23
3.182520
  0
POLYLINE
  8
0
  6
CONTINUOUS
 66
     1
 40
0.000000
 41
0.000000
  0
VERTEX
  8
0
  6
CONTINUOUS
 10
3.988160
 20
2.846360
  0
VERTEX
  8
0
  6
CONTINUOUS
 10
4.627920
 20
3.226080
  0
VERTEX
  8
0
  6
CONTINUOUS
 10
4.648600
 20
3.182520
  0
VERTEX
  8
0
  6
CONTINUOUS
 10
4.008840
 20
2.802800
  0
VERTEX
  8
0
  6
CONTINUOUS
 10
3.988160
 20
2.846360
  0
SEQEND
  8
0
  0
SOLID
  8
0
 62
    15
 10
4.008840
 20
2.802800
 11
4.648600
 21
3.182520
 12
4.024240
 22
2.757920
 13
4.664000
 23
3.137640
  0
POLYLINE
  8
0
  6
CONTINUOUS
 66
     1
 40
0.000000
 41
0.000000
  0
VERTEX
  8
0
  6
CONTINUOUS
 10
4.008840
 20
2.802800
  0
VERTEX
  8
0
  6
CONTINUOUS
 10
4.648600
 20
3.182520
  0
VERTEX
  8
0
  6
CONTINUOUS
 10
4.664000
 20
3.137640
  0
VERTEX
  8
0
  6
CONTINUOUS
 10
4.024240
 20
2.757920
  0
VERTEX
  8
0
  6
CONTINUOUS
 10
4.008840
 20
2.802800
  0
SEQEND
  8
0
  0
SOLID
  8
0
 62
    15
 10
4.024240
 20
2.757920
 11
4.664000
 21
3.137640
 12
4.031280
 22
2.735920
 13
4.671040
 23
3.115640
  0
POLYLINE
  8
0
  6
CONTINUOUS
 66
     1
 40
0.000000
 41
0.000000
  0
VERTEX
  8
0
  6
CONTINUOUS
 10
4.024240
 20
2.757920
  0
VERTEX
  8
0
  6
CONTINUOUS
 10
4.664000
 20
3.137640
  0
VERTEX
  8
0
  6
CONTINUOUS
 10
4.671040
 20
3.115640
  0
VERTEX
  8
0
  6
CONTINUOUS
 10
4.031280
 20
2.735920
  0
VERTEX
  8
0
  6
CONTINUOUS
 10
4.024240
 20
2.757920
  0
SEQEND
  8
0
  0
SOLID
  8
0
 62
    15
 10
4.031280
 20
2.735920
 11
4.671040
 21
3.115640
 12
4.038760
 22
2.714360
 13
4.678520
 23
3.093640
  0
POLYLINE
  8
0
  6
CONTINUOUS
 66
     1
 40
0.000000
 41
0.000000
  0
VERTEX
  8
0
  6
CONTINUOUS
 10
4.031280
 20
2.735920
  0
VERTEX
  8
0
  6
CONTINUOUS
 10
4.671040
 20
3.115640
  0
VERTEX
  8
0
  6
CONTINUOUS
 10
4.678520
 20
3.093640
  0
VERTEX
  8
0
  6
CONTINUOUS
 10
4.038760
 20
2.714360
  0
VERTEX
  8
0
  6
CONTINUOUS
 10
4.031280
 20
2.735920
  0
SEQEND
  8
0
  0
SOLID
  8
0
 62
    15
 10
4.038760
 20
2.714360
 11
4.678520
 21
3.093640
 12
4.056800
 22
2.673440
 13
4.696120
 23
3.053160
  0
POLYLINE
  8
0
  6
CONTINUOUS
 66
     1
 40
0.000000
 41
0.000000
  0
VERTEX
  8
0
  6
CONTINUOUS
 10
4.038760
 20
2.714360
  0
VERTEX
  8
0
  6
CONTINUOUS
 10
4.678520
 20
3.093640
  0
VERTEX
  8
0
  6
CONTINUOUS
 10
4.696120
 20
3.053160
  0
VERTEX
  8
0
  6
CONTINUOUS
 10
4.056800
 20
2.673440
  0
VERTEX
  8
0
  6
CONTINUOUS
 10
4.038760
 20
2.714360
  0
SEQEND
  8
0
  0
SOLID
  8
0
 62
    15
 10
4.056800
 20
2.673440
 11
4.696120
 21
3.053160
 12
4.081440
 22
2.637800
 13
4.721200
 23
3.017080
  0
POLYLINE
  8
0
  6
CONTINUOUS
 66
     1
 40
0.000000
 41
0.000000
  0
VERTEX
  8
0
  6
CONTINUOUS
 10
4.056800
 20
2.673440
  0
VERTEX
  8
0
  6
CONTINUOUS
 10
4.696120
 20
3.053160
  0
VERTEX
  8
0
  6
CONTINUOUS
 10
4.721200
 20
3.017080
  0
VERTEX
  8
0
  6
CONTINUOUS
 10
4.081440
 20
2.637800
  0
VERTEX
  8
0
  6
CONTINUOUS
 10
4.056800
 20
2.673440
  0
SEQEND
  8
0
  0
SOLID
  8
0
 62
    15
 10
4.081440
 20
2.637800
 11
4.721200
 21
3.017080
 12
4.097720
 22
2.622400
 13
4.737480
 23
3.002120
  0
POLYLINE
  8
0
  6
CONTINUOUS
 66
     1
 40
0.000000
 41
0.000000
  0
VERTEX
  8
0
  6
CONTINUOUS
 10
4.081440
 20
2.637800
  0
VERTEX
  8
0
  6
CONTINUOUS
 10
4.721200
 20
3.017080
  0
VERTEX
  8
0
  6
CONTINUOUS
 10
4.737480
 20
3.002120
  0
VERTEX
  8
0
  6
CONTINUOUS
 10
4.097720
 20
2.622400
  0
VERTEX
  8
0
  6
CONTINUOUS
 10
4.081440
 20
2.637800
  0
SEQEND
  8
0
  0
SOLID
  8
0
 62
    15
 10
4.097720
 20
2.622400
 11
4.737480
 21
3.002120
 12
4.117520
 22
2.609200
 13
4.757280
 23
2.988920
  0
POLYLINE
  8
0
  6
CONTINUOUS
 66
     1
 40
0.000000
 41
0.000000
  0
VERTEX
  8
0
  6
CONTINUOUS
 10
4.097720
 20
2.622400
  0
VERTEX
  8
0
  6
CONTINUOUS
 10
4.737480
 20
3.002120
  0
VERTEX
  8
0
  6
CONTINUOUS
 10
4.757280
 20
2.988920
  0
VERTEX
  8
0
  6
CONTINUOUS
 10
4.117520
 20
2.609200
  0
VERTEX
  8
0
  6
CONTINUOUS
 10
4.097720
 20
2.622400
  0
SEQEND
  8
0
  0
SOLID
  8
0
 62
    15
 10
4.117520
 20
2.609200
 11
4.757280
 21
2.988920
 12
4.140840
 22
2.598640
 13
4.780600
 23
2.978360
  0
POLYLINE
  8
0
  6
CONTINUOUS
 66
     1
 40
0.000000
 41
0.000000
  0
VERTEX
  8
0
  6
CONTINUOUS
 10
4.117520
 20
2.609200
  0
VERTEX
  8
0
  6
CONTINUOUS
 10
4.757280
 20
2.988920
  0
VERTEX
  8
0
  6
CONTINUOUS
 10
4.780600
 20
2.978360
  0
VERTEX
  8
0
  6
CONTINUOUS
 10
4.140840
 20
2.598640
  0
VERTEX
  8
0
  6
CONTINUOUS
 10
4.117520
 20
2.609200
  0
SEQEND
  8
0
  0
SOLID
  8
0
 62
    15
 10
4.140840
 20
2.598640
 11
4.780600
 21
2.978360
 12
4.169000
 22
2.590720
 13
4.808320
 23
2.970440
  0
POLYLINE
  8
0
  6
CONTINUOUS
 66
     1
 40
0.000000
 41
0.000000
  0
VERTEX
  8
0
  6
CONTINUOUS
 10
4.140840
 20
2.598640
  0
VERTEX
  8
0
  6
CONTINUOUS
 10
4.780600
 20
2.978360
  0
VERTEX
  8
0
  6
CONTINUOUS
 10
4.808320
 20
2.970440
  0
VERTEX
  8
0
  6
CONTINUOUS
 10
4.169000
 20
2.590720
  0
VERTEX
  8
0
  6
CONTINUOUS
 10
4.140840
 20
2.598640
  0
SEQEND
  8
0
  0
SOLID
  8
0
 62
    15
 10
4.169000
 20
2.590720
 11
4.808320
 21
2.970440
 12
4.201560
 22
2.585880
 13
4.840880
 23
2.965600
  0
POLYLINE
  8
0
  6
CONTINUOUS
 66
     1
 40
0.000000
 41
0.000000
  0
VERTEX
  8
0
  6
CONTINUOUS
 10
4.169000
 20
2.590720
  0
VERTEX
  8
0
  6
CONTINUOUS
 10
4.808320
 20
2.970440
  0
VERTEX
  8
0
  6
CONTINUOUS
 10
4.840880
 20
2.965600
  0
VERTEX
  8
0
  6
CONTINUOUS
 10
4.201560
 20
2.585880
  0
VERTEX
  8
0
  6
CONTINUOUS
 10
4.169000
 20
2.590720
  0
SEQEND
  8
0
  0
SOLID
  8
0
 62
    15
 10
4.201560
 20
2.585880
 11
4.840880
 21
2.965600
 12
4.239400
 22
2.584120
 13
4.879160
 23
2.963840
  0
POLYLINE
  8
0
  6
CONTINUOUS
 66
     1
 40
0.000000
 41
0.000000
  0
VERTEX
  8
0
  6
CONTINUOUS
 10
4.201560
 20
2.585880
  0
VERTEX
  8
0
  6
CONTINUOUS
 10
4.840880
 20
2.965600
  0
VERTEX
  8
0
  6
CONTINUOUS
 10
4.879160
 20
2.963840
  0
VERTEX
  8
0
  6
CONTINUOUS
 10
4.239400
 20
2.584120
  0
VERTEX
  8
0
  6
CONTINUOUS
 10
4.201560
 20
2.585880
  0
SEQEND
  8
0
  0
SOLID
  8
0
 62
    15
 10
4.239400
 20
2.584120
 11
4.879160
 21
2.963840
 12
4.239400
 22
2.321000
 13
4.879160
 23
2.700280
  0
POLYLINE
  8
0
  6
CONTINUOUS
 66
     1
 40
0.000000
 41
0.000000
  0
VERTEX
  8
0
  6
CONTINUOUS
 10
4.239400
 20
2.584120
  0
VERTEX
  8
0
  6
CONTINUOUS
 10
4.879160
 20
2.963840
  0
VERTEX
  8
0
  6
CONTINUOUS
 10
4.879160
 20
2.700280
  0
VERTEX
  8
0
  6
CONTINUOUS
 10
4.239400
 20
2.321000
  0
VERTEX
  8
0
  6
CONTINUOUS
 10
4.239400
 20
2.584120
  0
SEQEND
  8
0
  0
SOLID
  8
0
 62
    15
 10
4.239400
 20
2.321000
 11
4.879160
 21
2.700280
 12
4.234120
 22
2.315280
 13
4.873440
 23
2.695000
  0
POLYLINE
  8
0
  6
CONTINUOUS
 66
     1
 40
0.000000
 41
0.000000
  0
VERTEX
  8
0
  6
CONTINUOUS
 10
4.239400
 20
2.321000
  0
VERTEX
  8
0
  6
CONTINUOUS
 10
4.879160
 20
2.700280
  0
VERTEX
  8
0
  6
CONTINUOUS
 10
4.873440
 20
2.695000
  0
VERTEX
  8
0
  6
CONTINUOUS
 10
4.234120
 20
2.315280
  0
VERTEX
  8
0
  6
CONTINUOUS
 10
4.239400
 20
2.321000
  0
SEQEND
  8
0
  0
SOLID
  8
0
 62
    15
 10
4.234120
 20
2.315280
 11
4.873440
 21
2.695000
 12
4.227960
 22
2.310880
 13
4.867280
 23
2.690600
  0
POLYLINE
  8
0
  6
CONTINUOUS
 66
     1
 40
0.000000
 41
0.000000
  0
VERTEX
  8
0
  6
CONTINUOUS
 10
4.234120
 20
2.315280
  0
VERTEX
  8
0
  6
CONTINUOUS
 10
4.873440
 20
2.695000
  0
VERTEX
  8
0
  6
CONTINUOUS
 10
4.867280
 20
2.690600
  0
VERTEX
  8
0
  6
CONTINUOUS
 10
4.227960
 20
2.310880
  0
VERTEX
  8
0
  6
CONTINUOUS
 10
4.234120
 20
2.315280
  0
SEQEND
  8
0
  0
SOLID
  8
0
 62
    15
 10
4.227960
 20
2.310880
 11
4.867280
 21
2.690600
 12
4.219600
 22
2.305600
 13
4.859360
 23
2.684880
  0
POLYLINE
  8
0
  6
CONTINUOUS
 66
     1
 40
0.000000
 41
0.000000
  0
VERTEX
  8
0
  6
CONTINUOUS
 10
4.227960
 20
2.310880
  0
VERTEX
  8
0
  6
CONTINUOUS
 10
4.867280
 20
2.690600
  0
VERTEX
  8
0
  6
CONTINUOUS
 10
4.859360
 20
2.684880
  0
VERTEX
  8
0
  6
CONTINUOUS
 10
4.219600
 20
2.305600
  0
VERTEX
  8
0
  6
CONTINUOUS
 10
4.227960
 20
2.310880
  0
SEQEND
  8
0
  0
SOLID
  8
0
 62
    15
 10
4.219600
 20
2.305600
 11
4.859360
 21
2.684880
 12
4.199360
 22
2.291080
 13
4.839120
 23
2.670800
  0
POLYLINE
  8
0
  6
CONTINUOUS
 66
     1
 40
0.000000
 41
0.000000
  0
VERTEX
  8
0
  6
CONTINUOUS
 10
4.219600
 20
2.305600
  0
VERTEX
  8
0
  6
CONTINUOUS
 10
4.859360
 20
2.684880
  0
VERTEX
  8
0
  6
CONTINUOUS
 10
4.839120
 20
2.670800
  0
VERTEX
  8
0
  6
CONTINUOUS
 10
4.199360
 20
2.291080
  0
VERTEX
  8
0
  6
CONTINUOUS
 10
4.219600
 20
2.305600
  0
SEQEND
  8
0
  0
SOLID
  8
0
 62
    15
 10
4.199360
 20
2.291080
 11
4.839120
 21
2.670800
 12
4.176040
 22
2.272600
 13
4.815800
 23
2.652320
  0
POLYLINE
  8
0
  6
CONTINUOUS
 66
     1
 40
0.000000
 41
0.000000
  0
VERTEX
  8
0
  6
CONTINUOUS
 10
4.199360
 20
2.291080
  0
VERTEX
  8
0
  6
CONTINUOUS
 10
4.839120
 20
2.670800
  0
VERTEX
  8
0
  6
CONTINUOUS
 10
4.815800
 20
2.652320
  0
VERTEX
  8
0
  6
CONTINUOUS
 10
4.176040
 20
2.272600
  0
VERTEX
  8
0
  6
CONTINUOUS
 10
4.199360
 20
2.291080
  0
SEQEND
  8
0
  0
SOLID
  8
0
 62
    15
 10
4.176040
 20
2.272600
 11
4.815800
 21
2.652320
 12
4.152720
 22
2.250600
 13
4.792480
 23
2.630320
  0
POLYLINE
  8
0
  6
CONTINUOUS
 66
     1
 40
0.000000
 41
0.000000
  0
VERTEX
  8
0
  6
CONTINUOUS
 10
4.176040
 20
2.272600
  0
VERTEX
  8
0
  6
CONTINUOUS
 10
4.815800
 20
2.652320
  0
VERTEX
  8
0
  6
CONTINUOUS
 10
4.792480
 20
2.630320
  0
VERTEX
  8
0
  6
CONTINUOUS
 10
4.152720
 20
2.250600
  0
VERTEX
  8
0
  6
CONTINUOUS
 10
4.176040
 20
2.272600
  0
SEQEND
  8
0
  0
SOLID
  8
0
 62
    15
 10
4.152720
 20
2.250600
 11
4.792480
 21
2.630320
 12
4.132040
 22
2.224640
 13
4.771360
 23
2.604360
  0
POLYLINE
  8
0
  6
CONTINUOUS
 66
     1
 40
0.000000
 41
0.000000
  0
VERTEX
  8
0
  6
CONTINUOUS
 10
4.152720
 20
2.250600
  0
VERTEX
  8
0
  6
CONTINUOUS
 10
4.792480
 20
2.630320
  0
VERTEX
  8
0
  6
CONTINUOUS
 10
4.771360
 20
2.604360
  0
VERTEX
  8
0
  6
CONTINUOUS
 10
4.132040
 20
2.224640
  0
VERTEX
  8
0
  6
CONTINUOUS
 10
4.152720
 20
2.250600
  0
SEQEND
  8
0
  0
SOLID
  8
0
 62
    15
 10
4.132040
 20
2.224640
 11
4.771360
 21
2.604360
 12
4.116640
 22
2.194720
 13
4.756400
 23
2.574440
  0
POLYLINE
  8
0
  6
CONTINUOUS
 66
     1
 40
0.000000
 41
0.000000
  0
VERTEX
  8
0
  6
CONTINUOUS
 10
4.132040
 20
2.224640
  0
VERTEX
  8
0
  6
CONTINUOUS
 10
4.771360
 20
2.604360
  0
VERTEX
  8
0
  6
CONTINUOUS
 10
4.756400
 20
2.574440
  0
VERTEX
  8
0
  6
CONTINUOUS
 10
4.116640
 20
2.194720
  0
VERTEX
  8
0
  6
CONTINUOUS
 10
4.132040
 20
2.224640
  0
SEQEND
  8
0
  0
SOLID
  8
0
 62
    15
 10
3.777840
 20
2.991560
 11
4.417600
 21
3.371280
 12
3.832840
 22
2.983640
 13
4.472600
 23
3.363360
  0
POLYLINE
  8
0
  6
CONTINUOUS
 66
     1
 40
0.000000
 41
0.000000
  0
VERTEX
  8
0
  6
CONTINUOUS
 10
3.777840
 20
2.991560
  0
VERTEX
  8
0
  6
CONTINUOUS
 10
4.417600
 20
3.371280
  0
VERTEX
  8
0
  6
CONTINUOUS
 10
4.472600
 20
3.363360
  0
VERTEX
  8
0
  6
CONTINUOUS
 10
3.832840
 20
2.983640
  0
VERTEX
  8
0
  6
CONTINUOUS
 10
3.777840
 20
2.991560
  0
SEQEND
  8
0
  0
SOLID
  8
0
 62
    15
 10
4.110040
 20
2.162160
 11
4.749360
 21
2.541880
 12
4.114000
 22
2.131800
 13
4.753760
 23
2.511080
  0
POLYLINE
  8
0
  6
CONTINUOUS
 66
     1
 40
0.000000
 41
0.000000
  0
VERTEX
  8
0
  6
CONTINUOUS
 10
4.110040
 20
2.162160
  0
VERTEX
  8
0
  6
CONTINUOUS
 10
4.749360
 20
2.541880
  0
VERTEX
  8
0
  6
CONTINUOUS
 10
4.753760
 20
2.511080
  0
VERTEX
  8
0
  6
CONTINUOUS
 10
4.114000
 20
2.131800
  0
VERTEX
  8
0
  6
CONTINUOUS
 10
4.110040
 20
2.162160
  0
SEQEND
  8
0
  0
SOLID
  8
0
 62
    15
 10
4.114000
 20
2.131800
 11
4.753760
 21
2.511080
 12
4.129400
 22
2.106280
 13
4.769160
 23
2.486000
  0
POLYLINE
  8
0
  6
CONTINUOUS
 66
     1
 40
0.000000
 41
0.000000
  0
VERTEX
  8
0
  6
CONTINUOUS
 10
4.114000
 20
2.131800
  0
VERTEX
  8
0
  6
CONTINUOUS
 10
4.753760
 20
2.511080
  0
VERTEX
  8
0
  6
CONTINUOUS
 10
4.769160
 20
2.486000
  0
VERTEX
  8
0
  6
CONTINUOUS
 10
4.129400
 20
2.106280
  0
VERTEX
  8
0
  6
CONTINUOUS
 10
4.114000
 20
2.131800
  0
SEQEND
  8
0
  0
SOLID
  8
0
 62
    15
 10
4.129400
 20
2.106280
 11
4.769160
 21
2.486000
 12
4.156240
 22
2.082080
 13
4.796000
 23
2.461800
  0
POLYLINE
  8
0
  6
CONTINUOUS
 66
     1
 40
0.000000
 41
0.000000
  0
VERTEX
  8
0
  6
CONTINUOUS
 10
4.129400
 20
2.106280
  0
VERTEX
  8
0
  6
CONTINUOUS
 10
4.769160
 20
2.486000
  0
VERTEX
  8
0
  6
CONTINUOUS
 10
4.796000
 20
2.461800
  0
VERTEX
  8
0
  6
CONTINUOUS
 10
4.156240
 20
2.082080
  0
VERTEX
  8
0
  6
CONTINUOUS
 10
4.129400
 20
2.106280
  0
SEQEND
  8
0
  0
SOLID
  8
0
 62
    15
 10
4.156240
 20
2.082080
 11
4.796000
 21
2.461800
 12
4.194520
 22
2.054800
 13
4.833840
 23
2.434520
  0
POLYLINE
  8
0
  6
CONTINUOUS
 66
     1
 40
0.000000
 41
0.000000
  0
VERTEX
  8
0
  6
CONTINUOUS
 10
4.156240
 20
2.082080
  0
VERTEX
  8
0
  6
CONTINUOUS
 10
4.796000
 20
2.461800
  0
VERTEX
  8
0
  6
CONTINUOUS
 10
4.833840
 20
2.434520
  0
VERTEX
  8
0
  6
CONTINUOUS
 10
4.194520
 20
2.054800
  0
VERTEX
  8
0
  6
CONTINUOUS
 10
4.156240
 20
2.082080
  0
SEQEND
  8
0
  0
SOLID
  8
0
 62
    15
 10
4.194520
 20
2.054800
 11
4.833840
 21
2.434520
 12
4.205960
 22
2.047320
 13
4.845280
 23
2.427040
  0
POLYLINE
  8
0
  6
CONTINUOUS
 66
     1
 40
0.000000
 41
0.000000
  0
VERTEX
  8
0
  6
CONTINUOUS
 10
4.194520
 20
2.054800
  0
VERTEX
  8
0
  6
CONTINUOUS
 10
4.833840
 20
2.434520
  0
VERTEX
  8
0
  6
CONTINUOUS
 10
4.845280
 20
2.427040
  0
VERTEX
  8
0
  6
CONTINUOUS
 10
4.205960
 20
2.047320
  0
VERTEX
  8
0
  6
CONTINUOUS
 10
4.194520
 20
2.054800
  0
SEQEND
  8
0
  0
SOLID
  8
0
 62
    15
 10
4.205960
 20
2.047320
 11
4.845280
 21
2.427040
 12
4.217840
 22
2.038960
 13
4.857600
 23
2.418680
  0
POLYLINE
  8
0
  6
CONTINUOUS
 66
     1
 40
0.000000
 41
0.000000
  0
VERTEX
  8
0
  6
CONTINUOUS
 10
4.205960
 20
2.047320
  0
VERTEX
  8
0
  6
CONTINUOUS
 10
4.845280
 20
2.427040
  0
VERTEX
  8
0
  6
CONTINUOUS
 10
4.857600
 20
2.418680
  0
VERTEX
  8
0
  6
CONTINUOUS
 10
4.217840
 20
2.038960
  0
VERTEX
  8
0
  6
CONTINUOUS
 10
4.205960
 20
2.047320
  0
SEQEND
  8
0
  0
SOLID
  8
0
 62
    15
 10
4.217840
 20
2.038960
 11
4.857600
 21
2.418680
 12
4.243800
 22
2.020480
 13
4.883560
 23
2.400200
  0
POLYLINE
  8
0
  6
CONTINUOUS
 66
     1
 40
0.000000
 41
0.000000
  0
VERTEX
  8
0
  6
CONTINUOUS
 10
4.217840
 20
2.038960
  0
VERTEX
  8
0
  6
CONTINUOUS
 10
4.857600
 20
2.418680
  0
VERTEX
  8
0
  6
CONTINUOUS
 10
4.883560
 20
2.400200
  0
VERTEX
  8
0
  6
CONTINUOUS
 10
4.243800
 20
2.020480
  0
VERTEX
  8
0
  6
CONTINUOUS
 10
4.217840
 20
2.038960
  0
SEQEND
  8
0
  0
SOLID
  8
0
 62
    15
 10
4.243800
 20
2.020480
 11
4.883560
 21
2.400200
 12
4.273280
 22
1.999360
 13
4.912600
 23
2.379080
  0
POLYLINE
  8
0
  6
CONTINUOUS
 66
     1
 40
0.000000
 41
0.000000
  0
VERTEX
  8
0
  6
CONTINUOUS
 10
4.243800
 20
2.020480
  0
VERTEX
  8
0
  6
CONTINUOUS
 10
4.883560
 20
2.400200
  0
VERTEX
  8
0
  6
CONTINUOUS
 10
4.912600
 20
2.379080
  0
VERTEX
  8
0
  6
CONTINUOUS
 10
4.273280
 20
1.999360
  0
VERTEX
  8
0
  6
CONTINUOUS
 10
4.243800
 20
2.020480
  0
SEQEND
  8
0
  0
SOLID
  8
0
 62
    15
 10
4.273280
 20
1.999360
 11
4.912600
 21
2.379080
 12
4.304960
 22
1.974720
 13
4.944280
 23
2.354440
  0
POLYLINE
  8
0
  6
CONTINUOUS
 66
     1
 40
0.000000
 41
0.000000
  0
VERTEX
  8
0
  6
CONTINUOUS
 10
4.273280
 20
1.999360
  0
VERTEX
  8
0
  6
CONTINUOUS
 10
4.912600
 20
2.379080
  0
VERTEX
  8
0
  6
CONTINUOUS
 10
4.944280
 20
2.354440
  0
VERTEX
  8
0
  6
CONTINUOUS
 10
4.304960
 20
1.974720
  0
VERTEX
  8
0
  6
CONTINUOUS
 10
4.273280
 20
1.999360
  0
SEQEND
  8
0
  0
SOLID
  8
0
 62
    15
 10
4.304960
 20
1.974720
 11
4.944280
 21
2.354440
 12
4.339720
 22
1.946120
 13
4.979040
 23
2.325840
  0
POLYLINE
  8
0
  6
CONTINUOUS
 66
     1
 40
0.000000
 41
0.000000
  0
VERTEX
  8
0
  6
CONTINUOUS
 10
4.304960
 20
1.974720
  0
VERTEX
  8
0
  6
CONTINUOUS
 10
4.944280
 20
2.354440
  0
VERTEX
  8
0
  6
CONTINUOUS
 10
4.979040
 20
2.325840
  0
VERTEX
  8
0
  6
CONTINUOUS
 10
4.339720
 20
1.946120
  0
VERTEX
  8
0
  6
CONTINUOUS
 10
4.304960
 20
1.974720
  0
SEQEND
  8
0
  0
SOLID
  8
0
 62
    15
 10
4.339720
 20
1.946120
 11
4.979040
 21
2.325840
 12
4.377120
 22
1.913120
 13
5.016880
 23
2.292840
  0
POLYLINE
  8
0
  6
CONTINUOUS
 66
     1
 40
0.000000
 41
0.000000
  0
VERTEX
  8
0
  6
CONTINUOUS
 10
4.339720
 20
1.946120
  0
VERTEX
  8
0
  6
CONTINUOUS
 10
4.979040
 20
2.325840
  0
VERTEX
  8
0
  6
CONTINUOUS
 10
5.016880
 20
2.292840
  0
VERTEX
  8
0
  6
CONTINUOUS
 10
4.377120
 20
1.913120
  0
VERTEX
  8
0
  6
CONTINUOUS
 10
4.339720
 20
1.946120
  0
SEQEND
  8
0
  0
SOLID
  8
0
 62
    15
 10
4.377120
 20
1.913120
 11
5.016880
 21
2.292840
 12
4.417600
 22
1.875280
 13
5.056920
 23
2.255000
  0
POLYLINE
  8
0
  6
CONTINUOUS
 66
     1
 40
0.000000
 41
0.000000
  0
VERTEX
  8
0
  6
CONTINUOUS
 10
4.377120
 20
1.913120
  0
VERTEX
  8
0
  6
CONTINUOUS
 10
5.016880
 20
2.292840
  0
VERTEX
  8
0
  6
CONTINUOUS
 10
5.056920
 20
2.255000
  0
VERTEX
  8
0
  6
CONTINUOUS
 10
4.417600
 20
1.875280
  0
VERTEX
  8
0
  6
CONTINUOUS
 10
4.377120
 20
1.913120
  0
SEQEND
  8
0
  0
SOLID
  8
0
 62
    15
 10
4.417600
 20
1.875280
 11
5.056920
 21
2.255000
 12
4.460720
 22
1.832160
 13
5.100480
 23
2.211880
  0
POLYLINE
  8
0
  6
CONTINUOUS
 66
     1
 40
0.000000
 41
0.000000
  0
VERTEX
  8
0
  6
CONTINUOUS
 10
4.417600
 20
1.875280
  0
VERTEX
  8
0
  6
CONTINUOUS
 10
5.056920
 20
2.255000
  0
VERTEX
  8
0
  6
CONTINUOUS
 10
5.100480
 20
2.211880
  0
VERTEX
  8
0
  6
CONTINUOUS
 10
4.460720
 20
1.832160
  0
VERTEX
  8
0
  6
CONTINUOUS
 10
4.417600
 20
1.875280
  0
SEQEND
  8
0
  0
SOLID
  8
0
 62
    15
 10
4.460720
 20
1.832160
 11
5.100480
 21
2.211880
 12
4.501200
 22
1.783320
 13
5.140960
 23
2.162600
  0
POLYLINE
  8
0
  6
CONTINUOUS
 66
     1
 40
0.000000
 41
0.000000
  0
VERTEX
  8
0
  6
CONTINUOUS
 10
4.460720
 20
1.832160
  0
VERTEX
  8
0
  6
CONTINUOUS
 10
5.100480
 20
2.211880
  0
VERTEX
  8
0
  6
CONTINUOUS
 10
5.140960
 20
2.162600
  0
VERTEX
  8
0
  6
CONTINUOUS
 10
4.501200
 20
1.783320
  0
VERTEX
  8
0
  6
CONTINUOUS
 10
4.460720
 20
1.832160
  0
SEQEND
  8
0
  0
SOLID
  8
0
 62
    15
 10
4.501200
 20
1.783320
 11
5.140960
 21
2.162600
 12
4.533760
 22
1.729640
 13
5.173520
 23
2.109360
  0
POLYLINE
  8
0
  6
CONTINUOUS
 66
     1
 40
0.000000
 41
0.000000
  0
VERTEX
  8
0
  6
CONTINUOUS
 10
4.501200
 20
1.783320
  0
VERTEX
  8
0
  6
CONTINUOUS
 10
5.140960
 20
2.162600
  0
VERTEX
  8
0
  6
CONTINUOUS
 10
5.173520
 20
2.109360
  0
VERTEX
  8
0
  6
CONTINUOUS
 10
4.533760
 20
1.729640
  0
VERTEX
  8
0
  6
CONTINUOUS
 10
4.501200
 20
1.783320
  0
SEQEND
  8
0
  0
SOLID
  8
0
 62
    15
 10
4.533760
 20
1.729640
 11
5.173520
 21
2.109360
 12
4.558400
 22
1.672440
 13
5.198160
 23
2.052160
  0
POLYLINE
  8
0
  6
CONTINUOUS
 66
     1
 40
0.000000
 41
0.000000
  0
VERTEX
  8
0
  6
CONTINUOUS
 10
4.533760
 20
1.729640
  0
VERTEX
  8
0
  6
CONTINUOUS
 10
5.173520
 20
2.109360
  0
VERTEX
  8
0
  6
CONTINUOUS
 10
5.198160
 20
2.052160
  0
VERTEX
  8
0
  6
CONTINUOUS
 10
4.558400
 20
1.672440
  0
VERTEX
  8
0
  6
CONTINUOUS
 10
4.533760
 20
1.729640
  0
SEQEND
  8
0
  0
SOLID
  8
0
 62
    15
 10
4.558400
 20
1.672440
 11
5.198160
 21
2.052160
 12
4.575560
 22
1.612600
 13
5.215320
 23
1.992320
  0
POLYLINE
  8
0
  6
CONTINUOUS
 66
     1
 40
0.000000
 41
0.000000
  0
VERTEX
  8
0
  6
CONTINUOUS
 10
4.558400
 20
1.672440
  0
VERTEX
  8
0
  6
CONTINUOUS
 10
5.198160
 20
2.052160
  0
VERTEX
  8
0
  6
CONTINUOUS
 10
5.215320
 20
1.992320
  0
VERTEX
  8
0
  6
CONTINUOUS
 10
4.575560
 20
1.612600
  0
VERTEX
  8
0
  6
CONTINUOUS
 10
4.558400
 20
1.672440
  0
SEQEND
  8
0
  0
SOLID
  8
0
 62
    15
 10
4.575560
 20
1.612600
 11
5.215320
 21
1.992320
 12
4.585240
 22
1.551440
 13
5.225000
 23
1.931160
  0
POLYLINE
  8
0
  6
CONTINUOUS
 66
     1
 40
0.000000
 41
0.000000
  0
VERTEX
  8
0
  6
CONTINUOUS
 10
4.575560
 20
1.612600
  0
VERTEX
  8
0
  6
CONTINUOUS
 10
5.215320
 20
1.992320
  0
VERTEX
  8
0
  6
CONTINUOUS
 10
5.225000
 20
1.931160
  0
VERTEX
  8
0
  6
CONTINUOUS
 10
4.585240
 20
1.551440
  0
VERTEX
  8
0
  6
CONTINUOUS
 10
4.575560
 20
1.612600
  0
SEQEND
  8
0
  0
SOLID
  8
0
 62
    15
 10
4.585240
 20
1.551440
 11
5.225000
 21
1.931160
 12
4.588320
 22
1.489840
 13
5.227640
 23
1.869560
  0
POLYLINE
  8
0
  6
CONTINUOUS
 66
     1
 40
0.000000
 41
0.000000
  0
VERTEX
  8
0
  6
CONTINUOUS
 10
4.585240
 20
1.551440
  0
VERTEX
  8
0
  6
CONTINUOUS
 10
5.225000
 20
1.931160
  0
VERTEX
  8
0
  6
CONTINUOUS
 10
5.227640
 20
1.869560
  0
VERTEX
  8
0
  6
CONTINUOUS
 10
4.588320
 20
1.489840
  0
VERTEX
  8
0
  6
CONTINUOUS
 10
4.585240
 20
1.551440
  0
SEQEND
  8
0
  0
SOLID
  8
0
 62
    15
 10
4.588320
 20
1.489840
 11
5.227640
 21
1.869560
 12
4.583920
 22
1.429120
 13
5.223680
 23
1.808840
  0
POLYLINE
  8
0
  6
CONTINUOUS
 66
     1
 40
0.000000
 41
0.000000
  0
VERTEX
  8
0
  6
CONTINUOUS
 10
4.588320
 20
1.489840
  0
VERTEX
  8
0
  6
CONTINUOUS
 10
5.227640
 20
1.869560
  0
VERTEX
  8
0
  6
CONTINUOUS
 10
5.223680
 20
1.808840
  0
VERTEX
  8
0
  6
CONTINUOUS
 10
4.583920
 20
1.429120
  0
VERTEX
  8
0
  6
CONTINUOUS
 10
4.588320
 20
1.489840
  0
SEQEND
  8
0
  0
SOLID
  8
0
 62
    15
 10
4.583920
 20
1.429120
 11
5.223680
 21
1.808840
 12
4.573800
 22
1.370160
 13
5.213120
 23
1.749440
  0
POLYLINE
  8
0
  6
CONTINUOUS
 66
     1
 40
0.000000
 41
0.000000
  0
VERTEX
  8
0
  6
CONTINUOUS
 10
4.583920
 20
1.429120
  0
VERTEX
  8
0
  6
CONTINUOUS
 10
5.223680
 20
1.808840
  0
VERTEX
  8
0
  6
CONTINUOUS
 10
5.213120
 20
1.749440
  0
VERTEX
  8
0
  6
CONTINUOUS
 10
4.573800
 20
1.370160
  0
VERTEX
  8
0
  6
CONTINUOUS
 10
4.583920
 20
1.429120
  0
SEQEND
  8
0
  0
SOLID
  8
0
 62
    15
 10
4.573800
 20
1.370160
 11
5.213120
 21
1.749440
 12
4.556640
 22
1.313840
 13
5.196400
 23
1.693560
  0
POLYLINE
  8
0
  6
CONTINUOUS
 66
     1
 40
0.000000
 41
0.000000
  0
VERTEX
  8
0
  6
CONTINUOUS
 10
4.573800
 20
1.370160
  0
VERTEX
  8
0
  6
CONTINUOUS
 10
5.213120
 20
1.749440
  0
VERTEX
  8
0
  6
CONTINUOUS
 10
5.196400
 20
1.693560
  0
VERTEX
  8
0
  6
CONTINUOUS
 10
4.556640
 20
1.313840
  0
VERTEX
  8
0
  6
CONTINUOUS
 10
4.573800
 20
1.370160
  0
SEQEND
  8
0
  0
SOLID
  8
0
 62
    15
 10
4.556640
 20
1.313840
 11
5.196400
 21
1.693560
 12
4.533760
 22
1.261480
 13
5.173520
 23
1.641200
  0
POLYLINE
  8
0
  6
CONTINUOUS
 66
     1
 40
0.000000
 41
0.000000
  0
VERTEX
  8
0
  6
CONTINUOUS
 10
4.556640
 20
1.313840
  0
VERTEX
  8
0
  6
CONTINUOUS
 10
5.196400
 20
1.693560
  0
VERTEX
  8
0
  6
CONTINUOUS
 10
5.173520
 20
1.641200
  0
VERTEX
  8
0
  6
CONTINUOUS
 10
4.533760
 20
1.261480
  0
VERTEX
  8
0
  6
CONTINUOUS
 10
4.556640
 20
1.313840
  0
SEQEND
  8
0
  0
SOLID
  8
0
 62
    15
 10
4.285160
 20
1.092520
 11
4.924920
 21
1.472240
 12
4.285160
 22
0.959200
 13
4.924920
 23
1.338920
  0
POLYLINE
  8
0
  6
CONTINUOUS
 66
     1
 40
0.000000
 41
0.000000
  0
VERTEX
  8
0
  6
CONTINUOUS
 10
4.285160
 20
1.092520
  0
VERTEX
  8
0
  6
CONTINUOUS
 10
4.924920
 20
1.472240
  0
VERTEX
  8
0
  6
CONTINUOUS
 10
4.924920
 20
1.338920
  0
VERTEX
  8
0
  6
CONTINUOUS
 10
4.285160
 20
0.959200
  0
VERTEX
  8
0
  6
CONTINUOUS
 10
4.285160
 20
1.092520
  0
SEQEND
  8
0
  0
SOLID
  8
0
 62
    15
 10
4.505600
 20
1.214400
 11
5.144920
 21
1.594120
 12
4.471280
 22
1.173480
 13
5.111040
 23
1.553200
  0
POLYLINE
  8
0
  6
CONTINUOUS
 66
     1
 40
0.000000
 41
0.000000
  0
VERTEX
  8
0
  6
CONTINUOUS
 10
4.505600
 20
1.214400
  0
VERTEX
  8
0
  6
CONTINUOUS
 10
5.144920
 20
1.594120
  0
VERTEX
  8
0
  6
CONTINUOUS
 10
5.111040
 20
1.553200
  0
VERTEX
  8
0
  6
CONTINUOUS
 10
4.471280
 20
1.173480
  0
VERTEX
  8
0
  6
CONTINUOUS
 10
4.505600
 20
1.214400
  0
SEQEND
  8
0
  0
SOLID
  8
0
 62
    15
 10
4.471280
 20
1.173480
 11
5.111040
 21
1.553200
 12
4.432120
 22
1.140040
 13
5.071440
 23
1.519760
  0
POLYLINE
  8
0
  6
CONTINUOUS
 66
     1
 40
0.000000
 41
0.000000
  0
VERTEX
  8
0
  6
CONTINUOUS
 10
4.471280
 20
1.173480
  0
VERTEX
  8
0
  6
CONTINUOUS
 10
5.111040
 20
1.553200
  0
VERTEX
  8
0
  6
CONTINUOUS
 10
5.071440
 20
1.519760
  0
VERTEX
  8
0
  6
CONTINUOUS
 10
4.432120
 20
1.140040
  0
VERTEX
  8
0
  6
CONTINUOUS
 10
4.471280
 20
1.173480
  0
SEQEND
  8
0
  0
SOLID
  8
0
 62
    15
 10
4.533760
 20
1.261480
 11
5.173520
 21
1.641200
 12
4.505600
 22
1.214400
 13
5.144920
 23
1.594120
  0
POLYLINE
  8
0
  6
CONTINUOUS
 66
     1
 40
0.000000
 41
0.000000
  0
VERTEX
  8
0
  6
CONTINUOUS
 10
4.533760
 20
1.261480
  0
VERTEX
  8
0
  6
CONTINUOUS
 10
5.173520
 20
1.641200
  0
VERTEX
  8
0
  6
CONTINUOUS
 10
5.144920
 20
1.594120
  0
VERTEX
  8
0
  6
CONTINUOUS
 10
4.505600
 20
1.214400
  0
VERTEX
  8
0
  6
CONTINUOUS
 10
4.533760
 20
1.261480
  0
SEQEND
  8
0
  0
POLYLINE
  8
0
  6
CONTINUOUS
 66
     1
 40
0.000000
 41
0.000000
  0
VERTEX
  8
0
  6
CONTINUOUS
 10
4.283400
 20
0.958320
  0
VERTEX
  8
0
  6
CONTINUOUS
 10
3.777840
 20
0.958320
  0
VERTEX
  8
0
  6
CONTINUOUS
 10
3.777840
 20
2.991560
  0
VERTEX
  8
0
  6
CONTINUOUS
 10
3.832840
 20
2.983640
  0
VERTEX
  8
0
  6
CONTINUOUS
 10
3.859680
 20
2.974400
  0
VERTEX
  8
0
  6
CONTINUOUS
 10
3.886520
 20
2.960320
  0
VERTEX
  8
0
  6
CONTINUOUS
 10
3.912920
 20
2.940960
  0
VERTEX
  8
0
  6
CONTINUOUS
 10
3.938440
 20
2.915880
  0
VERTEX
  8
0
  6
CONTINUOUS
 10
3.963520
 20
2.884640
  0
VERTEX
  8
0
  6
CONTINUOUS
 10
3.988160
 20
2.846360
  0
VERTEX
  8
0
  6
CONTINUOUS
 10
4.008840
 20
2.802800
  0
VERTEX
  8
0
  6
CONTINUOUS
 10
4.038760
 20
2.714360
  0
VERTEX
  8
0
  6
CONTINUOUS
 10
4.056800
 20
2.673440
  0
VERTEX
  8
0
  6
CONTINUOUS
 10
4.081440
 20
2.637800
  0
VERTEX
  8
0
  6
CONTINUOUS
 10
4.097720
 20
2.622400
  0
VERTEX
  8
0
  6
CONTINUOUS
 10
4.117520
 20
2.609200
  0
VERTEX
  8
0
  6
CONTINUOUS
 10
4.140840
 20
2.598640
  0
VERTEX
  8
0
  6
CONTINUOUS
 10
4.169000
 20
2.590720
  0
VERTEX
  8
0
  6
CONTINUOUS
 10
4.201560
 20
2.585880
  0
VERTEX
  8
0
  6
CONTINUOUS
 10
4.239400
 20
2.584120
  0
VERTEX
  8
0
  6
CONTINUOUS
 10
4.239400
 20
2.321000
  0
VERTEX
  8
0
  6
CONTINUOUS
 10
4.227960
 20
2.310880
  0
VERTEX
  8
0
  6
CONTINUOUS
 10
4.199360
 20
2.291080
  0
VERTEX
  8
0
  6
CONTINUOUS
 10
4.176040
 20
2.272600
  0
VERTEX
  8
0
  6
CONTINUOUS
 10
4.152720
 20
2.250600
  0
VERTEX
  8
0
  6
CONTINUOUS
 10
4.132040
 20
2.224640
  0
VERTEX
  8
0
  6
CONTINUOUS
 10
4.116640
 20
2.194720
  0
VERTEX
  8
0
  6
CONTINUOUS
 10
4.110040
 20
2.162160
  0
VERTEX
  8
0
  6
CONTINUOUS
 10
4.114000
 20
2.131800
  0
VERTEX
  8
0
  6
CONTINUOUS
 10
4.129400
 20
2.106280
  0
VERTEX
  8
0
  6
CONTINUOUS
 10
4.156240
 20
2.082080
  0
VERTEX
  8
0
  6
CONTINUOUS
 10
4.273280
 20
1.999360
  0
VERTEX
  8
0
  6
CONTINUOUS
 10
4.339720
 20
1.946120
  0
VERTEX
  8
0
  6
CONTINUOUS
 10
4.417600
 20
1.875280
  0
VERTEX
  8
0
  6
CONTINUOUS
 10
4.460720
 20
1.832160
  0
VERTEX
  8
0
  6
CONTINUOUS
 10
4.501200
 20
1.783320
  0
VERTEX
  8
0
  6
CONTINUOUS
 10
4.533760
 20
1.729640
  0
VERTEX
  8
0
  6
CONTINUOUS
 10
4.558400
 20
1.672440
  0
VERTEX
  8
0
  6
CONTINUOUS
 10
4.575560
 20
1.612600
  0
VERTEX
  8
0
  6
CONTINUOUS
 10
4.585240
 20
1.551440
  0
VERTEX
  8
0
  6
CONTINUOUS
 10
4.588320
 20
1.489840
  0
VERTEX
  8
0
  6
CONTINUOUS
 10
4.583920
 20
1.429120
  0
VERTEX
  8
0
  6
CONTINUOUS
 10
4.573800
 20
1.370160
  0
VERTEX
  8
0
  6
CONTINUOUS
 10
4.556640
 20
1.313840
  0
VERTEX
  8
0
  6
CONTINUOUS
 10
4.533760
 20
1.261480
  0
VERTEX
  8
0
  6
CONTINUOUS
 10
4.505600
 20
1.214400
  0
VERTEX
  8
0
  6
CONTINUOUS
 10
4.471280
 20
1.173480
  0
VERTEX
  8
0
  6
CONTINUOUS
 10
4.432120
 20
1.140040
  0
VERTEX
  8
0
  6
CONTINUOUS
 10
4.387680
 20
1.114520
  0
VERTEX
  8
0
  6
CONTINUOUS
 10
4.338840
 20
1.098240
  0
VERTEX
  8
0
  6
CONTINUOUS
 10
4.285160
 20
1.092520
  0
VERTEX
  8
0
  6
CONTINUOUS
 10
4.285160
 20
0.959200
  0
VERTEX
  8
0
  6
CONTINUOUS
 10
4.283400
 20
0.958320
  0
SEQEND
  8
0
  0
TEXT
  8
0
 10
4.207720
 20
0.715440
 40
0.138096
  1
BA  521
 41
1.000000
  7
SN0
 71
     0
 72
     5
 11
4.797982
 21
0.715440
  0
TEXT
  8
0
 10
4.102560
 20
0.523600
 40
0.138096
  1
13/16" x 2"
 41
1.000000
  7
SN0
 71
     0
 72
     5
 11
4.902193
 21
0.523600
  0
ENDSEC
  0
EOF
