  0
SECTION
  2
HEADER
  9
$ACADVER
  1
AC1006
  9
$EXTMIN
 10
2.217160
 20
0.632720
  9
$EXTMAX
 10
7.560520
 20
3.289880
  9
$LTSCALE
 40
0.044000
  9
$PDMODE
 70
    35
  9
$PDSIZE
 40
0.035200
  0
ENDSEC
  0
SECTION
  2
TABLES
  0
TABLE
  2
LTYPE
 70
     9
  0
LTYPE
  2
CONTINUOUS
 70
    64
  3
Solid line
 72
    65
 73
     0
 40
0.000000
  0
LTYPE
  2
DASHED
 70
    64
  3
__ __ __ __ __ __ __ __ __ __ __ __ __ __ __
 72
    65
 73
     2
 40
0.000330
 49
0.000220
 49
-0.000110
  0
LTYPE
  2
HIDDEN
 70
    64
  3
 _ _ _ _ _ _ _ _ _ _ _ _ _ _ _ _ _ _ _ _ _ _
 72
    65
 73
     2
 40
0.000165
 49
0.000110
 49
-0.000055
  0
LTYPE
  2
CENTER
 70
    64
  3
____ _ ____ _ ____ _ ____ _ ____ _ ____ _ ____
 72
    65
 73
     4
 40
0.000880
 49
0.000550
 49
-0.000110
 49
0.000110
 49
-0.000110
  0
LTYPE
  2
PHANTOM
 70
    64
  3
_____ _ _ _____ _ _ _____ _ _ _____ _ _ ____
 72
    65
 73
     6
 40
0.001100
 49
0.000550
 49
-0.000110
 49
0.000110
 49
-0.000110
 49
0.000110
 49
-0.000110
  0
LTYPE
  2
DOT
 70
    64
  3
...............................................
 72
    65
 73
     2
 40
0.000110
 49
0.000000
 49
-0.000110
  0
LTYPE
  2
DASHDOT
 70
    64
  3
__ . __ . __ . __ . __ . __ . __ . __ . __ . __
 72
    65
 73
     4
 40
0.000440
 49
0.000220
 49
-0.000110
 49
0.000000
 49
-0.000110
  0
LTYPE
  2
BORDER
 70
    64
  3
__ __ . __ __ . __ __ . __ __ . __ __ . __ __
 72
    65
 73
     6
 40
0.000770
 49
0.000220
 49
-0.000110
 49
0.000220
 49
-0.000110
 49
0.000000
 49
-0.000110
  0
LTYPE
  2
DIVIDE
 70
    64
  3
__ . . __ . . __ . . __ . . __ . . __ . . __
 72
    65
 73
     6
 40
0.000550
 49
0.000220
 49
-0.000110
 49
0.000000
 49
-0.000110
 49
0.000000
 49
-0.000110
  0
LTYPE
  2
DOTDOT
 70
    64
  3
 . .  . .  . .  . .  . .  . . 
 72
    65
 73
     5
 40
0.000242
 49
-0.000110
 49
0.000000
 49
-0.000110
 49
0.000000
 49
-0.000110
  0
ENDTAB
  0
TABLE
  2
STYLE
 70
     2
  0
STYLE
 70
     0
  2
SN0
 40
0.000000
 41
0.000440
 50
0.000000
 71
     0
 42
0.000000
  3
ROMAND
  0
STYLE
 70
    68
  2
SV0
 40
0.000000
 41
0.000440
 50
0.000000
 71
     0
 42
0.000000
  3
ROMAND
  0
ENDTAB
  0
TABLE
  2
LAYER
 70
     3
  0
LAYER
  2
FOREGROUND
 70
    64
 62
     7
  6
CONTINUOUS
  0
LAYER
  2
BACKGROUND
 70
    65
 62
    -7
  6
CONTINUOUS
  0
LAYER
  2
0
 70
    64
 62
     7
  6
CONTINUOUS
  0
ENDTAB
  0
ENDSEC
  0
SECTION
  2
ENTITIES
  0
POLYLINE
  8
FOREGROUND
  6
CONTINUOUS
 66
     1
 40
0.000000
 41
0.000000
  0
VERTEX
  8
FOREGROUND
  6
CONTINUOUS
 10
0.000000
 20
3.922600
  0
VERTEX
  8
FOREGROUND
  6
CONTINUOUS
 10
8.499920
 20
3.922600
  0
VERTEX
  8
FOREGROUND
  6
CONTINUOUS
 10
8.499920
 20
-7.077400
  0
VERTEX
  8
FOREGROUND
  6
CONTINUOUS
 10
0.000000
 20
-7.077400
  0
VERTEX
  8
FOREGROUND
  6
CONTINUOUS
 10
0.000000
 20
3.922600
  0
SEQEND
  8
0
  0
POLYLINE
  8
FOREGROUND
  6
CONTINUOUS
 66
     1
 40
0.000000
 41
0.000000
  0
VERTEX
  8
FOREGROUND
  6
CONTINUOUS
 10
0.000000
 20
3.922600
  0
VERTEX
  8
FOREGROUND
  6
CONTINUOUS
 10
8.499920
 20
3.922600
  0
VERTEX
  8
FOREGROUND
  6
CONTINUOUS
 10
8.499920
 20
-7.077400
  0
VERTEX
  8
FOREGROUND
  6
CONTINUOUS
 10
0.000000
 20
-7.077400
  0
VERTEX
  8
FOREGROUND
  6
CONTINUOUS
 10
0.000000
 20
3.922600
  0
SEQEND
  8
0
  0
POLYLINE
  8
0
  6
CONTINUOUS
 66
     1
 40
0.014080
 41
0.014080
  0
VERTEX
  8
0
  6
CONTINUOUS
 10
5.784240
 20
3.282400
  0
VERTEX
  8
0
  6
CONTINUOUS
 10
7.065960
 20
2.986720
  0
VERTEX
  8
0
  6
CONTINUOUS
 10
7.160120
 20
2.947120
  0
VERTEX
  8
0
  6
CONTINUOUS
 10
7.196200
 20
2.928200
  0
VERTEX
  8
0
  6
CONTINUOUS
 10
7.225240
 20
2.908400
  0
VERTEX
  8
0
  6
CONTINUOUS
 10
7.248560
 20
2.886400
  0
VERTEX
  8
0
  6
CONTINUOUS
 10
7.266160
 20
2.860880
  0
VERTEX
  8
0
  6
CONTINUOUS
 10
7.278480
 20
2.830960
  0
VERTEX
  8
0
  6
CONTINUOUS
 10
7.284640
 20
2.807640
  0
VERTEX
  8
0
  6
CONTINUOUS
 10
7.290360
 20
2.767160
  0
VERTEX
  8
0
  6
CONTINUOUS
 10
7.292560
 20
2.718760
  0
VERTEX
  8
0
  6
CONTINUOUS
 10
7.291680
 20
2.661560
  0
VERTEX
  8
0
  6
CONTINUOUS
 10
3.293400
 20
2.661560
  0
VERTEX
  8
0
  6
CONTINUOUS
 10
3.927440
 20
2.661560
  0
VERTEX
  8
0
  6
CONTINUOUS
 10
2.589400
 20
2.661560
  0
VERTEX
  8
0
  6
CONTINUOUS
 10
2.588960
 20
2.735920
  0
VERTEX
  8
0
  6
CONTINUOUS
 10
2.592040
 20
2.781680
  0
VERTEX
  8
0
  6
CONTINUOUS
 10
2.596000
 20
2.807640
  0
VERTEX
  8
0
  6
CONTINUOUS
 10
2.605680
 20
2.841520
  0
VERTEX
  8
0
  6
CONTINUOUS
 10
2.619760
 20
2.869680
  0
VERTEX
  8
0
  6
CONTINUOUS
 10
2.639120
 20
2.893880
  0
VERTEX
  8
0
  6
CONTINUOUS
 10
2.664640
 20
2.915000
  0
VERTEX
  8
0
  6
CONTINUOUS
 10
2.695880
 20
2.934360
  0
VERTEX
  8
0
  6
CONTINUOUS
 10
2.734160
 20
2.953280
  0
VERTEX
  8
0
  6
CONTINUOUS
 10
2.814680
 20
2.986720
  0
VERTEX
  8
0
  6
CONTINUOUS
 10
4.096400
 20
3.282400
  0
VERTEX
  8
0
  6
CONTINUOUS
 10
5.784240
 20
3.282400
  0
SEQEND
  8
0
  0
SOLID
  8
0
 62
    15
 10
6.916360
 20
1.266760
 11
7.554800
 21
1.648680
 12
6.919440
 22
1.239040
 13
7.558320
 23
1.620960
  0
POLYLINE
  8
0
  6
CONTINUOUS
 66
     1
 40
0.000000
 41
0.000000
  0
VERTEX
  8
0
  6
CONTINUOUS
 10
6.916360
 20
1.266760
  0
VERTEX
  8
0
  6
CONTINUOUS
 10
7.554800
 20
1.648680
  0
VERTEX
  8
0
  6
CONTINUOUS
 10
7.558320
 20
1.620960
  0
VERTEX
  8
0
  6
CONTINUOUS
 10
6.919440
 20
1.239040
  0
VERTEX
  8
0
  6
CONTINUOUS
 10
6.916360
 20
1.266760
  0
SEQEND
  8
0
  0
SOLID
  8
0
 62
    15
 10
6.695480
 20
1.458600
 11
7.334360
 21
1.840520
 12
6.730240
 22
1.444520
 13
7.369120
 23
1.826440
  0
POLYLINE
  8
0
  6
CONTINUOUS
 66
     1
 40
0.000000
 41
0.000000
  0
VERTEX
  8
0
  6
CONTINUOUS
 10
6.695480
 20
1.458600
  0
VERTEX
  8
0
  6
CONTINUOUS
 10
7.334360
 20
1.840520
  0
VERTEX
  8
0
  6
CONTINUOUS
 10
7.369120
 20
1.826440
  0
VERTEX
  8
0
  6
CONTINUOUS
 10
6.730240
 20
1.444520
  0
VERTEX
  8
0
  6
CONTINUOUS
 10
6.695480
 20
1.458600
  0
SEQEND
  8
0
  0
SOLID
  8
0
 62
    15
 10
6.730240
 20
1.444520
 11
7.369120
 21
1.826440
 12
6.761480
 22
1.431320
 13
7.400360
 23
1.813240
  0
POLYLINE
  8
0
  6
CONTINUOUS
 66
     1
 40
0.000000
 41
0.000000
  0
VERTEX
  8
0
  6
CONTINUOUS
 10
6.730240
 20
1.444520
  0
VERTEX
  8
0
  6
CONTINUOUS
 10
7.369120
 20
1.826440
  0
VERTEX
  8
0
  6
CONTINUOUS
 10
7.400360
 20
1.813240
  0
VERTEX
  8
0
  6
CONTINUOUS
 10
6.761480
 20
1.431320
  0
VERTEX
  8
0
  6
CONTINUOUS
 10
6.730240
 20
1.444520
  0
SEQEND
  8
0
  0
SOLID
  8
0
 62
    15
 10
6.761480
 20
1.431320
 11
7.400360
 21
1.813240
 12
6.789640
 22
1.418560
 13
7.428520
 23
1.800920
  0
POLYLINE
  8
0
  6
CONTINUOUS
 66
     1
 40
0.000000
 41
0.000000
  0
VERTEX
  8
0
  6
CONTINUOUS
 10
6.761480
 20
1.431320
  0
VERTEX
  8
0
  6
CONTINUOUS
 10
7.400360
 20
1.813240
  0
VERTEX
  8
0
  6
CONTINUOUS
 10
7.428520
 20
1.800920
  0
VERTEX
  8
0
  6
CONTINUOUS
 10
6.789640
 20
1.418560
  0
VERTEX
  8
0
  6
CONTINUOUS
 10
6.761480
 20
1.431320
  0
SEQEND
  8
0
  0
SOLID
  8
0
 62
    15
 10
6.789640
 20
1.418560
 11
7.428520
 21
1.800920
 12
6.814280
 22
1.406240
 13
7.453160
 23
1.788160
  0
POLYLINE
  8
0
  6
CONTINUOUS
 66
     1
 40
0.000000
 41
0.000000
  0
VERTEX
  8
0
  6
CONTINUOUS
 10
6.789640
 20
1.418560
  0
VERTEX
  8
0
  6
CONTINUOUS
 10
7.428520
 20
1.800920
  0
VERTEX
  8
0
  6
CONTINUOUS
 10
7.453160
 20
1.788160
  0
VERTEX
  8
0
  6
CONTINUOUS
 10
6.814280
 20
1.406240
  0
VERTEX
  8
0
  6
CONTINUOUS
 10
6.789640
 20
1.418560
  0
SEQEND
  8
0
  0
SOLID
  8
0
 62
    15
 10
6.814280
 20
1.406240
 11
7.453160
 21
1.788160
 12
6.835840
 22
1.393480
 13
7.474720
 23
1.775400
  0
POLYLINE
  8
0
  6
CONTINUOUS
 66
     1
 40
0.000000
 41
0.000000
  0
VERTEX
  8
0
  6
CONTINUOUS
 10
6.814280
 20
1.406240
  0
VERTEX
  8
0
  6
CONTINUOUS
 10
7.453160
 20
1.788160
  0
VERTEX
  8
0
  6
CONTINUOUS
 10
7.474720
 20
1.775400
  0
VERTEX
  8
0
  6
CONTINUOUS
 10
6.835840
 20
1.393480
  0
VERTEX
  8
0
  6
CONTINUOUS
 10
6.814280
 20
1.406240
  0
SEQEND
  8
0
  0
SOLID
  8
0
 62
    15
 10
6.835840
 20
1.393480
 11
7.474720
 21
1.775400
 12
6.854760
 22
1.379840
 13
7.493640
 23
1.762200
  0
POLYLINE
  8
0
  6
CONTINUOUS
 66
     1
 40
0.000000
 41
0.000000
  0
VERTEX
  8
0
  6
CONTINUOUS
 10
6.835840
 20
1.393480
  0
VERTEX
  8
0
  6
CONTINUOUS
 10
7.474720
 20
1.775400
  0
VERTEX
  8
0
  6
CONTINUOUS
 10
7.493640
 20
1.762200
  0
VERTEX
  8
0
  6
CONTINUOUS
 10
6.854760
 20
1.379840
  0
VERTEX
  8
0
  6
CONTINUOUS
 10
6.835840
 20
1.393480
  0
SEQEND
  8
0
  0
SOLID
  8
0
 62
    15
 10
6.854760
 20
1.379840
 11
7.493640
 21
1.762200
 12
6.870600
 22
1.365760
 13
7.509480
 23
1.747680
  0
POLYLINE
  8
0
  6
CONTINUOUS
 66
     1
 40
0.000000
 41
0.000000
  0
VERTEX
  8
0
  6
CONTINUOUS
 10
6.854760
 20
1.379840
  0
VERTEX
  8
0
  6
CONTINUOUS
 10
7.493640
 20
1.762200
  0
VERTEX
  8
0
  6
CONTINUOUS
 10
7.509480
 20
1.747680
  0
VERTEX
  8
0
  6
CONTINUOUS
 10
6.870600
 20
1.365760
  0
VERTEX
  8
0
  6
CONTINUOUS
 10
6.854760
 20
1.379840
  0
SEQEND
  8
0
  0
SOLID
  8
0
 62
    15
 10
6.870600
 20
1.365760
 11
7.509480
 21
1.747680
 12
6.884240
 22
1.349920
 13
7.523120
 23
1.731840
  0
POLYLINE
  8
0
  6
CONTINUOUS
 66
     1
 40
0.000000
 41
0.000000
  0
VERTEX
  8
0
  6
CONTINUOUS
 10
6.870600
 20
1.365760
  0
VERTEX
  8
0
  6
CONTINUOUS
 10
7.509480
 20
1.747680
  0
VERTEX
  8
0
  6
CONTINUOUS
 10
7.523120
 20
1.731840
  0
VERTEX
  8
0
  6
CONTINUOUS
 10
6.884240
 20
1.349920
  0
VERTEX
  8
0
  6
CONTINUOUS
 10
6.870600
 20
1.365760
  0
SEQEND
  8
0
  0
SOLID
  8
0
 62
    15
 10
6.884240
 20
1.349920
 11
7.523120
 21
1.731840
 12
6.904480
 22
1.313400
 13
7.542920
 23
1.695320
  0
POLYLINE
  8
0
  6
CONTINUOUS
 66
     1
 40
0.000000
 41
0.000000
  0
VERTEX
  8
0
  6
CONTINUOUS
 10
6.884240
 20
1.349920
  0
VERTEX
  8
0
  6
CONTINUOUS
 10
7.523120
 20
1.731840
  0
VERTEX
  8
0
  6
CONTINUOUS
 10
7.542920
 20
1.695320
  0
VERTEX
  8
0
  6
CONTINUOUS
 10
6.904480
 20
1.313400
  0
VERTEX
  8
0
  6
CONTINUOUS
 10
6.884240
 20
1.349920
  0
SEQEND
  8
0
  0
SOLID
  8
0
 62
    15
 10
6.904480
 20
1.313400
 11
7.542920
 21
1.695320
 12
6.911080
 22
1.291400
 13
7.549960
 23
1.673320
  0
POLYLINE
  8
0
  6
CONTINUOUS
 66
     1
 40
0.000000
 41
0.000000
  0
VERTEX
  8
0
  6
CONTINUOUS
 10
6.904480
 20
1.313400
  0
VERTEX
  8
0
  6
CONTINUOUS
 10
7.542920
 20
1.695320
  0
VERTEX
  8
0
  6
CONTINUOUS
 10
7.549960
 20
1.673320
  0
VERTEX
  8
0
  6
CONTINUOUS
 10
6.911080
 20
1.291400
  0
VERTEX
  8
0
  6
CONTINUOUS
 10
6.904480
 20
1.313400
  0
SEQEND
  8
0
  0
SOLID
  8
0
 62
    15
 10
6.911080
 20
1.291400
 11
7.549960
 21
1.673320
 12
6.916360
 22
1.266760
 13
7.554800
 23
1.648680
  0
POLYLINE
  8
0
  6
CONTINUOUS
 66
     1
 40
0.000000
 41
0.000000
  0
VERTEX
  8
0
  6
CONTINUOUS
 10
6.911080
 20
1.291400
  0
VERTEX
  8
0
  6
CONTINUOUS
 10
7.549960
 20
1.673320
  0
VERTEX
  8
0
  6
CONTINUOUS
 10
7.554800
 20
1.648680
  0
VERTEX
  8
0
  6
CONTINUOUS
 10
6.916360
 20
1.266760
  0
VERTEX
  8
0
  6
CONTINUOUS
 10
6.911080
 20
1.291400
  0
SEQEND
  8
0
  0
SOLID
  8
0
 62
    15
 10
5.413760
 20
1.753840
 11
6.052200
 21
2.136200
 12
6.695480
 22
1.458600
 13
7.334360
 23
1.840520
  0
POLYLINE
  8
0
  6
CONTINUOUS
 66
     1
 40
0.000000
 41
0.000000
  0
VERTEX
  8
0
  6
CONTINUOUS
 10
5.413760
 20
1.753840
  0
VERTEX
  8
0
  6
CONTINUOUS
 10
6.052200
 20
2.136200
  0
VERTEX
  8
0
  6
CONTINUOUS
 10
7.334360
 20
1.840520
  0
VERTEX
  8
0
  6
CONTINUOUS
 10
6.695480
 20
1.458600
  0
VERTEX
  8
0
  6
CONTINUOUS
 10
5.413760
 20
1.753840
  0
SEQEND
  8
0
  0
SOLID
  8
0
 62
    15
 10
6.919440
 20
1.239040
 11
7.558320
 21
1.620960
 12
6.921200
 22
1.207800
 13
7.560080
 23
1.589720
  0
POLYLINE
  8
0
  6
CONTINUOUS
 66
     1
 40
0.000000
 41
0.000000
  0
VERTEX
  8
0
  6
CONTINUOUS
 10
6.919440
 20
1.239040
  0
VERTEX
  8
0
  6
CONTINUOUS
 10
7.558320
 20
1.620960
  0
VERTEX
  8
0
  6
CONTINUOUS
 10
7.560080
 20
1.589720
  0
VERTEX
  8
0
  6
CONTINUOUS
 10
6.921200
 20
1.207800
  0
VERTEX
  8
0
  6
CONTINUOUS
 10
6.919440
 20
1.239040
  0
SEQEND
  8
0
  0
SOLID
  8
0
 62
    15
 10
6.921200
 20
1.207800
 11
7.560080
 21
1.589720
 12
6.921640
 22
1.172600
 13
7.560520
 23
1.554960
  0
POLYLINE
  8
0
  6
CONTINUOUS
 66
     1
 40
0.000000
 41
0.000000
  0
VERTEX
  8
0
  6
CONTINUOUS
 10
6.921200
 20
1.207800
  0
VERTEX
  8
0
  6
CONTINUOUS
 10
7.560080
 20
1.589720
  0
VERTEX
  8
0
  6
CONTINUOUS
 10
7.560520
 20
1.554960
  0
VERTEX
  8
0
  6
CONTINUOUS
 10
6.921640
 20
1.172600
  0
VERTEX
  8
0
  6
CONTINUOUS
 10
6.921200
 20
1.207800
  0
SEQEND
  8
0
  0
SOLID
  8
0
 62
    15
 10
6.921640
 20
1.172600
 11
7.560520
 21
1.554960
 12
6.920760
 22
1.133440
 13
7.559640
 23
1.515360
  0
POLYLINE
  8
0
  6
CONTINUOUS
 66
     1
 40
0.000000
 41
0.000000
  0
VERTEX
  8
0
  6
CONTINUOUS
 10
6.921640
 20
1.172600
  0
VERTEX
  8
0
  6
CONTINUOUS
 10
7.560520
 20
1.554960
  0
VERTEX
  8
0
  6
CONTINUOUS
 10
7.559640
 20
1.515360
  0
VERTEX
  8
0
  6
CONTINUOUS
 10
6.920760
 20
1.133440
  0
VERTEX
  8
0
  6
CONTINUOUS
 10
6.921640
 20
1.172600
  0
SEQEND
  8
0
  0
SOLID
  8
0
 62
    15
 10
2.922920
 20
1.133440
 11
3.561360
 21
1.515360
 12
3.556960
 22
1.133440
 13
4.195840
 23
1.515360
  0
POLYLINE
  8
0
  6
CONTINUOUS
 66
     1
 40
0.000000
 41
0.000000
  0
VERTEX
  8
0
  6
CONTINUOUS
 10
2.922920
 20
1.133440
  0
VERTEX
  8
0
  6
CONTINUOUS
 10
3.561360
 20
1.515360
  0
VERTEX
  8
0
  6
CONTINUOUS
 10
4.195840
 20
1.515360
  0
VERTEX
  8
0
  6
CONTINUOUS
 10
3.556960
 20
1.133440
  0
VERTEX
  8
0
  6
CONTINUOUS
 10
2.922920
 20
1.133440
  0
SEQEND
  8
0
  0
SOLID
  8
0
 62
    15
 10
2.303400
 20
1.393480
 11
2.942280
 21
1.775400
 12
2.324960
 22
1.406240
 13
2.963840
 23
1.788160
  0
POLYLINE
  8
0
  6
CONTINUOUS
 66
     1
 40
0.000000
 41
0.000000
  0
VERTEX
  8
0
  6
CONTINUOUS
 10
2.303400
 20
1.393480
  0
VERTEX
  8
0
  6
CONTINUOUS
 10
2.942280
 20
1.775400
  0
VERTEX
  8
0
  6
CONTINUOUS
 10
2.963840
 20
1.788160
  0
VERTEX
  8
0
  6
CONTINUOUS
 10
2.324960
 20
1.406240
  0
VERTEX
  8
0
  6
CONTINUOUS
 10
2.303400
 20
1.393480
  0
SEQEND
  8
0
  0
SOLID
  8
0
 62
    15
 10
2.324960
 20
1.406240
 11
2.963840
 21
1.788160
 12
2.349600
 22
1.419000
 13
2.988480
 23
1.800920
  0
POLYLINE
  8
0
  6
CONTINUOUS
 66
     1
 40
0.000000
 41
0.000000
  0
VERTEX
  8
0
  6
CONTINUOUS
 10
2.324960
 20
1.406240
  0
VERTEX
  8
0
  6
CONTINUOUS
 10
2.963840
 20
1.788160
  0
VERTEX
  8
0
  6
CONTINUOUS
 10
2.988480
 20
1.800920
  0
VERTEX
  8
0
  6
CONTINUOUS
 10
2.349600
 20
1.419000
  0
VERTEX
  8
0
  6
CONTINUOUS
 10
2.324960
 20
1.406240
  0
SEQEND
  8
0
  0
SOLID
  8
0
 62
    15
 10
2.349600
 20
1.419000
 11
2.988480
 21
1.800920
 12
2.377760
 22
1.431320
 13
3.016200
 23
1.813240
  0
POLYLINE
  8
0
  6
CONTINUOUS
 66
     1
 40
0.000000
 41
0.000000
  0
VERTEX
  8
0
  6
CONTINUOUS
 10
2.349600
 20
1.419000
  0
VERTEX
  8
0
  6
CONTINUOUS
 10
2.988480
 20
1.800920
  0
VERTEX
  8
0
  6
CONTINUOUS
 10
3.016200
 20
1.813240
  0
VERTEX
  8
0
  6
CONTINUOUS
 10
2.377760
 20
1.431320
  0
VERTEX
  8
0
  6
CONTINUOUS
 10
2.349600
 20
1.419000
  0
SEQEND
  8
0
  0
SOLID
  8
0
 62
    15
 10
2.377760
 20
1.431320
 11
3.016200
 21
1.813240
 12
2.409000
 22
1.444520
 13
3.047880
 23
1.826440
  0
POLYLINE
  8
0
  6
CONTINUOUS
 66
     1
 40
0.000000
 41
0.000000
  0
VERTEX
  8
0
  6
CONTINUOUS
 10
2.377760
 20
1.431320
  0
VERTEX
  8
0
  6
CONTINUOUS
 10
3.016200
 20
1.813240
  0
VERTEX
  8
0
  6
CONTINUOUS
 10
3.047880
 20
1.826440
  0
VERTEX
  8
0
  6
CONTINUOUS
 10
2.409000
 20
1.444520
  0
VERTEX
  8
0
  6
CONTINUOUS
 10
2.377760
 20
1.431320
  0
SEQEND
  8
0
  0
SOLID
  8
0
 62
    15
 10
2.409000
 20
1.444520
 11
3.047880
 21
1.826440
 12
2.443760
 22
1.458600
 13
3.082640
 23
1.840520
  0
POLYLINE
  8
0
  6
CONTINUOUS
 66
     1
 40
0.000000
 41
0.000000
  0
VERTEX
  8
0
  6
CONTINUOUS
 10
2.409000
 20
1.444520
  0
VERTEX
  8
0
  6
CONTINUOUS
 10
3.047880
 20
1.826440
  0
VERTEX
  8
0
  6
CONTINUOUS
 10
3.082640
 20
1.840520
  0
VERTEX
  8
0
  6
CONTINUOUS
 10
2.443760
 20
1.458600
  0
VERTEX
  8
0
  6
CONTINUOUS
 10
2.409000
 20
1.444520
  0
SEQEND
  8
0
  0
SOLID
  8
0
 62
    15
 10
2.443760
 20
1.458600
 11
3.082640
 21
1.840520
 12
3.725920
 22
1.753840
 13
4.364800
 23
2.136200
  0
POLYLINE
  8
0
  6
CONTINUOUS
 66
     1
 40
0.000000
 41
0.000000
  0
VERTEX
  8
0
  6
CONTINUOUS
 10
2.443760
 20
1.458600
  0
VERTEX
  8
0
  6
CONTINUOUS
 10
3.082640
 20
1.840520
  0
VERTEX
  8
0
  6
CONTINUOUS
 10
4.364800
 20
2.136200
  0
VERTEX
  8
0
  6
CONTINUOUS
 10
3.725920
 20
1.753840
  0
VERTEX
  8
0
  6
CONTINUOUS
 10
2.443760
 20
1.458600
  0
SEQEND
  8
0
  0
SOLID
  8
0
 62
    15
 10
3.725920
 20
1.753840
 11
4.364800
 21
2.136200
 12
5.413760
 22
1.753840
 13
6.052200
 23
2.136200
  0
POLYLINE
  8
0
  6
CONTINUOUS
 66
     1
 40
0.000000
 41
0.000000
  0
VERTEX
  8
0
  6
CONTINUOUS
 10
3.725920
 20
1.753840
  0
VERTEX
  8
0
  6
CONTINUOUS
 10
4.364800
 20
2.136200
  0
VERTEX
  8
0
  6
CONTINUOUS
 10
6.052200
 20
2.136200
  0
VERTEX
  8
0
  6
CONTINUOUS
 10
5.413760
 20
1.753840
  0
VERTEX
  8
0
  6
CONTINUOUS
 10
3.725920
 20
1.753840
  0
SEQEND
  8
0
  0
POLYLINE
  8
0
  6
CONTINUOUS
 66
     1
 40
0.000000
 41
0.000000
  0
VERTEX
  8
0
  6
CONTINUOUS
 10
5.413760
 20
1.753840
  0
VERTEX
  8
0
  6
CONTINUOUS
 10
6.695480
 20
1.458600
  0
VERTEX
  8
0
  6
CONTINUOUS
 10
6.730240
 20
1.444520
  0
VERTEX
  8
0
  6
CONTINUOUS
 10
6.761480
 20
1.431320
  0
VERTEX
  8
0
  6
CONTINUOUS
 10
6.789640
 20
1.418560
  0
VERTEX
  8
0
  6
CONTINUOUS
 10
6.814280
 20
1.406240
  0
VERTEX
  8
0
  6
CONTINUOUS
 10
6.835840
 20
1.393480
  0
VERTEX
  8
0
  6
CONTINUOUS
 10
6.854760
 20
1.379840
  0
VERTEX
  8
0
  6
CONTINUOUS
 10
6.870600
 20
1.365760
  0
VERTEX
  8
0
  6
CONTINUOUS
 10
6.884240
 20
1.349920
  0
VERTEX
  8
0
  6
CONTINUOUS
 10
6.904480
 20
1.313400
  0
VERTEX
  8
0
  6
CONTINUOUS
 10
6.911080
 20
1.291400
  0
VERTEX
  8
0
  6
CONTINUOUS
 10
6.916360
 20
1.266760
  0
VERTEX
  8
0
  6
CONTINUOUS
 10
6.919440
 20
1.239040
  0
VERTEX
  8
0
  6
CONTINUOUS
 10
6.921200
 20
1.207800
  0
VERTEX
  8
0
  6
CONTINUOUS
 10
6.921640
 20
1.172600
  0
VERTEX
  8
0
  6
CONTINUOUS
 10
6.920760
 20
1.133440
  0
VERTEX
  8
0
  6
CONTINUOUS
 10
2.922920
 20
1.133440
  0
VERTEX
  8
0
  6
CONTINUOUS
 10
3.556960
 20
1.133440
  0
VERTEX
  8
0
  6
CONTINUOUS
 10
2.218480
 20
1.133440
  0
VERTEX
  8
0
  6
CONTINUOUS
 10
2.217600
 20
1.172600
  0
VERTEX
  8
0
  6
CONTINUOUS
 10
2.218040
 20
1.207800
  0
VERTEX
  8
0
  6
CONTINUOUS
 10
2.219800
 20
1.239040
  0
VERTEX
  8
0
  6
CONTINUOUS
 10
2.223320
 20
1.266760
  0
VERTEX
  8
0
  6
CONTINUOUS
 10
2.228160
 20
1.291400
  0
VERTEX
  8
0
  6
CONTINUOUS
 10
2.234760
 20
1.313400
  0
VERTEX
  8
0
  6
CONTINUOUS
 10
2.255000
 20
1.349920
  0
VERTEX
  8
0
  6
CONTINUOUS
 10
2.268640
 20
1.365760
  0
VERTEX
  8
0
  6
CONTINUOUS
 10
2.284480
 20
1.380280
  0
VERTEX
  8
0
  6
CONTINUOUS
 10
2.303400
 20
1.393480
  0
VERTEX
  8
0
  6
CONTINUOUS
 10
2.324960
 20
1.406240
  0
VERTEX
  8
0
  6
CONTINUOUS
 10
2.349600
 20
1.419000
  0
VERTEX
  8
0
  6
CONTINUOUS
 10
2.377760
 20
1.431320
  0
VERTEX
  8
0
  6
CONTINUOUS
 10
2.409000
 20
1.444520
  0
VERTEX
  8
0
  6
CONTINUOUS
 10
2.443760
 20
1.458600
  0
VERTEX
  8
0
  6
CONTINUOUS
 10
3.725920
 20
1.753840
  0
VERTEX
  8
0
  6
CONTINUOUS
 10
5.413760
 20
1.753840
  0
SEQEND
  8
0
  0
TEXT
  8
0
 10
4.594920
 20
0.868120
 40
0.138131
  1
BA  520
 41
1.000000
  7
SN0
 71
     0
 72
     5
 11
5.185361
 21
0.868120
  0
TEXT
  8
0
 10
4.439160
 20
0.676280
 40
0.138131
  1
5/8" x 4-3/4"
 41
1.000000
  7
SN0
 71
     0
 72
     5
 11
5.339783
 21
0.676280
  0
ENDSEC
  0
EOF
