  0
SECTION
  2
HEADER
  9
$ACADVER
  1
AC1006
  9
$EXTMIN
 10
2.864400
 20
4.620000
  9
$EXTMAX
 10
5.635520
 20
6.379560
  9
$LTSCALE
 40
0.044000
  9
$PDMODE
 70
    35
  9
$PDSIZE
 40
0.035200
  0
ENDSEC
  0
SECTION
  2
TABLES
  0
TABLE
  2
LTYPE
 70
     9
  0
LTYPE
  2
CONTINUOUS
 70
    64
  3
Solid line
 72
    65
 73
     0
 40
0.000000
  0
LTYPE
  2
DASHED
 70
    64
  3
__ __ __ __ __ __ __ __ __ __ __ __ __ __ __
 72
    65
 73
     2
 40
0.000330
 49
0.000220
 49
-0.000110
  0
LTYPE
  2
HIDDEN
 70
    64
  3
 _ _ _ _ _ _ _ _ _ _ _ _ _ _ _ _ _ _ _ _ _ _
 72
    65
 73
     2
 40
0.000165
 49
0.000110
 49
-0.000055
  0
LTYPE
  2
CENTER
 70
    64
  3
____ _ ____ _ ____ _ ____ _ ____ _ ____ _ ____
 72
    65
 73
     4
 40
0.000880
 49
0.000550
 49
-0.000110
 49
0.000110
 49
-0.000110
  0
LTYPE
  2
PHANTOM
 70
    64
  3
_____ _ _ _____ _ _ _____ _ _ _____ _ _ ____
 72
    65
 73
     6
 40
0.001100
 49
0.000550
 49
-0.000110
 49
0.000110
 49
-0.000110
 49
0.000110
 49
-0.000110
  0
LTYPE
  2
DOT
 70
    64
  3
...............................................
 72
    65
 73
     2
 40
0.000110
 49
0.000000
 49
-0.000110
  0
LTYPE
  2
DASHDOT
 70
    64
  3
__ . __ . __ . __ . __ . __ . __ . __ . __ . __
 72
    65
 73
     4
 40
0.000440
 49
0.000220
 49
-0.000110
 49
0.000000
 49
-0.000110
  0
LTYPE
  2
BORDER
 70
    64
  3
__ __ . __ __ . __ __ . __ __ . __ __ . __ __
 72
    65
 73
     6
 40
0.000770
 49
0.000220
 49
-0.000110
 49
0.000220
 49
-0.000110
 49
0.000000
 49
-0.000110
  0
LTYPE
  2
DIVIDE
 70
    64
  3
__ . . __ . . __ . . __ . . __ . . __ . . __
 72
    65
 73
     6
 40
0.000550
 49
0.000220
 49
-0.000110
 49
0.000000
 49
-0.000110
 49
0.000000
 49
-0.000110
  0
LTYPE
  2
DOTDOT
 70
    64
  3
 . .  . .  . .  . .  . .  . . 
 72
    65
 73
     5
 40
0.000242
 49
-0.000110
 49
0.000000
 49
-0.000110
 49
0.000000
 49
-0.000110
  0
ENDTAB
  0
TABLE
  2
STYLE
 70
     2
  0
STYLE
 70
     0
  2
SN0
 40
0.000000
 41
0.000440
 50
0.000000
 71
     0
 42
0.000000
  3
ROMAND
  0
STYLE
 70
    68
  2
SV0
 40
0.000000
 41
0.000440
 50
0.000000
 71
     0
 42
0.000000
  3
ROMAND
  0
ENDTAB
  0
TABLE
  2
LAYER
 70
     3
  0
LAYER
  2
FOREGROUND
 70
    64
 62
     7
  6
CONTINUOUS
  0
LAYER
  2
BACKGROUND
 70
    65
 62
    -7
  6
CONTINUOUS
  0
LAYER
  2
0
 70
    64
 62
     7
  6
CONTINUOUS
  0
ENDTAB
  0
ENDSEC
  0
SECTION
  2
ENTITIES
  0
POLYLINE
  8
FOREGROUND
  6
CONTINUOUS
 66
     1
 40
0.000000
 41
0.000000
  0
VERTEX
  8
FOREGROUND
  6
CONTINUOUS
 10
0.000000
 20
10.999560
  0
VERTEX
  8
FOREGROUND
  6
CONTINUOUS
 10
8.499920
 20
10.999560
  0
VERTEX
  8
FOREGROUND
  6
CONTINUOUS
 10
8.499920
 20
-0.000440
  0
VERTEX
  8
FOREGROUND
  6
CONTINUOUS
 10
0.000000
 20
-0.000440
  0
VERTEX
  8
FOREGROUND
  6
CONTINUOUS
 10
0.000000
 20
10.999560
  0
SEQEND
  8
0
  0
POLYLINE
  8
FOREGROUND
  6
CONTINUOUS
 66
     1
 40
0.000000
 41
0.000000
  0
VERTEX
  8
FOREGROUND
  6
CONTINUOUS
 10
0.000000
 20
10.999560
  0
VERTEX
  8
FOREGROUND
  6
CONTINUOUS
 10
8.499920
 20
10.999560
  0
VERTEX
  8
FOREGROUND
  6
CONTINUOUS
 10
8.499920
 20
-0.000440
  0
VERTEX
  8
FOREGROUND
  6
CONTINUOUS
 10
0.000000
 20
-0.000440
  0
VERTEX
  8
FOREGROUND
  6
CONTINUOUS
 10
0.000000
 20
10.999560
  0
SEQEND
  8
0
  0
TEXT
  8
0
 10
3.142040
 20
4.854520
 40
0.138065
  1
BA  519
 41
1.000000
  7
SN0
 71
     0
 72
     5
 11
3.731734
 21
4.854520
  0
TEXT
  8
0
 10
2.967800
 20
4.663120
 40
0.138065
  1
1/2" x 13/16"
 41
1.000000
  7
SN0
 71
     0
 72
     5
 11
3.904577
 21
4.663120
  0
SOLID
  8
0
 62
    15
 10
3.523960
 20
5.471840
 11
3.521320
 21
6.216320
 12
3.527040
 22
5.432240
 13
3.524840
 23
6.176720
  0
POLYLINE
  8
0
  6
CONTINUOUS
 66
     1
 40
0.000000
 41
0.000000
  0
VERTEX
  8
0
  6
CONTINUOUS
 10
3.523960
 20
5.471840
  0
VERTEX
  8
0
  6
CONTINUOUS
 10
3.521320
 20
6.216320
  0
VERTEX
  8
0
  6
CONTINUOUS
 10
3.524840
 20
6.176720
  0
VERTEX
  8
0
  6
CONTINUOUS
 10
3.527040
 20
5.432240
  0
VERTEX
  8
0
  6
CONTINUOUS
 10
3.523960
 20
5.471840
  0
SEQEND
  8
0
  0
SOLID
  8
0
 62
    15
 10
3.101120
 20
5.503520
 11
3.098920
 21
6.248000
 12
3.111680
 22
5.532560
 13
3.109040
 23
6.277040
  0
POLYLINE
  8
0
  6
CONTINUOUS
 66
     1
 40
0.000000
 41
0.000000
  0
VERTEX
  8
0
  6
CONTINUOUS
 10
3.101120
 20
5.503520
  0
VERTEX
  8
0
  6
CONTINUOUS
 10
3.098920
 20
6.248000
  0
VERTEX
  8
0
  6
CONTINUOUS
 10
3.109040
 20
6.277040
  0
VERTEX
  8
0
  6
CONTINUOUS
 10
3.111680
 20
5.532560
  0
VERTEX
  8
0
  6
CONTINUOUS
 10
3.101120
 20
5.503520
  0
SEQEND
  8
0
  0
SOLID
  8
0
 62
    15
 10
3.111680
 20
5.532560
 11
3.109040
 21
6.277040
 12
3.127960
 22
5.558520
 13
3.125320
 23
6.303000
  0
POLYLINE
  8
0
  6
CONTINUOUS
 66
     1
 40
0.000000
 41
0.000000
  0
VERTEX
  8
0
  6
CONTINUOUS
 10
3.111680
 20
5.532560
  0
VERTEX
  8
0
  6
CONTINUOUS
 10
3.109040
 20
6.277040
  0
VERTEX
  8
0
  6
CONTINUOUS
 10
3.125320
 20
6.303000
  0
VERTEX
  8
0
  6
CONTINUOUS
 10
3.127960
 20
5.558520
  0
VERTEX
  8
0
  6
CONTINUOUS
 10
3.111680
 20
5.532560
  0
SEQEND
  8
0
  0
SOLID
  8
0
 62
    15
 10
3.127960
 20
5.558520
 11
3.125320
 21
6.303000
 12
3.149080
 22
5.581400
 13
3.146440
 23
6.325880
  0
POLYLINE
  8
0
  6
CONTINUOUS
 66
     1
 40
0.000000
 41
0.000000
  0
VERTEX
  8
0
  6
CONTINUOUS
 10
3.127960
 20
5.558520
  0
VERTEX
  8
0
  6
CONTINUOUS
 10
3.125320
 20
6.303000
  0
VERTEX
  8
0
  6
CONTINUOUS
 10
3.146440
 20
6.325880
  0
VERTEX
  8
0
  6
CONTINUOUS
 10
3.149080
 20
5.581400
  0
VERTEX
  8
0
  6
CONTINUOUS
 10
3.127960
 20
5.558520
  0
SEQEND
  8
0
  0
SOLID
  8
0
 62
    15
 10
3.149080
 20
5.581400
 11
3.146440
 21
6.325880
 12
3.174160
 22
5.600320
 13
3.171520
 23
6.344800
  0
POLYLINE
  8
0
  6
CONTINUOUS
 66
     1
 40
0.000000
 41
0.000000
  0
VERTEX
  8
0
  6
CONTINUOUS
 10
3.149080
 20
5.581400
  0
VERTEX
  8
0
  6
CONTINUOUS
 10
3.146440
 20
6.325880
  0
VERTEX
  8
0
  6
CONTINUOUS
 10
3.171520
 20
6.344800
  0
VERTEX
  8
0
  6
CONTINUOUS
 10
3.174160
 20
5.600320
  0
VERTEX
  8
0
  6
CONTINUOUS
 10
3.149080
 20
5.581400
  0
SEQEND
  8
0
  0
SOLID
  8
0
 62
    15
 10
3.174160
 20
5.600320
 11
3.171520
 21
6.344800
 12
3.202320
 22
5.615720
 13
3.200120
 23
6.360200
  0
POLYLINE
  8
0
  6
CONTINUOUS
 66
     1
 40
0.000000
 41
0.000000
  0
VERTEX
  8
0
  6
CONTINUOUS
 10
3.174160
 20
5.600320
  0
VERTEX
  8
0
  6
CONTINUOUS
 10
3.171520
 20
6.344800
  0
VERTEX
  8
0
  6
CONTINUOUS
 10
3.200120
 20
6.360200
  0
VERTEX
  8
0
  6
CONTINUOUS
 10
3.202320
 20
5.615720
  0
VERTEX
  8
0
  6
CONTINUOUS
 10
3.174160
 20
5.600320
  0
SEQEND
  8
0
  0
SOLID
  8
0
 62
    15
 10
3.202320
 20
5.615720
 11
3.200120
 21
6.360200
 12
3.233120
 22
5.626720
 13
3.230480
 23
6.371200
  0
POLYLINE
  8
0
  6
CONTINUOUS
 66
     1
 40
0.000000
 41
0.000000
  0
VERTEX
  8
0
  6
CONTINUOUS
 10
3.202320
 20
5.615720
  0
VERTEX
  8
0
  6
CONTINUOUS
 10
3.200120
 20
6.360200
  0
VERTEX
  8
0
  6
CONTINUOUS
 10
3.230480
 20
6.371200
  0
VERTEX
  8
0
  6
CONTINUOUS
 10
3.233120
 20
5.626720
  0
VERTEX
  8
0
  6
CONTINUOUS
 10
3.202320
 20
5.615720
  0
SEQEND
  8
0
  0
SOLID
  8
0
 62
    15
 10
3.233120
 20
5.626720
 11
3.230480
 21
6.371200
 12
3.265240
 22
5.632880
 13
3.262600
 23
6.377360
  0
POLYLINE
  8
0
  6
CONTINUOUS
 66
     1
 40
0.000000
 41
0.000000
  0
VERTEX
  8
0
  6
CONTINUOUS
 10
3.233120
 20
5.626720
  0
VERTEX
  8
0
  6
CONTINUOUS
 10
3.230480
 20
6.371200
  0
VERTEX
  8
0
  6
CONTINUOUS
 10
3.262600
 20
6.377360
  0
VERTEX
  8
0
  6
CONTINUOUS
 10
3.265240
 20
5.632880
  0
VERTEX
  8
0
  6
CONTINUOUS
 10
3.233120
 20
5.626720
  0
SEQEND
  8
0
  0
SOLID
  8
0
 62
    15
 10
3.265240
 20
5.632880
 11
3.262600
 21
6.377360
 12
3.297800
 22
5.634200
 13
3.295160
 23
6.378680
  0
POLYLINE
  8
0
  6
CONTINUOUS
 66
     1
 40
0.000000
 41
0.000000
  0
VERTEX
  8
0
  6
CONTINUOUS
 10
3.265240
 20
5.632880
  0
VERTEX
  8
0
  6
CONTINUOUS
 10
3.262600
 20
6.377360
  0
VERTEX
  8
0
  6
CONTINUOUS
 10
3.295160
 20
6.378680
  0
VERTEX
  8
0
  6
CONTINUOUS
 10
3.297800
 20
5.634200
  0
VERTEX
  8
0
  6
CONTINUOUS
 10
3.265240
 20
5.632880
  0
SEQEND
  8
0
  0
SOLID
  8
0
 62
    15
 10
3.297800
 20
5.634200
 11
3.295160
 21
6.378680
 12
3.329920
 22
5.630240
 13
3.327280
 23
6.374720
  0
POLYLINE
  8
0
  6
CONTINUOUS
 66
     1
 40
0.000000
 41
0.000000
  0
VERTEX
  8
0
  6
CONTINUOUS
 10
3.297800
 20
5.634200
  0
VERTEX
  8
0
  6
CONTINUOUS
 10
3.295160
 20
6.378680
  0
VERTEX
  8
0
  6
CONTINUOUS
 10
3.327280
 20
6.374720
  0
VERTEX
  8
0
  6
CONTINUOUS
 10
3.329920
 20
5.630240
  0
VERTEX
  8
0
  6
CONTINUOUS
 10
3.297800
 20
5.634200
  0
SEQEND
  8
0
  0
SOLID
  8
0
 62
    15
 10
3.329920
 20
5.630240
 11
3.327280
 21
6.374720
 12
3.360720
 22
5.620120
 13
3.358520
 23
6.364600
  0
POLYLINE
  8
0
  6
CONTINUOUS
 66
     1
 40
0.000000
 41
0.000000
  0
VERTEX
  8
0
  6
CONTINUOUS
 10
3.329920
 20
5.630240
  0
VERTEX
  8
0
  6
CONTINUOUS
 10
3.327280
 20
6.374720
  0
VERTEX
  8
0
  6
CONTINUOUS
 10
3.358520
 20
6.364600
  0
VERTEX
  8
0
  6
CONTINUOUS
 10
3.360720
 20
5.620120
  0
VERTEX
  8
0
  6
CONTINUOUS
 10
3.329920
 20
5.630240
  0
SEQEND
  8
0
  0
SOLID
  8
0
 62
    15
 10
3.360720
 20
5.620120
 11
3.358520
 21
6.364600
 12
3.389760
 22
5.604280
 13
3.387120
 23
6.348760
  0
POLYLINE
  8
0
  6
CONTINUOUS
 66
     1
 40
0.000000
 41
0.000000
  0
VERTEX
  8
0
  6
CONTINUOUS
 10
3.360720
 20
5.620120
  0
VERTEX
  8
0
  6
CONTINUOUS
 10
3.358520
 20
6.364600
  0
VERTEX
  8
0
  6
CONTINUOUS
 10
3.387120
 20
6.348760
  0
VERTEX
  8
0
  6
CONTINUOUS
 10
3.389760
 20
5.604280
  0
VERTEX
  8
0
  6
CONTINUOUS
 10
3.360720
 20
5.620120
  0
SEQEND
  8
0
  0
SOLID
  8
0
 62
    15
 10
3.389760
 20
5.604280
 11
3.387120
 21
6.348760
 12
3.415280
 22
5.581840
 13
3.413080
 23
6.326320
  0
POLYLINE
  8
0
  6
CONTINUOUS
 66
     1
 40
0.000000
 41
0.000000
  0
VERTEX
  8
0
  6
CONTINUOUS
 10
3.389760
 20
5.604280
  0
VERTEX
  8
0
  6
CONTINUOUS
 10
3.387120
 20
6.348760
  0
VERTEX
  8
0
  6
CONTINUOUS
 10
3.413080
 20
6.326320
  0
VERTEX
  8
0
  6
CONTINUOUS
 10
3.415280
 20
5.581840
  0
VERTEX
  8
0
  6
CONTINUOUS
 10
3.389760
 20
5.604280
  0
SEQEND
  8
0
  0
SOLID
  8
0
 62
    15
 10
3.415280
 20
5.581840
 11
3.413080
 21
6.326320
 12
3.437280
 22
5.552360
 13
3.434640
 23
6.296840
  0
POLYLINE
  8
0
  6
CONTINUOUS
 66
     1
 40
0.000000
 41
0.000000
  0
VERTEX
  8
0
  6
CONTINUOUS
 10
3.415280
 20
5.581840
  0
VERTEX
  8
0
  6
CONTINUOUS
 10
3.413080
 20
6.326320
  0
VERTEX
  8
0
  6
CONTINUOUS
 10
3.434640
 20
6.296840
  0
VERTEX
  8
0
  6
CONTINUOUS
 10
3.437280
 20
5.552360
  0
VERTEX
  8
0
  6
CONTINUOUS
 10
3.415280
 20
5.581840
  0
SEQEND
  8
0
  0
SOLID
  8
0
 62
    15
 10
3.437280
 20
5.552360
 11
3.434640
 21
6.296840
 12
3.454440
 22
5.515840
 13
3.451800
 23
6.260320
  0
POLYLINE
  8
0
  6
CONTINUOUS
 66
     1
 40
0.000000
 41
0.000000
  0
VERTEX
  8
0
  6
CONTINUOUS
 10
3.437280
 20
5.552360
  0
VERTEX
  8
0
  6
CONTINUOUS
 10
3.434640
 20
6.296840
  0
VERTEX
  8
0
  6
CONTINUOUS
 10
3.451800
 20
6.260320
  0
VERTEX
  8
0
  6
CONTINUOUS
 10
3.454440
 20
5.515840
  0
VERTEX
  8
0
  6
CONTINUOUS
 10
3.437280
 20
5.552360
  0
SEQEND
  8
0
  0
SOLID
  8
0
 62
    15
 10
3.454440
 20
5.515840
 11
3.451800
 21
6.260320
 12
3.465880
 22
5.471840
 13
3.463240
 23
6.216320
  0
POLYLINE
  8
0
  6
CONTINUOUS
 66
     1
 40
0.000000
 41
0.000000
  0
VERTEX
  8
0
  6
CONTINUOUS
 10
3.454440
 20
5.515840
  0
VERTEX
  8
0
  6
CONTINUOUS
 10
3.451800
 20
6.260320
  0
VERTEX
  8
0
  6
CONTINUOUS
 10
3.463240
 20
6.216320
  0
VERTEX
  8
0
  6
CONTINUOUS
 10
3.465880
 20
5.471840
  0
VERTEX
  8
0
  6
CONTINUOUS
 10
3.454440
 20
5.515840
  0
SEQEND
  8
0
  0
SOLID
  8
0
 62
    15
 10
3.465880
 20
5.471840
 11
3.463240
 21
6.216320
 12
3.523960
 22
5.471840
 13
3.521320
 23
6.216320
  0
POLYLINE
  8
0
  6
CONTINUOUS
 66
     1
 40
0.000000
 41
0.000000
  0
VERTEX
  8
0
  6
CONTINUOUS
 10
3.465880
 20
5.471840
  0
VERTEX
  8
0
  6
CONTINUOUS
 10
3.463240
 20
6.216320
  0
VERTEX
  8
0
  6
CONTINUOUS
 10
3.521320
 20
6.216320
  0
VERTEX
  8
0
  6
CONTINUOUS
 10
3.523960
 20
5.471840
  0
VERTEX
  8
0
  6
CONTINUOUS
 10
3.465880
 20
5.471840
  0
SEQEND
  8
0
  0
SOLID
  8
0
 62
    15
 10
3.026320
 20
5.096960
 11
3.023680
 21
5.841440
 12
3.026320
 22
5.470960
 13
3.023680
 23
6.215440
  0
POLYLINE
  8
0
  6
CONTINUOUS
 66
     1
 40
0.000000
 41
0.000000
  0
VERTEX
  8
0
  6
CONTINUOUS
 10
3.026320
 20
5.096960
  0
VERTEX
  8
0
  6
CONTINUOUS
 10
3.023680
 20
5.841440
  0
VERTEX
  8
0
  6
CONTINUOUS
 10
3.023680
 20
6.215440
  0
VERTEX
  8
0
  6
CONTINUOUS
 10
3.026320
 20
5.470960
  0
VERTEX
  8
0
  6
CONTINUOUS
 10
3.026320
 20
5.096960
  0
SEQEND
  8
0
  0
SOLID
  8
0
 62
    15
 10
3.527040
 20
5.432240
 11
3.524840
 21
6.176720
 12
3.538040
 22
5.390880
 13
3.535400
 23
6.135360
  0
POLYLINE
  8
0
  6
CONTINUOUS
 66
     1
 40
0.000000
 41
0.000000
  0
VERTEX
  8
0
  6
CONTINUOUS
 10
3.527040
 20
5.432240
  0
VERTEX
  8
0
  6
CONTINUOUS
 10
3.524840
 20
6.176720
  0
VERTEX
  8
0
  6
CONTINUOUS
 10
3.535400
 20
6.135360
  0
VERTEX
  8
0
  6
CONTINUOUS
 10
3.538040
 20
5.390880
  0
VERTEX
  8
0
  6
CONTINUOUS
 10
3.527040
 20
5.432240
  0
SEQEND
  8
0
  0
SOLID
  8
0
 62
    15
 10
3.538040
 20
5.390880
 11
3.535400
 21
6.135360
 12
3.546840
 22
5.370640
 13
3.544200
 23
6.115120
  0
POLYLINE
  8
0
  6
CONTINUOUS
 66
     1
 40
0.000000
 41
0.000000
  0
VERTEX
  8
0
  6
CONTINUOUS
 10
3.538040
 20
5.390880
  0
VERTEX
  8
0
  6
CONTINUOUS
 10
3.535400
 20
6.135360
  0
VERTEX
  8
0
  6
CONTINUOUS
 10
3.544200
 20
6.115120
  0
VERTEX
  8
0
  6
CONTINUOUS
 10
3.546840
 20
5.370640
  0
VERTEX
  8
0
  6
CONTINUOUS
 10
3.538040
 20
5.390880
  0
SEQEND
  8
0
  0
SOLID
  8
0
 62
    15
 10
3.546840
 20
5.370640
 11
3.544200
 21
6.115120
 12
3.558280
 22
5.350400
 13
3.555640
 23
6.094880
  0
POLYLINE
  8
0
  6
CONTINUOUS
 66
     1
 40
0.000000
 41
0.000000
  0
VERTEX
  8
0
  6
CONTINUOUS
 10
3.546840
 20
5.370640
  0
VERTEX
  8
0
  6
CONTINUOUS
 10
3.544200
 20
6.115120
  0
VERTEX
  8
0
  6
CONTINUOUS
 10
3.555640
 20
6.094880
  0
VERTEX
  8
0
  6
CONTINUOUS
 10
3.558280
 20
5.350400
  0
VERTEX
  8
0
  6
CONTINUOUS
 10
3.546840
 20
5.370640
  0
SEQEND
  8
0
  0
SOLID
  8
0
 62
    15
 10
3.558280
 20
5.350400
 11
3.555640
 21
6.094880
 12
3.571920
 22
5.331040
 13
3.569720
 23
6.075520
  0
POLYLINE
  8
0
  6
CONTINUOUS
 66
     1
 40
0.000000
 41
0.000000
  0
VERTEX
  8
0
  6
CONTINUOUS
 10
3.558280
 20
5.350400
  0
VERTEX
  8
0
  6
CONTINUOUS
 10
3.555640
 20
6.094880
  0
VERTEX
  8
0
  6
CONTINUOUS
 10
3.569720
 20
6.075520
  0
VERTEX
  8
0
  6
CONTINUOUS
 10
3.571920
 20
5.331040
  0
VERTEX
  8
0
  6
CONTINUOUS
 10
3.558280
 20
5.350400
  0
SEQEND
  8
0
  0
SOLID
  8
0
 62
    15
 10
3.571920
 20
5.331040
 11
3.569720
 21
6.075520
 12
3.589080
 22
5.312560
 13
3.586440
 23
6.057040
  0
POLYLINE
  8
0
  6
CONTINUOUS
 66
     1
 40
0.000000
 41
0.000000
  0
VERTEX
  8
0
  6
CONTINUOUS
 10
3.571920
 20
5.331040
  0
VERTEX
  8
0
  6
CONTINUOUS
 10
3.569720
 20
6.075520
  0
VERTEX
  8
0
  6
CONTINUOUS
 10
3.586440
 20
6.057040
  0
VERTEX
  8
0
  6
CONTINUOUS
 10
3.589080
 20
5.312560
  0
VERTEX
  8
0
  6
CONTINUOUS
 10
3.571920
 20
5.331040
  0
SEQEND
  8
0
  0
SOLID
  8
0
 62
    15
 10
3.589080
 20
5.312560
 11
3.586440
 21
6.057040
 12
3.608880
 22
5.295400
 13
3.606680
 23
6.039880
  0
POLYLINE
  8
0
  6
CONTINUOUS
 66
     1
 40
0.000000
 41
0.000000
  0
VERTEX
  8
0
  6
CONTINUOUS
 10
3.589080
 20
5.312560
  0
VERTEX
  8
0
  6
CONTINUOUS
 10
3.586440
 20
6.057040
  0
VERTEX
  8
0
  6
CONTINUOUS
 10
3.606680
 20
6.039880
  0
VERTEX
  8
0
  6
CONTINUOUS
 10
3.608880
 20
5.295400
  0
VERTEX
  8
0
  6
CONTINUOUS
 10
3.589080
 20
5.312560
  0
SEQEND
  8
0
  0
SOLID
  8
0
 62
    15
 10
3.608880
 20
5.295400
 11
3.606680
 21
6.039880
 12
3.632200
 22
5.279560
 13
3.629560
 23
6.024040
  0
POLYLINE
  8
0
  6
CONTINUOUS
 66
     1
 40
0.000000
 41
0.000000
  0
VERTEX
  8
0
  6
CONTINUOUS
 10
3.608880
 20
5.295400
  0
VERTEX
  8
0
  6
CONTINUOUS
 10
3.606680
 20
6.039880
  0
VERTEX
  8
0
  6
CONTINUOUS
 10
3.629560
 20
6.024040
  0
VERTEX
  8
0
  6
CONTINUOUS
 10
3.632200
 20
5.279560
  0
VERTEX
  8
0
  6
CONTINUOUS
 10
3.608880
 20
5.295400
  0
SEQEND
  8
0
  0
SOLID
  8
0
 62
    15
 10
3.632200
 20
5.279560
 11
3.629560
 21
6.024040
 12
3.658600
 22
5.265480
 13
3.656400
 23
6.009960
  0
POLYLINE
  8
0
  6
CONTINUOUS
 66
     1
 40
0.000000
 41
0.000000
  0
VERTEX
  8
0
  6
CONTINUOUS
 10
3.632200
 20
5.279560
  0
VERTEX
  8
0
  6
CONTINUOUS
 10
3.629560
 20
6.024040
  0
VERTEX
  8
0
  6
CONTINUOUS
 10
3.656400
 20
6.009960
  0
VERTEX
  8
0
  6
CONTINUOUS
 10
3.658600
 20
5.265480
  0
VERTEX
  8
0
  6
CONTINUOUS
 10
3.632200
 20
5.279560
  0
SEQEND
  8
0
  0
SOLID
  8
0
 62
    15
 10
3.658600
 20
5.265480
 11
3.656400
 21
6.009960
 12
3.688960
 22
5.253160
 13
3.686760
 23
5.998080
  0
POLYLINE
  8
0
  6
CONTINUOUS
 66
     1
 40
0.000000
 41
0.000000
  0
VERTEX
  8
0
  6
CONTINUOUS
 10
3.658600
 20
5.265480
  0
VERTEX
  8
0
  6
CONTINUOUS
 10
3.656400
 20
6.009960
  0
VERTEX
  8
0
  6
CONTINUOUS
 10
3.686760
 20
5.998080
  0
VERTEX
  8
0
  6
CONTINUOUS
 10
3.688960
 20
5.253160
  0
VERTEX
  8
0
  6
CONTINUOUS
 10
3.658600
 20
5.265480
  0
SEQEND
  8
0
  0
SOLID
  8
0
 62
    15
 10
3.688960
 20
5.253160
 11
3.686760
 21
5.998080
 12
3.723280
 22
5.243480
 13
3.721080
 23
5.987960
  0
POLYLINE
  8
0
  6
CONTINUOUS
 66
     1
 40
0.000000
 41
0.000000
  0
VERTEX
  8
0
  6
CONTINUOUS
 10
3.688960
 20
5.253160
  0
VERTEX
  8
0
  6
CONTINUOUS
 10
3.686760
 20
5.998080
  0
VERTEX
  8
0
  6
CONTINUOUS
 10
3.721080
 20
5.987960
  0
VERTEX
  8
0
  6
CONTINUOUS
 10
3.723280
 20
5.243480
  0
VERTEX
  8
0
  6
CONTINUOUS
 10
3.688960
 20
5.253160
  0
SEQEND
  8
0
  0
SOLID
  8
0
 62
    15
 10
3.723280
 20
5.243480
 11
3.721080
 21
5.987960
 12
3.761560
 22
5.236000
 13
3.759360
 23
5.980480
  0
POLYLINE
  8
0
  6
CONTINUOUS
 66
     1
 40
0.000000
 41
0.000000
  0
VERTEX
  8
0
  6
CONTINUOUS
 10
3.723280
 20
5.243480
  0
VERTEX
  8
0
  6
CONTINUOUS
 10
3.721080
 20
5.987960
  0
VERTEX
  8
0
  6
CONTINUOUS
 10
3.759360
 20
5.980480
  0
VERTEX
  8
0
  6
CONTINUOUS
 10
3.761560
 20
5.236000
  0
VERTEX
  8
0
  6
CONTINUOUS
 10
3.723280
 20
5.243480
  0
SEQEND
  8
0
  0
SOLID
  8
0
 62
    15
 10
3.761560
 20
5.236000
 11
3.759360
 21
5.980480
 12
3.804240
 22
5.231600
 13
3.801600
 23
5.976080
  0
POLYLINE
  8
0
  6
CONTINUOUS
 66
     1
 40
0.000000
 41
0.000000
  0
VERTEX
  8
0
  6
CONTINUOUS
 10
3.761560
 20
5.236000
  0
VERTEX
  8
0
  6
CONTINUOUS
 10
3.759360
 20
5.980480
  0
VERTEX
  8
0
  6
CONTINUOUS
 10
3.801600
 20
5.976080
  0
VERTEX
  8
0
  6
CONTINUOUS
 10
3.804240
 20
5.231600
  0
VERTEX
  8
0
  6
CONTINUOUS
 10
3.761560
 20
5.236000
  0
SEQEND
  8
0
  0
SOLID
  8
0
 62
    15
 10
3.804240
 20
5.231600
 11
3.801600
 21
5.976080
 12
3.850880
 22
5.229840
 13
3.848680
 23
5.974320
  0
POLYLINE
  8
0
  6
CONTINUOUS
 66
     1
 40
0.000000
 41
0.000000
  0
VERTEX
  8
0
  6
CONTINUOUS
 10
3.804240
 20
5.231600
  0
VERTEX
  8
0
  6
CONTINUOUS
 10
3.801600
 20
5.976080
  0
VERTEX
  8
0
  6
CONTINUOUS
 10
3.848680
 20
5.974320
  0
VERTEX
  8
0
  6
CONTINUOUS
 10
3.850880
 20
5.229840
  0
VERTEX
  8
0
  6
CONTINUOUS
 10
3.804240
 20
5.231600
  0
SEQEND
  8
0
  0
SOLID
  8
0
 62
    15
 10
3.026320
 20
5.470960
 11
3.023680
 21
6.215440
 12
3.097600
 22
5.470960
 13
3.095400
 23
6.215440
  0
POLYLINE
  8
0
  6
CONTINUOUS
 66
     1
 40
0.000000
 41
0.000000
  0
VERTEX
  8
0
  6
CONTINUOUS
 10
3.026320
 20
5.470960
  0
VERTEX
  8
0
  6
CONTINUOUS
 10
3.023680
 20
6.215440
  0
VERTEX
  8
0
  6
CONTINUOUS
 10
3.095400
 20
6.215440
  0
VERTEX
  8
0
  6
CONTINUOUS
 10
3.097600
 20
5.470960
  0
VERTEX
  8
0
  6
CONTINUOUS
 10
3.026320
 20
5.470960
  0
SEQEND
  8
0
  0
SOLID
  8
0
 62
    15
 10
3.097600
 20
5.470960
 11
3.095400
 21
6.215440
 12
3.097600
 22
5.471840
 13
3.095400
 23
6.216320
  0
POLYLINE
  8
0
  6
CONTINUOUS
 66
     1
 40
0.000000
 41
0.000000
  0
VERTEX
  8
0
  6
CONTINUOUS
 10
3.097600
 20
5.470960
  0
VERTEX
  8
0
  6
CONTINUOUS
 10
3.095400
 20
6.215440
  0
VERTEX
  8
0
  6
CONTINUOUS
 10
3.095400
 20
6.216320
  0
VERTEX
  8
0
  6
CONTINUOUS
 10
3.097600
 20
5.471840
  0
VERTEX
  8
0
  6
CONTINUOUS
 10
3.097600
 20
5.470960
  0
SEQEND
  8
0
  0
SOLID
  8
0
 62
    15
 10
3.097600
 20
5.471840
 11
3.095400
 21
6.216320
 12
3.101120
 22
5.503520
 13
3.098920
 23
6.248000
  0
POLYLINE
  8
0
  6
CONTINUOUS
 66
     1
 40
0.000000
 41
0.000000
  0
VERTEX
  8
0
  6
CONTINUOUS
 10
3.097600
 20
5.471840
  0
VERTEX
  8
0
  6
CONTINUOUS
 10
3.095400
 20
6.216320
  0
VERTEX
  8
0
  6
CONTINUOUS
 10
3.098920
 20
6.248000
  0
VERTEX
  8
0
  6
CONTINUOUS
 10
3.101120
 20
5.503520
  0
VERTEX
  8
0
  6
CONTINUOUS
 10
3.097600
 20
5.471840
  0
SEQEND
  8
0
  0
POLYLINE
  8
0
  6
CONTINUOUS
 66
     1
 40
0.000000
 41
0.000000
  0
VERTEX
  8
0
  6
CONTINUOUS
 10
3.097600
 20
5.471840
  0
VERTEX
  8
0
  6
CONTINUOUS
 10
3.101120
 20
5.503520
  0
VERTEX
  8
0
  6
CONTINUOUS
 10
3.111680
 20
5.532560
  0
VERTEX
  8
0
  6
CONTINUOUS
 10
3.127960
 20
5.558520
  0
VERTEX
  8
0
  6
CONTINUOUS
 10
3.149080
 20
5.581400
  0
VERTEX
  8
0
  6
CONTINUOUS
 10
3.174160
 20
5.600320
  0
VERTEX
  8
0
  6
CONTINUOUS
 10
3.202320
 20
5.615720
  0
VERTEX
  8
0
  6
CONTINUOUS
 10
3.233120
 20
5.626720
  0
VERTEX
  8
0
  6
CONTINUOUS
 10
3.265240
 20
5.632880
  0
VERTEX
  8
0
  6
CONTINUOUS
 10
3.297800
 20
5.634200
  0
VERTEX
  8
0
  6
CONTINUOUS
 10
3.329920
 20
5.630240
  0
VERTEX
  8
0
  6
CONTINUOUS
 10
3.360720
 20
5.620120
  0
VERTEX
  8
0
  6
CONTINUOUS
 10
3.389760
 20
5.604280
  0
VERTEX
  8
0
  6
CONTINUOUS
 10
3.415280
 20
5.581840
  0
VERTEX
  8
0
  6
CONTINUOUS
 10
3.437280
 20
5.552360
  0
VERTEX
  8
0
  6
CONTINUOUS
 10
3.454440
 20
5.515840
  0
VERTEX
  8
0
  6
CONTINUOUS
 10
3.465880
 20
5.471840
  0
VERTEX
  8
0
  6
CONTINUOUS
 10
3.523960
 20
5.471840
  0
VERTEX
  8
0
  6
CONTINUOUS
 10
3.527040
 20
5.432240
  0
VERTEX
  8
0
  6
CONTINUOUS
 10
3.538040
 20
5.390880
  0
VERTEX
  8
0
  6
CONTINUOUS
 10
3.546840
 20
5.370640
  0
VERTEX
  8
0
  6
CONTINUOUS
 10
3.558280
 20
5.350400
  0
VERTEX
  8
0
  6
CONTINUOUS
 10
3.571920
 20
5.331040
  0
VERTEX
  8
0
  6
CONTINUOUS
 10
3.589080
 20
5.312560
  0
VERTEX
  8
0
  6
CONTINUOUS
 10
3.608880
 20
5.295400
  0
VERTEX
  8
0
  6
CONTINUOUS
 10
3.632200
 20
5.279560
  0
VERTEX
  8
0
  6
CONTINUOUS
 10
3.658600
 20
5.265480
  0
VERTEX
  8
0
  6
CONTINUOUS
 10
3.688960
 20
5.253160
  0
VERTEX
  8
0
  6
CONTINUOUS
 10
3.723280
 20
5.243480
  0
VERTEX
  8
0
  6
CONTINUOUS
 10
3.761560
 20
5.236000
  0
VERTEX
  8
0
  6
CONTINUOUS
 10
3.804240
 20
5.231600
  0
VERTEX
  8
0
  6
CONTINUOUS
 10
3.850880
 20
5.229840
  0
VERTEX
  8
0
  6
CONTINUOUS
 10
3.850880
 20
5.096960
  0
VERTEX
  8
0
  6
CONTINUOUS
 10
3.026320
 20
5.096960
  0
VERTEX
  8
0
  6
CONTINUOUS
 10
3.026320
 20
5.470960
  0
VERTEX
  8
0
  6
CONTINUOUS
 10
3.097600
 20
5.470960
  0
VERTEX
  8
0
  6
CONTINUOUS
 10
3.097600
 20
5.471840
  0
SEQEND
  8
0
  0
POLYLINE
  8
0
  6
CONTINUOUS
 66
     1
 40
0.014080
 41
0.014080
  0
VERTEX
  8
0
  6
CONTINUOUS
 10
4.736600
 20
5.785120
  0
VERTEX
  8
0
  6
CONTINUOUS
 10
4.737480
 20
5.800960
  0
VERTEX
  8
0
  6
CONTINUOUS
 10
4.740120
 20
5.816360
  0
VERTEX
  8
0
  6
CONTINUOUS
 10
4.744520
 20
5.831320
  0
VERTEX
  8
0
  6
CONTINUOUS
 10
4.758160
 20
5.859040
  0
VERTEX
  8
0
  6
CONTINUOUS
 10
4.776640
 20
5.883240
  0
VERTEX
  8
0
  6
CONTINUOUS
 10
4.799960
 20
5.904360
  0
VERTEX
  8
0
  6
CONTINUOUS
 10
4.826800
 20
5.921960
  0
VERTEX
  8
0
  6
CONTINUOUS
 10
4.856280
 20
5.935160
  0
VERTEX
  8
0
  6
CONTINUOUS
 10
4.887960
 20
5.943520
  0
VERTEX
  8
0
  6
CONTINUOUS
 10
4.920080
 20
5.947480
  0
VERTEX
  8
0
  6
CONTINUOUS
 10
4.936360
 20
5.947480
  0
VERTEX
  8
0
  6
CONTINUOUS
 10
4.952640
 20
5.946160
  0
VERTEX
  8
0
  6
CONTINUOUS
 10
4.984320
 20
5.939120
  0
VERTEX
  8
0
  6
CONTINUOUS
 10
5.014240
 20
5.926360
  0
VERTEX
  8
0
  6
CONTINUOUS
 10
5.028320
 20
5.917560
  0
VERTEX
  8
0
  6
CONTINUOUS
 10
5.054280
 20
5.895120
  0
VERTEX
  8
0
  6
CONTINUOUS
 10
5.065720
 20
5.881040
  0
VERTEX
  8
0
  6
CONTINUOUS
 10
5.085080
 20
5.848480
  0
VERTEX
  8
0
  6
CONTINUOUS
 10
5.093000
 20
5.829120
  0
VERTEX
  8
0
  6
CONTINUOUS
 10
5.102240
 20
5.797000
  0
VERTEX
  8
0
  6
CONTINUOUS
 10
5.104440
 20
5.785120
  0
VERTEX
  8
0
  6
CONTINUOUS
 10
5.162520
 20
5.785120
  0
VERTEX
  8
0
  6
CONTINUOUS
 10
5.165600
 20
5.745520
  0
VERTEX
  8
0
  6
CONTINUOUS
 10
5.176600
 20
5.704160
  0
VERTEX
  8
0
  6
CONTINUOUS
 10
5.190680
 20
5.673800
  0
VERTEX
  8
0
  6
CONTINUOUS
 10
5.210920
 20
5.644320
  0
VERTEX
  8
0
  6
CONTINUOUS
 10
5.237320
 20
5.617040
  0
VERTEX
  8
0
  6
CONTINUOUS
 10
5.270760
 20
5.592840
  0
VERTEX
  8
0
  6
CONTINUOUS
 10
5.312120
 20
5.572160
  0
VERTEX
  8
0
  6
CONTINUOUS
 10
5.344680
 20
5.561160
  0
VERTEX
  8
0
  6
CONTINUOUS
 10
5.400560
 20
5.549280
  0
VERTEX
  8
0
  6
CONTINUOUS
 10
5.442800
 20
5.544880
  0
VERTEX
  8
0
  6
CONTINUOUS
 10
5.489880
 20
5.543120
  0
VERTEX
  8
0
  6
CONTINUOUS
 10
5.489880
 20
5.410240
  0
VERTEX
  8
0
  6
CONTINUOUS
 10
4.664880
 20
5.410240
  0
VERTEX
  8
0
  6
CONTINUOUS
 10
4.664880
 20
5.784240
  0
VERTEX
  8
0
  6
CONTINUOUS
 10
4.736600
 20
5.784240
  0
VERTEX
  8
0
  6
CONTINUOUS
 10
4.736600
 20
5.785120
  0
SEQEND
  8
0
  0
TEXT
  8
0
 10
4.767840
 20
5.155920
 40
0.138065
  1
BA  519
 41
1.000000
  7
SN0
 71
     0
 72
     5
 11
5.357534
 21
5.155920
  0
TEXT
  8
0
 10
4.593160
 20
4.964080
 40
0.138065
  1
1/2" x 13/16"
 41
1.000000
  7
SN0
 71
     0
 72
     5
 11
5.529937
 21
4.964080
  0
ENDSEC
  0
EOF
