  0
SECTION
  2
HEADER
  9
$ACADVER
  1
AC1006
  9
$EXTMIN
 10
3.657720
 20
0.460240
  9
$EXTMAX
 10
7.021960
 20
3.828880
  9
$LTSCALE
 40
0.044000
  9
$PDMODE
 70
    35
  9
$PDSIZE
 40
0.035200
  0
ENDSEC
  0
SECTION
  2
TABLES
  0
TABLE
  2
LTYPE
 70
     9
  0
LTYPE
  2
CONTINUOUS
 70
    64
  3
Solid line
 72
    65
 73
     0
 40
0.000000
  0
LTYPE
  2
DASHED
 70
    64
  3
__ __ __ __ __ __ __ __ __ __ __ __ __ __ __
 72
    65
 73
     2
 40
0.000330
 49
0.000220
 49
-0.000110
  0
LTYPE
  2
HIDDEN
 70
    64
  3
 _ _ _ _ _ _ _ _ _ _ _ _ _ _ _ _ _ _ _ _ _ _
 72
    65
 73
     2
 40
0.000165
 49
0.000110
 49
-0.000055
  0
LTYPE
  2
CENTER
 70
    64
  3
____ _ ____ _ ____ _ ____ _ ____ _ ____ _ ____
 72
    65
 73
     4
 40
0.000880
 49
0.000550
 49
-0.000110
 49
0.000110
 49
-0.000110
  0
LTYPE
  2
PHANTOM
 70
    64
  3
_____ _ _ _____ _ _ _____ _ _ _____ _ _ ____
 72
    65
 73
     6
 40
0.001100
 49
0.000550
 49
-0.000110
 49
0.000110
 49
-0.000110
 49
0.000110
 49
-0.000110
  0
LTYPE
  2
DOT
 70
    64
  3
...............................................
 72
    65
 73
     2
 40
0.000110
 49
0.000000
 49
-0.000110
  0
LTYPE
  2
DASHDOT
 70
    64
  3
__ . __ . __ . __ . __ . __ . __ . __ . __ . __
 72
    65
 73
     4
 40
0.000440
 49
0.000220
 49
-0.000110
 49
0.000000
 49
-0.000110
  0
LTYPE
  2
BORDER
 70
    64
  3
__ __ . __ __ . __ __ . __ __ . __ __ . __ __
 72
    65
 73
     6
 40
0.000770
 49
0.000220
 49
-0.000110
 49
0.000220
 49
-0.000110
 49
0.000000
 49
-0.000110
  0
LTYPE
  2
DIVIDE
 70
    64
  3
__ . . __ . . __ . . __ . . __ . . __ . . __
 72
    65
 73
     6
 40
0.000550
 49
0.000220
 49
-0.000110
 49
0.000000
 49
-0.000110
 49
0.000000
 49
-0.000110
  0
LTYPE
  2
DOTDOT
 70
    64
  3
 . .  . .  . .  . .  . .  . . 
 72
    65
 73
     5
 40
0.000242
 49
-0.000110
 49
0.000000
 49
-0.000110
 49
0.000000
 49
-0.000110
  0
ENDTAB
  0
TABLE
  2
STYLE
 70
     2
  0
STYLE
 70
     0
  2
SN0
 40
0.000000
 41
0.000440
 50
0.000000
 71
     0
 42
0.000000
  3
ROMAND
  0
STYLE
 70
    68
  2
SV0
 40
0.000000
 41
0.000440
 50
0.000000
 71
     0
 42
0.000000
  3
ROMAND
  0
ENDTAB
  0
TABLE
  2
LAYER
 70
     3
  0
LAYER
  2
FOREGROUND
 70
    64
 62
     7
  6
CONTINUOUS
  0
LAYER
  2
BACKGROUND
 70
    65
 62
    -7
  6
CONTINUOUS
  0
LAYER
  2
0
 70
    64
 62
     7
  6
CONTINUOUS
  0
ENDTAB
  0
ENDSEC
  0
SECTION
  2
ENTITIES
  0
POLYLINE
  8
FOREGROUND
  6
CONTINUOUS
 66
     1
 40
0.000000
 41
0.000000
  0
VERTEX
  8
FOREGROUND
  6
CONTINUOUS
 10
0.000000
 20
4.289120
  0
VERTEX
  8
FOREGROUND
  6
CONTINUOUS
 10
8.499920
 20
4.289120
  0
VERTEX
  8
FOREGROUND
  6
CONTINUOUS
 10
8.499920
 20
-6.710880
  0
VERTEX
  8
FOREGROUND
  6
CONTINUOUS
 10
0.000000
 20
-6.710880
  0
VERTEX
  8
FOREGROUND
  6
CONTINUOUS
 10
0.000000
 20
4.289120
  0
SEQEND
  8
0
  0
POLYLINE
  8
FOREGROUND
  6
CONTINUOUS
 66
     1
 40
0.000000
 41
0.000000
  0
VERTEX
  8
FOREGROUND
  6
CONTINUOUS
 10
0.000000
 20
4.289120
  0
VERTEX
  8
FOREGROUND
  6
CONTINUOUS
 10
8.499920
 20
4.289120
  0
VERTEX
  8
FOREGROUND
  6
CONTINUOUS
 10
8.499920
 20
-6.710880
  0
VERTEX
  8
FOREGROUND
  6
CONTINUOUS
 10
0.000000
 20
-6.710880
  0
VERTEX
  8
FOREGROUND
  6
CONTINUOUS
 10
0.000000
 20
4.289120
  0
SEQEND
  8
0
  0
POLYLINE
  8
0
  6
CONTINUOUS
 66
     1
 40
0.014080
 41
0.014080
  0
VERTEX
  8
0
  6
CONTINUOUS
 10
6.737720
 20
2.185040
  0
VERTEX
  8
0
  6
CONTINUOUS
 10
6.765000
 20
2.199120
  0
VERTEX
  8
0
  6
CONTINUOUS
 10
6.816480
 20
2.232120
  0
VERTEX
  8
0
  6
CONTINUOUS
 10
6.863120
 20
2.269960
  0
VERTEX
  8
0
  6
CONTINUOUS
 10
6.904040
 20
2.313080
  0
VERTEX
  8
0
  6
CONTINUOUS
 10
6.938800
 20
2.359720
  0
VERTEX
  8
0
  6
CONTINUOUS
 10
6.966520
 20
2.410320
  0
VERTEX
  8
0
  6
CONTINUOUS
 10
6.977520
 20
2.436720
  0
VERTEX
  8
0
  6
CONTINUOUS
 10
6.986760
 20
2.463560
  0
VERTEX
  8
0
  6
CONTINUOUS
 10
6.993360
 20
2.491280
  0
VERTEX
  8
0
  6
CONTINUOUS
 10
6.998200
 20
2.519000
  0
VERTEX
  8
0
  6
CONTINUOUS
 10
7.000840
 20
2.547600
  0
VERTEX
  8
0
  6
CONTINUOUS
 10
7.001280
 20
2.576200
  0
VERTEX
  8
0
  6
CONTINUOUS
 10
6.999080
 20
2.605240
  0
VERTEX
  8
0
  6
CONTINUOUS
 10
6.994240
 20
2.634280
  0
VERTEX
  8
0
  6
CONTINUOUS
 10
6.982800
 20
2.677840
  0
VERTEX
  8
0
  6
CONTINUOUS
 10
6.964760
 20
2.721840
  0
VERTEX
  8
0
  6
CONTINUOUS
 10
6.940560
 20
2.764960
  0
VERTEX
  8
0
  6
CONTINUOUS
 10
6.909760
 20
2.807640
  0
VERTEX
  8
0
  6
CONTINUOUS
 10
6.871920
 20
2.849440
  0
VERTEX
  8
0
  6
CONTINUOUS
 10
6.827040
 20
2.890360
  0
VERTEX
  8
0
  6
CONTINUOUS
 10
6.774240
 20
2.929520
  0
VERTEX
  8
0
  6
CONTINUOUS
 10
6.713960
 20
2.966920
  0
VERTEX
  8
0
  6
CONTINUOUS
 10
6.603080
 20
3.027640
  0
VERTEX
  8
0
  6
CONTINUOUS
 10
6.542360
 20
3.065920
  0
VERTEX
  8
0
  6
CONTINUOUS
 10
6.487800
 20
3.106400
  0
VERTEX
  8
0
  6
CONTINUOUS
 10
6.438960
 20
3.147760
  0
VERTEX
  8
0
  6
CONTINUOUS
 10
6.409040
 20
3.175920
  0
VERTEX
  8
0
  6
CONTINUOUS
 10
6.355800
 20
3.234000
  0
VERTEX
  8
0
  6
CONTINUOUS
 10
6.332480
 20
3.263040
  0
VERTEX
  8
0
  6
CONTINUOUS
 10
6.291560
 20
3.322000
  0
VERTEX
  8
0
  6
CONTINUOUS
 10
6.258120
 20
3.380960
  0
VERTEX
  8
0
  6
CONTINUOUS
 10
6.243600
 20
3.410000
  0
VERTEX
  8
0
  6
CONTINUOUS
 10
6.219840
 20
3.467640
  0
VERTEX
  8
0
  6
CONTINUOUS
 10
6.201360
 20
3.523520
  0
VERTEX
  8
0
  6
CONTINUOUS
 10
6.187720
 20
3.576760
  0
VERTEX
  8
0
  6
CONTINUOUS
 10
6.178040
 20
3.626920
  0
VERTEX
  8
0
  6
CONTINUOUS
 10
6.170120
 20
3.694680
  0
VERTEX
  8
0
  6
CONTINUOUS
 10
6.167920
 20
3.751440
  0
VERTEX
  8
0
  6
CONTINUOUS
 10
6.168800
 20
3.795000
  0
VERTEX
  8
0
  6
CONTINUOUS
 10
5.983560
 20
3.795000
  0
VERTEX
  8
0
  6
CONTINUOUS
 10
5.983560
 20
1.286120
  0
VERTEX
  8
0
  6
CONTINUOUS
 10
7.014920
 20
1.286120
  0
VERTEX
  8
0
  6
CONTINUOUS
 10
7.014920
 20
2.064920
  0
VERTEX
  8
0
  6
CONTINUOUS
 10
6.735960
 20
2.094840
  0
VERTEX
  8
0
  6
CONTINUOUS
 10
6.735960
 20
2.185040
  0
VERTEX
  8
0
  6
CONTINUOUS
 10
6.737720
 20
2.185040
  0
SEQEND
  8
0
  0
SOLID
  8
0
 62
    15
 10
4.113560
 20
2.808960
 11
4.739680
 21
3.181200
 12
4.180440
 22
2.753960
 13
4.806560
 23
3.125760
  0
POLYLINE
  8
0
  6
CONTINUOUS
 66
     1
 40
0.000000
 41
0.000000
  0
VERTEX
  8
0
  6
CONTINUOUS
 10
4.113560
 20
2.808960
  0
VERTEX
  8
0
  6
CONTINUOUS
 10
4.739680
 20
3.181200
  0
VERTEX
  8
0
  6
CONTINUOUS
 10
4.806560
 20
3.125760
  0
VERTEX
  8
0
  6
CONTINUOUS
 10
4.180440
 20
2.753960
  0
VERTEX
  8
0
  6
CONTINUOUS
 10
4.113560
 20
2.808960
  0
SEQEND
  8
0
  0
SOLID
  8
0
 62
    15
 10
4.410560
 20
1.756040
 11
5.036680
 21
2.127840
 12
4.689520
 22
1.726120
 13
5.316080
 23
2.098360
  0
POLYLINE
  8
0
  6
CONTINUOUS
 66
     1
 40
0.000000
 41
0.000000
  0
VERTEX
  8
0
  6
CONTINUOUS
 10
4.410560
 20
1.756040
  0
VERTEX
  8
0
  6
CONTINUOUS
 10
5.036680
 20
2.127840
  0
VERTEX
  8
0
  6
CONTINUOUS
 10
5.316080
 20
2.098360
  0
VERTEX
  8
0
  6
CONTINUOUS
 10
4.689520
 20
1.726120
  0
VERTEX
  8
0
  6
CONTINUOUS
 10
4.410560
 20
1.756040
  0
SEQEND
  8
0
  0
SOLID
  8
0
 62
    15
 10
4.689520
 20
1.726120
 11
5.316080
 21
2.098360
 12
4.689520
 22
0.947320
 13
5.316080
 23
1.319560
  0
POLYLINE
  8
0
  6
CONTINUOUS
 66
     1
 40
0.000000
 41
0.000000
  0
VERTEX
  8
0
  6
CONTINUOUS
 10
4.689520
 20
1.726120
  0
VERTEX
  8
0
  6
CONTINUOUS
 10
5.316080
 20
2.098360
  0
VERTEX
  8
0
  6
CONTINUOUS
 10
5.316080
 20
1.319560
  0
VERTEX
  8
0
  6
CONTINUOUS
 10
4.689520
 20
0.947320
  0
VERTEX
  8
0
  6
CONTINUOUS
 10
4.689520
 20
1.726120
  0
SEQEND
  8
0
  0
SOLID
  8
0
 62
    15
 10
3.658160
 20
3.456200
 11
4.284280
 21
3.828000
 12
3.843400
 22
3.456200
 13
4.469520
 23
3.828000
  0
POLYLINE
  8
0
  6
CONTINUOUS
 66
     1
 40
0.000000
 41
0.000000
  0
VERTEX
  8
0
  6
CONTINUOUS
 10
3.658160
 20
3.456200
  0
VERTEX
  8
0
  6
CONTINUOUS
 10
4.284280
 20
3.828000
  0
VERTEX
  8
0
  6
CONTINUOUS
 10
4.469520
 20
3.828000
  0
VERTEX
  8
0
  6
CONTINUOUS
 10
3.843400
 20
3.456200
  0
VERTEX
  8
0
  6
CONTINUOUS
 10
3.658160
 20
3.456200
  0
SEQEND
  8
0
  0
SOLID
  8
0
 62
    15
 10
3.843400
 20
3.456200
 11
4.469520
 21
3.828000
 12
3.842520
 22
3.428480
 13
4.468640
 23
3.800720
  0
POLYLINE
  8
0
  6
CONTINUOUS
 66
     1
 40
0.000000
 41
0.000000
  0
VERTEX
  8
0
  6
CONTINUOUS
 10
3.843400
 20
3.456200
  0
VERTEX
  8
0
  6
CONTINUOUS
 10
4.469520
 20
3.828000
  0
VERTEX
  8
0
  6
CONTINUOUS
 10
4.468640
 20
3.800720
  0
VERTEX
  8
0
  6
CONTINUOUS
 10
3.842520
 20
3.428480
  0
VERTEX
  8
0
  6
CONTINUOUS
 10
3.843400
 20
3.456200
  0
SEQEND
  8
0
  0
SOLID
  8
0
 62
    15
 10
3.842520
 20
3.428480
 11
4.468640
 21
3.800720
 12
3.842960
 22
3.395040
 13
4.469080
 23
3.766840
  0
POLYLINE
  8
0
  6
CONTINUOUS
 66
     1
 40
0.000000
 41
0.000000
  0
VERTEX
  8
0
  6
CONTINUOUS
 10
3.842520
 20
3.428480
  0
VERTEX
  8
0
  6
CONTINUOUS
 10
4.468640
 20
3.800720
  0
VERTEX
  8
0
  6
CONTINUOUS
 10
4.469080
 20
3.766840
  0
VERTEX
  8
0
  6
CONTINUOUS
 10
3.842960
 20
3.395040
  0
VERTEX
  8
0
  6
CONTINUOUS
 10
3.842520
 20
3.428480
  0
SEQEND
  8
0
  0
SOLID
  8
0
 62
    15
 10
3.842960
 20
3.395040
 11
4.469080
 21
3.766840
 12
3.845160
 22
3.355440
 13
4.471280
 23
3.727680
  0
POLYLINE
  8
0
  6
CONTINUOUS
 66
     1
 40
0.000000
 41
0.000000
  0
VERTEX
  8
0
  6
CONTINUOUS
 10
3.842960
 20
3.395040
  0
VERTEX
  8
0
  6
CONTINUOUS
 10
4.469080
 20
3.766840
  0
VERTEX
  8
0
  6
CONTINUOUS
 10
4.471280
 20
3.727680
  0
VERTEX
  8
0
  6
CONTINUOUS
 10
3.845160
 20
3.355440
  0
VERTEX
  8
0
  6
CONTINUOUS
 10
3.842960
 20
3.395040
  0
SEQEND
  8
0
  0
SOLID
  8
0
 62
    15
 10
3.845160
 20
3.355440
 11
4.471280
 21
3.727680
 12
3.849560
 22
3.311440
 13
4.475680
 23
3.683680
  0
POLYLINE
  8
0
  6
CONTINUOUS
 66
     1
 40
0.000000
 41
0.000000
  0
VERTEX
  8
0
  6
CONTINUOUS
 10
3.845160
 20
3.355440
  0
VERTEX
  8
0
  6
CONTINUOUS
 10
4.471280
 20
3.727680
  0
VERTEX
  8
0
  6
CONTINUOUS
 10
4.475680
 20
3.683680
  0
VERTEX
  8
0
  6
CONTINUOUS
 10
3.849560
 20
3.311440
  0
VERTEX
  8
0
  6
CONTINUOUS
 10
3.845160
 20
3.355440
  0
SEQEND
  8
0
  0
SOLID
  8
0
 62
    15
 10
3.849560
 20
3.311440
 11
4.475680
 21
3.683680
 12
3.857040
 22
3.263480
 13
4.483160
 23
3.635280
  0
POLYLINE
  8
0
  6
CONTINUOUS
 66
     1
 40
0.000000
 41
0.000000
  0
VERTEX
  8
0
  6
CONTINUOUS
 10
3.849560
 20
3.311440
  0
VERTEX
  8
0
  6
CONTINUOUS
 10
4.475680
 20
3.683680
  0
VERTEX
  8
0
  6
CONTINUOUS
 10
4.483160
 20
3.635280
  0
VERTEX
  8
0
  6
CONTINUOUS
 10
3.857040
 20
3.263480
  0
VERTEX
  8
0
  6
CONTINUOUS
 10
3.849560
 20
3.311440
  0
SEQEND
  8
0
  0
SOLID
  8
0
 62
    15
 10
3.857040
 20
3.263480
 11
4.483160
 21
3.635280
 12
3.868480
 22
3.211560
 13
4.494600
 23
3.583360
  0
POLYLINE
  8
0
  6
CONTINUOUS
 66
     1
 40
0.000000
 41
0.000000
  0
VERTEX
  8
0
  6
CONTINUOUS
 10
3.857040
 20
3.263480
  0
VERTEX
  8
0
  6
CONTINUOUS
 10
4.483160
 20
3.635280
  0
VERTEX
  8
0
  6
CONTINUOUS
 10
4.494600
 20
3.583360
  0
VERTEX
  8
0
  6
CONTINUOUS
 10
3.868480
 20
3.211560
  0
VERTEX
  8
0
  6
CONTINUOUS
 10
3.857040
 20
3.263480
  0
SEQEND
  8
0
  0
SOLID
  8
0
 62
    15
 10
3.868480
 20
3.211560
 11
4.494600
 21
3.583360
 12
3.884760
 22
3.157000
 13
4.510880
 23
3.528800
  0
POLYLINE
  8
0
  6
CONTINUOUS
 66
     1
 40
0.000000
 41
0.000000
  0
VERTEX
  8
0
  6
CONTINUOUS
 10
3.868480
 20
3.211560
  0
VERTEX
  8
0
  6
CONTINUOUS
 10
4.494600
 20
3.583360
  0
VERTEX
  8
0
  6
CONTINUOUS
 10
4.510880
 20
3.528800
  0
VERTEX
  8
0
  6
CONTINUOUS
 10
3.884760
 20
3.157000
  0
VERTEX
  8
0
  6
CONTINUOUS
 10
3.868480
 20
3.211560
  0
SEQEND
  8
0
  0
SOLID
  8
0
 62
    15
 10
3.884760
 20
3.157000
 11
4.510880
 21
3.528800
 12
3.905880
 22
3.100240
 13
4.532000
 23
3.472040
  0
POLYLINE
  8
0
  6
CONTINUOUS
 66
     1
 40
0.000000
 41
0.000000
  0
VERTEX
  8
0
  6
CONTINUOUS
 10
3.884760
 20
3.157000
  0
VERTEX
  8
0
  6
CONTINUOUS
 10
4.510880
 20
3.528800
  0
VERTEX
  8
0
  6
CONTINUOUS
 10
4.532000
 20
3.472040
  0
VERTEX
  8
0
  6
CONTINUOUS
 10
3.905880
 20
3.100240
  0
VERTEX
  8
0
  6
CONTINUOUS
 10
3.884760
 20
3.157000
  0
SEQEND
  8
0
  0
SOLID
  8
0
 62
    15
 10
3.905880
 20
3.100240
 11
4.532000
 21
3.472040
 12
3.932720
 22
3.042160
 13
4.558840
 23
3.413960
  0
POLYLINE
  8
0
  6
CONTINUOUS
 66
     1
 40
0.000000
 41
0.000000
  0
VERTEX
  8
0
  6
CONTINUOUS
 10
3.905880
 20
3.100240
  0
VERTEX
  8
0
  6
CONTINUOUS
 10
4.532000
 20
3.472040
  0
VERTEX
  8
0
  6
CONTINUOUS
 10
4.558840
 20
3.413960
  0
VERTEX
  8
0
  6
CONTINUOUS
 10
3.932720
 20
3.042160
  0
VERTEX
  8
0
  6
CONTINUOUS
 10
3.905880
 20
3.100240
  0
SEQEND
  8
0
  0
SOLID
  8
0
 62
    15
 10
3.932720
 20
3.042160
 11
4.558840
 21
3.413960
 12
3.966600
 22
2.983200
 13
4.592720
 23
3.355440
  0
POLYLINE
  8
0
  6
CONTINUOUS
 66
     1
 40
0.000000
 41
0.000000
  0
VERTEX
  8
0
  6
CONTINUOUS
 10
3.932720
 20
3.042160
  0
VERTEX
  8
0
  6
CONTINUOUS
 10
4.558840
 20
3.413960
  0
VERTEX
  8
0
  6
CONTINUOUS
 10
4.592720
 20
3.355440
  0
VERTEX
  8
0
  6
CONTINUOUS
 10
3.966600
 20
2.983200
  0
VERTEX
  8
0
  6
CONTINUOUS
 10
3.932720
 20
3.042160
  0
SEQEND
  8
0
  0
SOLID
  8
0
 62
    15
 10
3.966600
 20
2.983200
 11
4.592720
 21
3.355440
 12
4.007520
 22
2.924240
 13
4.633640
 23
3.296480
  0
POLYLINE
  8
0
  6
CONTINUOUS
 66
     1
 40
0.000000
 41
0.000000
  0
VERTEX
  8
0
  6
CONTINUOUS
 10
3.966600
 20
2.983200
  0
VERTEX
  8
0
  6
CONTINUOUS
 10
4.592720
 20
3.355440
  0
VERTEX
  8
0
  6
CONTINUOUS
 10
4.633640
 20
3.296480
  0
VERTEX
  8
0
  6
CONTINUOUS
 10
4.007520
 20
2.924240
  0
VERTEX
  8
0
  6
CONTINUOUS
 10
3.966600
 20
2.983200
  0
SEQEND
  8
0
  0
SOLID
  8
0
 62
    15
 10
4.007520
 20
2.924240
 11
4.633640
 21
3.296480
 12
4.055920
 22
2.866160
 13
4.682480
 23
3.237960
  0
POLYLINE
  8
0
  6
CONTINUOUS
 66
     1
 40
0.000000
 41
0.000000
  0
VERTEX
  8
0
  6
CONTINUOUS
 10
4.007520
 20
2.924240
  0
VERTEX
  8
0
  6
CONTINUOUS
 10
4.633640
 20
3.296480
  0
VERTEX
  8
0
  6
CONTINUOUS
 10
4.682480
 20
3.237960
  0
VERTEX
  8
0
  6
CONTINUOUS
 10
4.055920
 20
2.866160
  0
VERTEX
  8
0
  6
CONTINUOUS
 10
4.007520
 20
2.924240
  0
SEQEND
  8
0
  0
SOLID
  8
0
 62
    15
 10
4.055920
 20
2.866160
 11
4.682480
 21
3.237960
 12
4.113560
 22
2.808960
 13
4.739680
 23
3.181200
  0
POLYLINE
  8
0
  6
CONTINUOUS
 66
     1
 40
0.000000
 41
0.000000
  0
VERTEX
  8
0
  6
CONTINUOUS
 10
4.055920
 20
2.866160
  0
VERTEX
  8
0
  6
CONTINUOUS
 10
4.682480
 20
3.237960
  0
VERTEX
  8
0
  6
CONTINUOUS
 10
4.739680
 20
3.181200
  0
VERTEX
  8
0
  6
CONTINUOUS
 10
4.113560
 20
2.808960
  0
VERTEX
  8
0
  6
CONTINUOUS
 10
4.055920
 20
2.866160
  0
SEQEND
  8
0
  0
SOLID
  8
0
 62
    15
 10
4.410560
 20
1.846240
 11
5.036680
 21
2.218040
 12
4.410560
 22
1.756040
 13
5.036680
 23
2.127840
  0
POLYLINE
  8
0
  6
CONTINUOUS
 66
     1
 40
0.000000
 41
0.000000
  0
VERTEX
  8
0
  6
CONTINUOUS
 10
4.410560
 20
1.846240
  0
VERTEX
  8
0
  6
CONTINUOUS
 10
5.036680
 20
2.218040
  0
VERTEX
  8
0
  6
CONTINUOUS
 10
5.036680
 20
2.127840
  0
VERTEX
  8
0
  6
CONTINUOUS
 10
4.410560
 20
1.756040
  0
VERTEX
  8
0
  6
CONTINUOUS
 10
4.410560
 20
1.846240
  0
SEQEND
  8
0
  0
SOLID
  8
0
 62
    15
 10
4.180440
 20
2.753960
 11
4.806560
 21
3.125760
 12
4.257000
 22
2.701600
 13
4.883120
 23
3.073400
  0
POLYLINE
  8
0
  6
CONTINUOUS
 66
     1
 40
0.000000
 41
0.000000
  0
VERTEX
  8
0
  6
CONTINUOUS
 10
4.180440
 20
2.753960
  0
VERTEX
  8
0
  6
CONTINUOUS
 10
4.806560
 20
3.125760
  0
VERTEX
  8
0
  6
CONTINUOUS
 10
4.883120
 20
3.073400
  0
VERTEX
  8
0
  6
CONTINUOUS
 10
4.257000
 20
2.701600
  0
VERTEX
  8
0
  6
CONTINUOUS
 10
4.180440
 20
2.753960
  0
SEQEND
  8
0
  0
SOLID
  8
0
 62
    15
 10
4.257000
 20
2.701600
 11
4.883120
 21
3.073400
 12
4.344120
 22
2.652760
 13
4.970240
 23
3.024560
  0
POLYLINE
  8
0
  6
CONTINUOUS
 66
     1
 40
0.000000
 41
0.000000
  0
VERTEX
  8
0
  6
CONTINUOUS
 10
4.257000
 20
2.701600
  0
VERTEX
  8
0
  6
CONTINUOUS
 10
4.883120
 20
3.073400
  0
VERTEX
  8
0
  6
CONTINUOUS
 10
4.970240
 20
3.024560
  0
VERTEX
  8
0
  6
CONTINUOUS
 10
4.344120
 20
2.652760
  0
VERTEX
  8
0
  6
CONTINUOUS
 10
4.257000
 20
2.701600
  0
SEQEND
  8
0
  0
SOLID
  8
0
 62
    15
 10
4.344120
 20
2.652760
 11
4.970240
 21
3.024560
 12
4.429920
 22
2.603480
 13
5.056040
 23
2.975720
  0
POLYLINE
  8
0
  6
CONTINUOUS
 66
     1
 40
0.000000
 41
0.000000
  0
VERTEX
  8
0
  6
CONTINUOUS
 10
4.344120
 20
2.652760
  0
VERTEX
  8
0
  6
CONTINUOUS
 10
4.970240
 20
3.024560
  0
VERTEX
  8
0
  6
CONTINUOUS
 10
5.056040
 20
2.975720
  0
VERTEX
  8
0
  6
CONTINUOUS
 10
4.429920
 20
2.603480
  0
VERTEX
  8
0
  6
CONTINUOUS
 10
4.344120
 20
2.652760
  0
SEQEND
  8
0
  0
SOLID
  8
0
 62
    15
 10
4.429920
 20
2.603480
 11
5.056040
 21
2.975720
 12
4.501640
 22
2.551560
 13
5.127760
 23
2.923360
  0
POLYLINE
  8
0
  6
CONTINUOUS
 66
     1
 40
0.000000
 41
0.000000
  0
VERTEX
  8
0
  6
CONTINUOUS
 10
4.429920
 20
2.603480
  0
VERTEX
  8
0
  6
CONTINUOUS
 10
5.056040
 20
2.975720
  0
VERTEX
  8
0
  6
CONTINUOUS
 10
5.127760
 20
2.923360
  0
VERTEX
  8
0
  6
CONTINUOUS
 10
4.501640
 20
2.551560
  0
VERTEX
  8
0
  6
CONTINUOUS
 10
4.429920
 20
2.603480
  0
SEQEND
  8
0
  0
SOLID
  8
0
 62
    15
 10
4.501640
 20
2.551560
 11
5.127760
 21
2.923360
 12
4.560160
 22
2.497000
 13
5.186280
 23
2.868800
  0
POLYLINE
  8
0
  6
CONTINUOUS
 66
     1
 40
0.000000
 41
0.000000
  0
VERTEX
  8
0
  6
CONTINUOUS
 10
4.501640
 20
2.551560
  0
VERTEX
  8
0
  6
CONTINUOUS
 10
5.127760
 20
2.923360
  0
VERTEX
  8
0
  6
CONTINUOUS
 10
5.186280
 20
2.868800
  0
VERTEX
  8
0
  6
CONTINUOUS
 10
4.560160
 20
2.497000
  0
VERTEX
  8
0
  6
CONTINUOUS
 10
4.501640
 20
2.551560
  0
SEQEND
  8
0
  0
SOLID
  8
0
 62
    15
 10
4.560160
 20
2.497000
 11
5.186280
 21
2.868800
 12
4.605920
 22
2.440680
 13
5.232040
 23
2.812480
  0
POLYLINE
  8
0
  6
CONTINUOUS
 66
     1
 40
0.000000
 41
0.000000
  0
VERTEX
  8
0
  6
CONTINUOUS
 10
4.560160
 20
2.497000
  0
VERTEX
  8
0
  6
CONTINUOUS
 10
5.186280
 20
2.868800
  0
VERTEX
  8
0
  6
CONTINUOUS
 10
5.232040
 20
2.812480
  0
VERTEX
  8
0
  6
CONTINUOUS
 10
4.605920
 20
2.440680
  0
VERTEX
  8
0
  6
CONTINUOUS
 10
4.560160
 20
2.497000
  0
SEQEND
  8
0
  0
SOLID
  8
0
 62
    15
 10
4.605920
 20
2.440680
 11
5.232040
 21
2.812480
 12
4.639360
 22
2.383040
 13
5.265920
 23
2.754840
  0
POLYLINE
  8
0
  6
CONTINUOUS
 66
     1
 40
0.000000
 41
0.000000
  0
VERTEX
  8
0
  6
CONTINUOUS
 10
4.605920
 20
2.440680
  0
VERTEX
  8
0
  6
CONTINUOUS
 10
5.232040
 20
2.812480
  0
VERTEX
  8
0
  6
CONTINUOUS
 10
5.265920
 20
2.754840
  0
VERTEX
  8
0
  6
CONTINUOUS
 10
4.639360
 20
2.383040
  0
VERTEX
  8
0
  6
CONTINUOUS
 10
4.605920
 20
2.440680
  0
SEQEND
  8
0
  0
SOLID
  8
0
 62
    15
 10
4.639360
 20
2.383040
 11
5.265920
 21
2.754840
 12
4.662240
 22
2.324520
 13
5.288360
 23
2.696760
  0
POLYLINE
  8
0
  6
CONTINUOUS
 66
     1
 40
0.000000
 41
0.000000
  0
VERTEX
  8
0
  6
CONTINUOUS
 10
4.639360
 20
2.383040
  0
VERTEX
  8
0
  6
CONTINUOUS
 10
5.265920
 20
2.754840
  0
VERTEX
  8
0
  6
CONTINUOUS
 10
5.288360
 20
2.696760
  0
VERTEX
  8
0
  6
CONTINUOUS
 10
4.662240
 20
2.324520
  0
VERTEX
  8
0
  6
CONTINUOUS
 10
4.639360
 20
2.383040
  0
SEQEND
  8
0
  0
SOLID
  8
0
 62
    15
 10
4.662240
 20
2.324520
 11
5.288360
 21
2.696760
 12
4.673680
 22
2.266440
 13
5.300240
 23
2.638240
  0
POLYLINE
  8
0
  6
CONTINUOUS
 66
     1
 40
0.000000
 41
0.000000
  0
VERTEX
  8
0
  6
CONTINUOUS
 10
4.662240
 20
2.324520
  0
VERTEX
  8
0
  6
CONTINUOUS
 10
5.288360
 20
2.696760
  0
VERTEX
  8
0
  6
CONTINUOUS
 10
5.300240
 20
2.638240
  0
VERTEX
  8
0
  6
CONTINUOUS
 10
4.673680
 20
2.266440
  0
VERTEX
  8
0
  6
CONTINUOUS
 10
4.662240
 20
2.324520
  0
SEQEND
  8
0
  0
SOLID
  8
0
 62
    15
 10
4.673680
 20
2.266440
 11
5.300240
 21
2.638240
 12
4.675880
 22
2.208800
 13
5.302000
 23
2.580600
  0
POLYLINE
  8
0
  6
CONTINUOUS
 66
     1
 40
0.000000
 41
0.000000
  0
VERTEX
  8
0
  6
CONTINUOUS
 10
4.673680
 20
2.266440
  0
VERTEX
  8
0
  6
CONTINUOUS
 10
5.300240
 20
2.638240
  0
VERTEX
  8
0
  6
CONTINUOUS
 10
5.302000
 20
2.580600
  0
VERTEX
  8
0
  6
CONTINUOUS
 10
4.675880
 20
2.208800
  0
VERTEX
  8
0
  6
CONTINUOUS
 10
4.673680
 20
2.266440
  0
SEQEND
  8
0
  0
SOLID
  8
0
 62
    15
 10
4.675880
 20
2.208800
 11
5.302000
 21
2.580600
 12
4.668400
 22
2.152480
 13
5.294520
 23
2.524280
  0
POLYLINE
  8
0
  6
CONTINUOUS
 66
     1
 40
0.000000
 41
0.000000
  0
VERTEX
  8
0
  6
CONTINUOUS
 10
4.675880
 20
2.208800
  0
VERTEX
  8
0
  6
CONTINUOUS
 10
5.302000
 20
2.580600
  0
VERTEX
  8
0
  6
CONTINUOUS
 10
5.294520
 20
2.524280
  0
VERTEX
  8
0
  6
CONTINUOUS
 10
4.668400
 20
2.152480
  0
VERTEX
  8
0
  6
CONTINUOUS
 10
4.675880
 20
2.208800
  0
SEQEND
  8
0
  0
SOLID
  8
0
 62
    15
 10
4.668400
 20
2.152480
 11
5.294520
 21
2.524280
 12
4.652560
 22
2.097920
 13
5.278680
 23
2.469720
  0
POLYLINE
  8
0
  6
CONTINUOUS
 66
     1
 40
0.000000
 41
0.000000
  0
VERTEX
  8
0
  6
CONTINUOUS
 10
4.668400
 20
2.152480
  0
VERTEX
  8
0
  6
CONTINUOUS
 10
5.294520
 20
2.524280
  0
VERTEX
  8
0
  6
CONTINUOUS
 10
5.278680
 20
2.469720
  0
VERTEX
  8
0
  6
CONTINUOUS
 10
4.652560
 20
2.097920
  0
VERTEX
  8
0
  6
CONTINUOUS
 10
4.668400
 20
2.152480
  0
SEQEND
  8
0
  0
SOLID
  8
0
 62
    15
 10
4.652560
 20
2.097920
 11
5.278680
 21
2.469720
 12
4.628360
 22
2.046000
 13
5.254480
 23
2.417800
  0
POLYLINE
  8
0
  6
CONTINUOUS
 66
     1
 40
0.000000
 41
0.000000
  0
VERTEX
  8
0
  6
CONTINUOUS
 10
4.652560
 20
2.097920
  0
VERTEX
  8
0
  6
CONTINUOUS
 10
5.278680
 20
2.469720
  0
VERTEX
  8
0
  6
CONTINUOUS
 10
5.254480
 20
2.417800
  0
VERTEX
  8
0
  6
CONTINUOUS
 10
4.628360
 20
2.046000
  0
VERTEX
  8
0
  6
CONTINUOUS
 10
4.652560
 20
2.097920
  0
SEQEND
  8
0
  0
SOLID
  8
0
 62
    15
 10
4.628360
 20
2.046000
 11
5.254480
 21
2.417800
 12
4.597120
 22
1.997160
 13
5.223240
 23
2.368960
  0
POLYLINE
  8
0
  6
CONTINUOUS
 66
     1
 40
0.000000
 41
0.000000
  0
VERTEX
  8
0
  6
CONTINUOUS
 10
4.628360
 20
2.046000
  0
VERTEX
  8
0
  6
CONTINUOUS
 10
5.254480
 20
2.417800
  0
VERTEX
  8
0
  6
CONTINUOUS
 10
5.223240
 20
2.368960
  0
VERTEX
  8
0
  6
CONTINUOUS
 10
4.597120
 20
1.997160
  0
VERTEX
  8
0
  6
CONTINUOUS
 10
4.628360
 20
2.046000
  0
SEQEND
  8
0
  0
SOLID
  8
0
 62
    15
 10
4.597120
 20
1.997160
 11
5.223240
 21
2.368960
 12
4.559280
 22
1.952280
 13
5.185400
 23
2.324080
  0
POLYLINE
  8
0
  6
CONTINUOUS
 66
     1
 40
0.000000
 41
0.000000
  0
VERTEX
  8
0
  6
CONTINUOUS
 10
4.597120
 20
1.997160
  0
VERTEX
  8
0
  6
CONTINUOUS
 10
5.223240
 20
2.368960
  0
VERTEX
  8
0
  6
CONTINUOUS
 10
5.185400
 20
2.324080
  0
VERTEX
  8
0
  6
CONTINUOUS
 10
4.559280
 20
1.952280
  0
VERTEX
  8
0
  6
CONTINUOUS
 10
4.597120
 20
1.997160
  0
SEQEND
  8
0
  0
SOLID
  8
0
 62
    15
 10
4.559280
 20
1.952280
 11
5.185400
 21
2.324080
 12
4.515280
 22
1.911800
 13
5.141400
 23
2.283600
  0
POLYLINE
  8
0
  6
CONTINUOUS
 66
     1
 40
0.000000
 41
0.000000
  0
VERTEX
  8
0
  6
CONTINUOUS
 10
4.559280
 20
1.952280
  0
VERTEX
  8
0
  6
CONTINUOUS
 10
5.185400
 20
2.324080
  0
VERTEX
  8
0
  6
CONTINUOUS
 10
5.141400
 20
2.283600
  0
VERTEX
  8
0
  6
CONTINUOUS
 10
4.515280
 20
1.911800
  0
VERTEX
  8
0
  6
CONTINUOUS
 10
4.559280
 20
1.952280
  0
SEQEND
  8
0
  0
SOLID
  8
0
 62
    15
 10
4.515280
 20
1.911800
 11
5.141400
 21
2.283600
 12
4.466440
 22
1.876160
 13
5.092560
 23
2.247960
  0
POLYLINE
  8
0
  6
CONTINUOUS
 66
     1
 40
0.000000
 41
0.000000
  0
VERTEX
  8
0
  6
CONTINUOUS
 10
4.515280
 20
1.911800
  0
VERTEX
  8
0
  6
CONTINUOUS
 10
5.141400
 20
2.283600
  0
VERTEX
  8
0
  6
CONTINUOUS
 10
5.092560
 20
2.247960
  0
VERTEX
  8
0
  6
CONTINUOUS
 10
4.466440
 20
1.876160
  0
VERTEX
  8
0
  6
CONTINUOUS
 10
4.515280
 20
1.911800
  0
SEQEND
  8
0
  0
POLYLINE
  8
0
  6
CONTINUOUS
 66
     1
 40
0.000000
 41
0.000000
  0
VERTEX
  8
0
  6
CONTINUOUS
 10
4.410560
 20
1.846240
  0
VERTEX
  8
0
  6
CONTINUOUS
 10
4.410560
 20
1.756040
  0
VERTEX
  8
0
  6
CONTINUOUS
 10
4.689520
 20
1.726120
  0
VERTEX
  8
0
  6
CONTINUOUS
 10
4.689520
 20
0.947320
  0
VERTEX
  8
0
  6
CONTINUOUS
 10
3.658160
 20
0.947320
  0
VERTEX
  8
0
  6
CONTINUOUS
 10
3.658160
 20
3.456200
  0
VERTEX
  8
0
  6
CONTINUOUS
 10
3.843400
 20
3.456200
  0
VERTEX
  8
0
  6
CONTINUOUS
 10
3.842520
 20
3.428480
  0
VERTEX
  8
0
  6
CONTINUOUS
 10
3.842960
 20
3.395040
  0
VERTEX
  8
0
  6
CONTINUOUS
 10
3.845160
 20
3.355440
  0
VERTEX
  8
0
  6
CONTINUOUS
 10
3.849560
 20
3.311440
  0
VERTEX
  8
0
  6
CONTINUOUS
 10
3.857040
 20
3.263480
  0
VERTEX
  8
0
  6
CONTINUOUS
 10
3.868480
 20
3.211560
  0
VERTEX
  8
0
  6
CONTINUOUS
 10
3.884760
 20
3.157000
  0
VERTEX
  8
0
  6
CONTINUOUS
 10
3.905880
 20
3.100240
  0
VERTEX
  8
0
  6
CONTINUOUS
 10
3.932720
 20
3.042160
  0
VERTEX
  8
0
  6
CONTINUOUS
 10
3.966600
 20
2.983200
  0
VERTEX
  8
0
  6
CONTINUOUS
 10
4.007520
 20
2.924240
  0
VERTEX
  8
0
  6
CONTINUOUS
 10
4.055920
 20
2.866160
  0
VERTEX
  8
0
  6
CONTINUOUS
 10
4.113560
 20
2.808960
  0
VERTEX
  8
0
  6
CONTINUOUS
 10
4.180440
 20
2.753960
  0
VERTEX
  8
0
  6
CONTINUOUS
 10
4.257000
 20
2.701600
  0
VERTEX
  8
0
  6
CONTINUOUS
 10
4.344120
 20
2.652760
  0
VERTEX
  8
0
  6
CONTINUOUS
 10
4.429920
 20
2.603480
  0
VERTEX
  8
0
  6
CONTINUOUS
 10
4.501640
 20
2.551560
  0
VERTEX
  8
0
  6
CONTINUOUS
 10
4.560160
 20
2.497000
  0
VERTEX
  8
0
  6
CONTINUOUS
 10
4.605920
 20
2.440680
  0
VERTEX
  8
0
  6
CONTINUOUS
 10
4.639360
 20
2.383040
  0
VERTEX
  8
0
  6
CONTINUOUS
 10
4.662240
 20
2.324520
  0
VERTEX
  8
0
  6
CONTINUOUS
 10
4.673680
 20
2.266440
  0
VERTEX
  8
0
  6
CONTINUOUS
 10
4.675880
 20
2.208800
  0
VERTEX
  8
0
  6
CONTINUOUS
 10
4.668400
 20
2.152480
  0
VERTEX
  8
0
  6
CONTINUOUS
 10
4.652560
 20
2.097920
  0
VERTEX
  8
0
  6
CONTINUOUS
 10
4.628360
 20
2.046000
  0
VERTEX
  8
0
  6
CONTINUOUS
 10
4.597120
 20
1.997160
  0
VERTEX
  8
0
  6
CONTINUOUS
 10
4.559280
 20
1.952280
  0
VERTEX
  8
0
  6
CONTINUOUS
 10
4.515280
 20
1.911800
  0
VERTEX
  8
0
  6
CONTINUOUS
 10
4.466440
 20
1.876160
  0
VERTEX
  8
0
  6
CONTINUOUS
 10
4.412760
 20
1.846240
  0
VERTEX
  8
0
  6
CONTINUOUS
 10
4.410560
 20
1.846240
  0
SEQEND
  8
0
  0
TEXT
  8
0
 10
4.191440
 20
0.695200
 40
0.138035
  1
BA  518
 41
1.000000
  7
SN0
 71
     0
 72
     5
 11
4.781120
 21
0.695200
  0
TEXT
  8
0
 10
4.104760
 20
0.503800
 40
0.138035
  1
1" x 2-1/2"
 41
1.000000
  7
SN0
 71
     0
 72
     5
 11
4.866578
 21
0.503800
  0
ENDSEC
  0
EOF
