  0
SECTION
  2
HEADER
  9
$ACADVER
  1
AC1006
  9
$EXTMIN
 10
1.426920
 20
0.612040
  9
$EXTMAX
 10
7.477360
 20
3.189120
  9
$LTSCALE
 40
0.044000
  9
$PDMODE
 70
    35
  9
$PDSIZE
 40
0.035200
  0
ENDSEC
  0
SECTION
  2
TABLES
  0
TABLE
  2
LTYPE
 70
     9
  0
LTYPE
  2
CONTINUOUS
 70
    64
  3
Solid line
 72
    65
 73
     0
 40
0.000000
  0
LTYPE
  2
DASHED
 70
    64
  3
__ __ __ __ __ __ __ __ __ __ __ __ __ __ __
 72
    65
 73
     2
 40
0.000330
 49
0.000220
 49
-0.000110
  0
LTYPE
  2
HIDDEN
 70
    64
  3
 _ _ _ _ _ _ _ _ _ _ _ _ _ _ _ _ _ _ _ _ _ _
 72
    65
 73
     2
 40
0.000165
 49
0.000110
 49
-0.000055
  0
LTYPE
  2
CENTER
 70
    64
  3
____ _ ____ _ ____ _ ____ _ ____ _ ____ _ ____
 72
    65
 73
     4
 40
0.000880
 49
0.000550
 49
-0.000110
 49
0.000110
 49
-0.000110
  0
LTYPE
  2
PHANTOM
 70
    64
  3
_____ _ _ _____ _ _ _____ _ _ _____ _ _ ____
 72
    65
 73
     6
 40
0.001100
 49
0.000550
 49
-0.000110
 49
0.000110
 49
-0.000110
 49
0.000110
 49
-0.000110
  0
LTYPE
  2
DOT
 70
    64
  3
...............................................
 72
    65
 73
     2
 40
0.000110
 49
0.000000
 49
-0.000110
  0
LTYPE
  2
DASHDOT
 70
    64
  3
__ . __ . __ . __ . __ . __ . __ . __ . __ . __
 72
    65
 73
     4
 40
0.000440
 49
0.000220
 49
-0.000110
 49
0.000000
 49
-0.000110
  0
LTYPE
  2
BORDER
 70
    64
  3
__ __ . __ __ . __ __ . __ __ . __ __ . __ __
 72
    65
 73
     6
 40
0.000770
 49
0.000220
 49
-0.000110
 49
0.000220
 49
-0.000110
 49
0.000000
 49
-0.000110
  0
LTYPE
  2
DIVIDE
 70
    64
  3
__ . . __ . . __ . . __ . . __ . . __ . . __
 72
    65
 73
     6
 40
0.000550
 49
0.000220
 49
-0.000110
 49
0.000000
 49
-0.000110
 49
0.000000
 49
-0.000110
  0
LTYPE
  2
DOTDOT
 70
    64
  3
 . .  . .  . .  . .  . .  . . 
 72
    65
 73
     5
 40
0.000242
 49
-0.000110
 49
0.000000
 49
-0.000110
 49
0.000000
 49
-0.000110
  0
ENDTAB
  0
TABLE
  2
STYLE
 70
     2
  0
STYLE
 70
     0
  2
SN0
 40
0.000000
 41
0.000440
 50
0.000000
 71
     0
 42
0.000000
  3
ROMAND
  0
STYLE
 70
    68
  2
SV0
 40
0.000000
 41
0.000440
 50
0.000000
 71
     0
 42
0.000000
  3
ROMAND
  0
ENDTAB
  0
TABLE
  2
LAYER
 70
     3
  0
LAYER
  2
FOREGROUND
 70
    64
 62
     7
  6
CONTINUOUS
  0
LAYER
  2
BACKGROUND
 70
    65
 62
    -7
  6
CONTINUOUS
  0
LAYER
  2
0
 70
    64
 62
     7
  6
CONTINUOUS
  0
ENDTAB
  0
ENDSEC
  0
SECTION
  2
ENTITIES
  0
POLYLINE
  8
FOREGROUND
  6
CONTINUOUS
 66
     1
 40
0.000000
 41
0.000000
  0
VERTEX
  8
FOREGROUND
  6
CONTINUOUS
 10
0.000000
 20
3.801160
  0
VERTEX
  8
FOREGROUND
  6
CONTINUOUS
 10
8.499920
 20
3.801160
  0
VERTEX
  8
FOREGROUND
  6
CONTINUOUS
 10
8.499920
 20
-7.198840
  0
VERTEX
  8
FOREGROUND
  6
CONTINUOUS
 10
0.000000
 20
-7.198840
  0
VERTEX
  8
FOREGROUND
  6
CONTINUOUS
 10
0.000000
 20
3.801160
  0
SEQEND
  8
0
  0
POLYLINE
  8
FOREGROUND
  6
CONTINUOUS
 66
     1
 40
0.000000
 41
0.000000
  0
VERTEX
  8
FOREGROUND
  6
CONTINUOUS
 10
0.000000
 20
3.801160
  0
VERTEX
  8
FOREGROUND
  6
CONTINUOUS
 10
8.499920
 20
3.801160
  0
VERTEX
  8
FOREGROUND
  6
CONTINUOUS
 10
8.499920
 20
-7.198840
  0
VERTEX
  8
FOREGROUND
  6
CONTINUOUS
 10
0.000000
 20
-7.198840
  0
VERTEX
  8
FOREGROUND
  6
CONTINUOUS
 10
0.000000
 20
3.801160
  0
SEQEND
  8
0
  0
POLYLINE
  8
0
  6
CONTINUOUS
 66
     1
 40
0.014080
 41
0.014080
  0
VERTEX
  8
0
  6
CONTINUOUS
 10
1.434400
 20
2.686640
  0
VERTEX
  8
0
  6
CONTINUOUS
 10
1.434400
 20
3.181200
  0
VERTEX
  8
0
  6
CONTINUOUS
 10
2.399760
 20
3.181200
  0
VERTEX
  8
0
  6
CONTINUOUS
 10
2.412520
 20
3.045680
  0
VERTEX
  8
0
  6
CONTINUOUS
 10
2.566520
 20
3.045680
  0
VERTEX
  8
0
  6
CONTINUOUS
 10
2.574440
 20
3.181200
  0
VERTEX
  8
0
  6
CONTINUOUS
 10
7.442160
 20
3.181200
  0
VERTEX
  8
0
  6
CONTINUOUS
 10
7.442160
 20
2.680040
  0
VERTEX
  8
0
  6
CONTINUOUS
 10
1.606440
 20
2.680040
  0
VERTEX
  8
0
  6
CONTINUOUS
 10
1.434400
 20
2.680040
  0
VERTEX
  8
0
  6
CONTINUOUS
 10
1.434400
 20
2.686640
  0
SEQEND
  8
0
  0
SOLID
  8
0
 62
    15
 10
1.469160
 20
1.138280
 11
1.468720
 21
1.877920
 12
1.469160
 22
1.632840
 13
1.468720
 23
2.372480
  0
POLYLINE
  8
0
  6
CONTINUOUS
 66
     1
 40
0.000000
 41
0.000000
  0
VERTEX
  8
0
  6
CONTINUOUS
 10
1.469160
 20
1.138280
  0
VERTEX
  8
0
  6
CONTINUOUS
 10
1.468720
 20
1.877920
  0
VERTEX
  8
0
  6
CONTINUOUS
 10
1.468720
 20
2.372480
  0
VERTEX
  8
0
  6
CONTINUOUS
 10
1.469160
 20
1.632840
  0
VERTEX
  8
0
  6
CONTINUOUS
 10
1.469160
 20
1.138280
  0
SEQEND
  8
0
  0
SOLID
  8
0
 62
    15
 10
2.434960
 20
1.632840
 11
2.434080
 21
2.372480
 12
2.447280
 22
1.497760
 13
2.446840
 23
2.237400
  0
POLYLINE
  8
0
  6
CONTINUOUS
 66
     1
 40
0.000000
 41
0.000000
  0
VERTEX
  8
0
  6
CONTINUOUS
 10
2.434960
 20
1.632840
  0
VERTEX
  8
0
  6
CONTINUOUS
 10
2.434080
 20
2.372480
  0
VERTEX
  8
0
  6
CONTINUOUS
 10
2.446840
 20
2.237400
  0
VERTEX
  8
0
  6
CONTINUOUS
 10
2.447280
 20
1.497760
  0
VERTEX
  8
0
  6
CONTINUOUS
 10
2.434960
 20
1.632840
  0
SEQEND
  8
0
  0
SOLID
  8
0
 62
    15
 10
2.447280
 20
1.497760
 11
2.446840
 21
2.237400
 12
2.601280
 22
1.497760
 13
2.600840
 23
2.237400
  0
POLYLINE
  8
0
  6
CONTINUOUS
 66
     1
 40
0.000000
 41
0.000000
  0
VERTEX
  8
0
  6
CONTINUOUS
 10
2.447280
 20
1.497760
  0
VERTEX
  8
0
  6
CONTINUOUS
 10
2.446840
 20
2.237400
  0
VERTEX
  8
0
  6
CONTINUOUS
 10
2.600840
 20
2.237400
  0
VERTEX
  8
0
  6
CONTINUOUS
 10
2.601280
 20
1.497760
  0
VERTEX
  8
0
  6
CONTINUOUS
 10
2.447280
 20
1.497760
  0
SEQEND
  8
0
  0
SOLID
  8
0
 62
    15
 10
2.601280
 20
1.497760
 11
2.600840
 21
2.237400
 12
2.609640
 22
1.633280
 13
2.608760
 23
2.372920
  0
POLYLINE
  8
0
  6
CONTINUOUS
 66
     1
 40
0.000000
 41
0.000000
  0
VERTEX
  8
0
  6
CONTINUOUS
 10
2.601280
 20
1.497760
  0
VERTEX
  8
0
  6
CONTINUOUS
 10
2.600840
 20
2.237400
  0
VERTEX
  8
0
  6
CONTINUOUS
 10
2.608760
 20
2.372920
  0
VERTEX
  8
0
  6
CONTINUOUS
 10
2.609640
 20
1.633280
  0
VERTEX
  8
0
  6
CONTINUOUS
 10
2.601280
 20
1.497760
  0
SEQEND
  8
0
  0
SOLID
  8
0
 62
    15
 10
2.609640
 20
1.633280
 11
2.608760
 21
2.372920
 12
7.477360
 22
1.633280
 13
7.476480
 23
2.372920
  0
POLYLINE
  8
0
  6
CONTINUOUS
 66
     1
 40
0.000000
 41
0.000000
  0
VERTEX
  8
0
  6
CONTINUOUS
 10
2.609640
 20
1.633280
  0
VERTEX
  8
0
  6
CONTINUOUS
 10
2.608760
 20
2.372920
  0
VERTEX
  8
0
  6
CONTINUOUS
 10
7.476480
 20
2.372920
  0
VERTEX
  8
0
  6
CONTINUOUS
 10
7.477360
 20
1.633280
  0
VERTEX
  8
0
  6
CONTINUOUS
 10
2.609640
 20
1.633280
  0
SEQEND
  8
0
  0
SOLID
  8
0
 62
    15
 10
1.469160
 20
1.131680
 11
1.468720
 21
1.871320
 12
1.469160
 22
1.138280
 13
1.468720
 23
1.877920
  0
POLYLINE
  8
0
  6
CONTINUOUS
 66
     1
 40
0.000000
 41
0.000000
  0
VERTEX
  8
0
  6
CONTINUOUS
 10
1.469160
 20
1.131680
  0
VERTEX
  8
0
  6
CONTINUOUS
 10
1.468720
 20
1.871320
  0
VERTEX
  8
0
  6
CONTINUOUS
 10
1.468720
 20
1.877920
  0
VERTEX
  8
0
  6
CONTINUOUS
 10
1.469160
 20
1.138280
  0
VERTEX
  8
0
  6
CONTINUOUS
 10
1.469160
 20
1.131680
  0
SEQEND
  8
0
  0
SOLID
  8
0
 62
    15
 10
1.469160
 20
1.632840
 11
1.468720
 21
2.372480
 12
2.434960
 22
1.632840
 13
2.434080
 23
2.372480
  0
POLYLINE
  8
0
  6
CONTINUOUS
 66
     1
 40
0.000000
 41
0.000000
  0
VERTEX
  8
0
  6
CONTINUOUS
 10
1.469160
 20
1.632840
  0
VERTEX
  8
0
  6
CONTINUOUS
 10
1.468720
 20
2.372480
  0
VERTEX
  8
0
  6
CONTINUOUS
 10
2.434080
 20
2.372480
  0
VERTEX
  8
0
  6
CONTINUOUS
 10
2.434960
 20
1.632840
  0
VERTEX
  8
0
  6
CONTINUOUS
 10
1.469160
 20
1.632840
  0
SEQEND
  8
0
  0
POLYLINE
  8
0
  6
CONTINUOUS
 66
     1
 40
0.000000
 41
0.000000
  0
VERTEX
  8
0
  6
CONTINUOUS
 10
1.469160
 20
1.138280
  0
VERTEX
  8
0
  6
CONTINUOUS
 10
1.469160
 20
1.632840
  0
VERTEX
  8
0
  6
CONTINUOUS
 10
2.434960
 20
1.632840
  0
VERTEX
  8
0
  6
CONTINUOUS
 10
2.447280
 20
1.497760
  0
VERTEX
  8
0
  6
CONTINUOUS
 10
2.601280
 20
1.497760
  0
VERTEX
  8
0
  6
CONTINUOUS
 10
2.609640
 20
1.633280
  0
VERTEX
  8
0
  6
CONTINUOUS
 10
7.477360
 20
1.633280
  0
VERTEX
  8
0
  6
CONTINUOUS
 10
7.477360
 20
1.131680
  0
VERTEX
  8
0
  6
CONTINUOUS
 10
1.469160
 20
1.131680
  0
VERTEX
  8
0
  6
CONTINUOUS
 10
1.469160
 20
1.138280
  0
SEQEND
  8
0
  0
TEXT
  8
0
 10
4.178240
 20
0.847440
 40
0.138106
  1
BA  517
 41
1.000000
  7
SN0
 71
     0
 72
     5
 11
4.768763
 21
0.847440
  0
TEXT
  8
0
 10
4.165480
 20
0.656040
 40
0.138106
  1
1/2" x 6"
 41
1.000000
  7
SN0
 71
     0
 72
     5
 11
4.780810
 21
0.656040
  0
ENDSEC
  0
EOF
