  0
SECTION
  2
HEADER
  9
$ACADVER
  1
AC1006
  9
$EXTMIN
 10
2.827440
 20
0.572880
  9
$EXTMAX
 10
7.056280
 20
3.893120
  9
$LTSCALE
 40
0.044000
  9
$PDMODE
 70
    35
  9
$PDSIZE
 40
0.035200
  0
ENDSEC
  0
SECTION
  2
TABLES
  0
TABLE
  2
LTYPE
 70
     9
  0
LTYPE
  2
CONTINUOUS
 70
    64
  3
Solid line
 72
    65
 73
     0
 40
0.000000
  0
LTYPE
  2
DASHED
 70
    64
  3
__ __ __ __ __ __ __ __ __ __ __ __ __ __ __
 72
    65
 73
     2
 40
0.000330
 49
0.000220
 49
-0.000110
  0
LTYPE
  2
HIDDEN
 70
    64
  3
 _ _ _ _ _ _ _ _ _ _ _ _ _ _ _ _ _ _ _ _ _ _
 72
    65
 73
     2
 40
0.000165
 49
0.000110
 49
-0.000055
  0
LTYPE
  2
CENTER
 70
    64
  3
____ _ ____ _ ____ _ ____ _ ____ _ ____ _ ____
 72
    65
 73
     4
 40
0.000880
 49
0.000550
 49
-0.000110
 49
0.000110
 49
-0.000110
  0
LTYPE
  2
PHANTOM
 70
    64
  3
_____ _ _ _____ _ _ _____ _ _ _____ _ _ ____
 72
    65
 73
     6
 40
0.001100
 49
0.000550
 49
-0.000110
 49
0.000110
 49
-0.000110
 49
0.000110
 49
-0.000110
  0
LTYPE
  2
DOT
 70
    64
  3
...............................................
 72
    65
 73
     2
 40
0.000110
 49
0.000000
 49
-0.000110
  0
LTYPE
  2
DASHDOT
 70
    64
  3
__ . __ . __ . __ . __ . __ . __ . __ . __ . __
 72
    65
 73
     4
 40
0.000440
 49
0.000220
 49
-0.000110
 49
0.000000
 49
-0.000110
  0
LTYPE
  2
BORDER
 70
    64
  3
__ __ . __ __ . __ __ . __ __ . __ __ . __ __
 72
    65
 73
     6
 40
0.000770
 49
0.000220
 49
-0.000110
 49
0.000220
 49
-0.000110
 49
0.000000
 49
-0.000110
  0
LTYPE
  2
DIVIDE
 70
    64
  3
__ . . __ . . __ . . __ . . __ . . __ . . __
 72
    65
 73
     6
 40
0.000550
 49
0.000220
 49
-0.000110
 49
0.000000
 49
-0.000110
 49
0.000000
 49
-0.000110
  0
LTYPE
  2
DOTDOT
 70
    64
  3
 . .  . .  . .  . .  . .  . . 
 72
    65
 73
     5
 40
0.000242
 49
-0.000110
 49
0.000000
 49
-0.000110
 49
0.000000
 49
-0.000110
  0
ENDTAB
  0
TABLE
  2
STYLE
 70
     2
  0
STYLE
 70
     0
  2
SN0
 40
0.000000
 41
0.000440
 50
0.000000
 71
     0
 42
0.000000
  3
ROMAND
  0
STYLE
 70
    68
  2
SV0
 40
0.000000
 41
0.000440
 50
0.000000
 71
     0
 42
0.000000
  3
ROMAND
  0
ENDTAB
  0
TABLE
  2
LAYER
 70
     3
  0
LAYER
  2
FOREGROUND
 70
    64
 62
     7
  6
CONTINUOUS
  0
LAYER
  2
BACKGROUND
 70
    65
 62
    -7
  6
CONTINUOUS
  0
LAYER
  2
0
 70
    64
 62
     7
  6
CONTINUOUS
  0
ENDTAB
  0
ENDSEC
  0
SECTION
  2
ENTITIES
  0
POLYLINE
  8
FOREGROUND
  6
CONTINUOUS
 66
     1
 40
0.000000
 41
0.000000
  0
VERTEX
  8
FOREGROUND
  6
CONTINUOUS
 10
0.000000
 20
4.466000
  0
VERTEX
  8
FOREGROUND
  6
CONTINUOUS
 10
8.499920
 20
4.466000
  0
VERTEX
  8
FOREGROUND
  6
CONTINUOUS
 10
8.499920
 20
-6.534000
  0
VERTEX
  8
FOREGROUND
  6
CONTINUOUS
 10
0.000000
 20
-6.534000
  0
VERTEX
  8
FOREGROUND
  6
CONTINUOUS
 10
0.000000
 20
4.466000
  0
SEQEND
  8
0
  0
POLYLINE
  8
FOREGROUND
  6
CONTINUOUS
 66
     1
 40
0.000000
 41
0.000000
  0
VERTEX
  8
FOREGROUND
  6
CONTINUOUS
 10
0.000000
 20
4.466000
  0
VERTEX
  8
FOREGROUND
  6
CONTINUOUS
 10
8.499920
 20
4.466000
  0
VERTEX
  8
FOREGROUND
  6
CONTINUOUS
 10
8.499920
 20
-6.534000
  0
VERTEX
  8
FOREGROUND
  6
CONTINUOUS
 10
0.000000
 20
-6.534000
  0
VERTEX
  8
FOREGROUND
  6
CONTINUOUS
 10
0.000000
 20
4.466000
  0
SEQEND
  8
0
  0
POLYLINE
  8
0
  6
CONTINUOUS
 66
     1
 40
0.014080
 41
0.014080
  0
VERTEX
  8
0
  6
CONTINUOUS
 10
3.977600
 20
3.717120
  0
VERTEX
  8
0
  6
CONTINUOUS
 10
4.002680
 20
3.747920
  0
VERTEX
  8
0
  6
CONTINUOUS
 10
4.032160
 20
3.776520
  0
VERTEX
  8
0
  6
CONTINUOUS
 10
4.066040
 20
3.802040
  0
VERTEX
  8
0
  6
CONTINUOUS
 10
4.103440
 20
3.824920
  0
VERTEX
  8
0
  6
CONTINUOUS
 10
4.144360
 20
3.844280
  0
VERTEX
  8
0
  6
CONTINUOUS
 10
4.187480
 20
3.859240
  0
VERTEX
  8
0
  6
CONTINUOUS
 10
4.209920
 20
3.865400
  0
VERTEX
  8
0
  6
CONTINUOUS
 10
4.255680
 20
3.873320
  0
VERTEX
  8
0
  6
CONTINUOUS
 10
4.303200
 20
3.876840
  0
VERTEX
  8
0
  6
CONTINUOUS
 10
4.351600
 20
3.874200
  0
VERTEX
  8
0
  6
CONTINUOUS
 10
4.400000
 20
3.865840
  0
VERTEX
  8
0
  6
CONTINUOUS
 10
4.424200
 20
3.859240
  0
VERTEX
  8
0
  6
CONTINUOUS
 10
4.448400
 20
3.850880
  0
VERTEX
  8
0
  6
CONTINUOUS
 10
4.495920
 20
3.828880
  0
VERTEX
  8
0
  6
CONTINUOUS
 10
4.542120
 20
3.799840
  0
VERTEX
  8
0
  6
CONTINUOUS
 10
4.564560
 20
3.782240
  0
VERTEX
  8
0
  6
CONTINUOUS
 10
4.586560
 20
3.762440
  0
VERTEX
  8
0
  6
CONTINUOUS
 10
4.628360
 20
3.717120
  0
VERTEX
  8
0
  6
CONTINUOUS
 10
4.668400
 20
3.665200
  0
VERTEX
  8
0
  6
CONTINUOUS
 10
4.710200
 20
3.618560
  0
VERTEX
  8
0
  6
CONTINUOUS
 10
4.753760
 20
3.579400
  0
VERTEX
  8
0
  6
CONTINUOUS
 10
4.799080
 20
3.547720
  0
VERTEX
  8
0
  6
CONTINUOUS
 10
4.845280
 20
3.522200
  0
VERTEX
  8
0
  6
CONTINUOUS
 10
4.891920
 20
3.503720
  0
VERTEX
  8
0
  6
CONTINUOUS
 10
4.939000
 20
3.490960
  0
VERTEX
  8
0
  6
CONTINUOUS
 10
4.985640
 20
3.484360
  0
VERTEX
  8
0
  6
CONTINUOUS
 10
5.031840
 20
3.483040
  0
VERTEX
  8
0
  6
CONTINUOUS
 10
5.077160
 20
3.487440
  0
VERTEX
  8
0
  6
CONTINUOUS
 10
5.120720
 20
3.496680
  0
VERTEX
  8
0
  6
CONTINUOUS
 10
5.162520
 20
3.510760
  0
VERTEX
  8
0
  6
CONTINUOUS
 10
5.182760
 20
3.519120
  0
VERTEX
  8
0
  6
CONTINUOUS
 10
5.221040
 20
3.539800
  0
VERTEX
  8
0
  6
CONTINUOUS
 10
5.256240
 20
3.564440
  0
VERTEX
  8
0
  6
CONTINUOUS
 10
5.287920
 20
3.592160
  0
VERTEX
  8
0
  6
CONTINUOUS
 10
5.316080
 20
3.623840
  0
VERTEX
  8
0
  6
CONTINUOUS
 10
5.730120
 20
3.623840
  0
VERTEX
  8
0
  6
CONTINUOUS
 10
5.748600
 20
3.550360
  0
VERTEX
  8
0
  6
CONTINUOUS
 10
5.762240
 20
3.550360
  0
VERTEX
  8
0
  6
CONTINUOUS
 10
5.771920
 20
3.567960
  0
VERTEX
  8
0
  6
CONTINUOUS
 10
5.784240
 20
3.582920
  0
VERTEX
  8
0
  6
CONTINUOUS
 10
5.800080
 20
3.596120
  0
VERTEX
  8
0
  6
CONTINUOUS
 10
5.827800
 20
3.611080
  0
VERTEX
  8
0
  6
CONTINUOUS
 10
5.859040
 20
3.620760
  0
VERTEX
  8
0
  6
CONTINUOUS
 10
5.881040
 20
3.624280
  0
VERTEX
  8
0
  6
CONTINUOUS
 10
5.903920
 20
3.625600
  0
VERTEX
  8
0
  6
CONTINUOUS
 10
5.926360
 20
3.624720
  0
VERTEX
  8
0
  6
CONTINUOUS
 10
5.959360
 20
3.618560
  0
VERTEX
  8
0
  6
CONTINUOUS
 10
5.989720
 20
3.607560
  0
VERTEX
  8
0
  6
CONTINUOUS
 10
6.016120
 20
3.590840
  0
VERTEX
  8
0
  6
CONTINUOUS
 10
6.030640
 20
3.577200
  0
VERTEX
  8
0
  6
CONTINUOUS
 10
6.042080
 20
3.560920
  0
VERTEX
  8
0
  6
CONTINUOUS
 10
6.046480
 20
3.551240
  0
VERTEX
  8
0
  6
CONTINUOUS
 10
6.075520
 20
3.551240
  0
VERTEX
  8
0
  6
CONTINUOUS
 10
6.085200
 20
3.568840
  0
VERTEX
  8
0
  6
CONTINUOUS
 10
6.097960
 20
3.583800
  0
VERTEX
  8
0
  6
CONTINUOUS
 10
6.122600
 20
3.602280
  0
VERTEX
  8
0
  6
CONTINUOUS
 10
6.151640
 20
3.615040
  0
VERTEX
  8
0
  6
CONTINUOUS
 10
6.173200
 20
3.621200
  0
VERTEX
  8
0
  6
CONTINUOUS
 10
6.195640
 20
3.624280
  0
VERTEX
  8
0
  6
CONTINUOUS
 10
6.218960
 20
3.625600
  0
VERTEX
  8
0
  6
CONTINUOUS
 10
6.241840
 20
3.624280
  0
VERTEX
  8
0
  6
CONTINUOUS
 10
6.275280
 20
3.618120
  0
VERTEX
  8
0
  6
CONTINUOUS
 10
6.306080
 20
3.606680
  0
VERTEX
  8
0
  6
CONTINUOUS
 10
6.324560
 20
3.596120
  0
VERTEX
  8
0
  6
CONTINUOUS
 10
6.340840
 20
3.583360
  0
VERTEX
  8
0
  6
CONTINUOUS
 10
6.354040
 20
3.568400
  0
VERTEX
  8
0
  6
CONTINUOUS
 10
6.364160
 20
3.550360
  0
VERTEX
  8
0
  6
CONTINUOUS
 10
6.388360
 20
3.550360
  0
VERTEX
  8
0
  6
CONTINUOUS
 10
6.398040
 20
3.567960
  0
VERTEX
  8
0
  6
CONTINUOUS
 10
6.410800
 20
3.582920
  0
VERTEX
  8
0
  6
CONTINUOUS
 10
6.426200
 20
3.595680
  0
VERTEX
  8
0
  6
CONTINUOUS
 10
6.453920
 20
3.610200
  0
VERTEX
  8
0
  6
CONTINUOUS
 10
6.485160
 20
3.619880
  0
VERTEX
  8
0
  6
CONTINUOUS
 10
6.507160
 20
3.622960
  0
VERTEX
  8
0
  6
CONTINUOUS
 10
6.530040
 20
3.623840
  0
VERTEX
  8
0
  6
CONTINUOUS
 10
6.552920
 20
3.622520
  0
VERTEX
  8
0
  6
CONTINUOUS
 10
6.585920
 20
3.616360
  0
VERTEX
  8
0
  6
CONTINUOUS
 10
6.616280
 20
3.604920
  0
VERTEX
  8
0
  6
CONTINUOUS
 10
6.642680
 20
3.588200
  0
VERTEX
  8
0
  6
CONTINUOUS
 10
6.657200
 20
3.574120
  0
VERTEX
  8
0
  6
CONTINUOUS
 10
6.668640
 20
3.557840
  0
VERTEX
  8
0
  6
CONTINUOUS
 10
6.673040
 20
3.548600
  0
VERTEX
  8
0
  6
CONTINUOUS
 10
6.719240
 20
3.547720
  0
VERTEX
  8
0
  6
CONTINUOUS
 10
6.721880
 20
3.511640
  0
VERTEX
  8
0
  6
CONTINUOUS
 10
6.731120
 20
3.461920
  0
VERTEX
  8
0
  6
CONTINUOUS
 10
6.745640
 20
3.417040
  0
VERTEX
  8
0
  6
CONTINUOUS
 10
6.765000
 20
3.377880
  0
VERTEX
  8
0
  6
CONTINUOUS
 10
6.789200
 20
3.344000
  0
VERTEX
  8
0
  6
CONTINUOUS
 10
6.807240
 20
3.323760
  0
VERTEX
  8
0
  6
CONTINUOUS
 10
6.838040
 20
3.298680
  0
VERTEX
  8
0
  6
CONTINUOUS
 10
6.860040
 20
3.284600
  0
VERTEX
  8
0
  6
CONTINUOUS
 10
6.895680
 20
3.267880
  0
VERTEX
  8
0
  6
CONTINUOUS
 10
6.933960
 20
3.256880
  0
VERTEX
  8
0
  6
CONTINUOUS
 10
6.974440
 20
3.250720
  0
VERTEX
  8
0
  6
CONTINUOUS
 10
7.002160
 20
3.249400
  0
VERTEX
  8
0
  6
CONTINUOUS
 10
7.006120
 20
3.132360
  0
VERTEX
  8
0
  6
CONTINUOUS
 10
2.834920
 20
3.132360
  0
VERTEX
  8
0
  6
CONTINUOUS
 10
2.834920
 20
3.885640
  0
VERTEX
  8
0
  6
CONTINUOUS
 10
3.849120
 20
3.885640
  0
VERTEX
  8
0
  6
CONTINUOUS
 10
3.868480
 20
3.714920
  0
VERTEX
  8
0
  6
CONTINUOUS
 10
3.978040
 20
3.714920
  0
VERTEX
  8
0
  6
CONTINUOUS
 10
3.977600
 20
3.717120
  0
SEQEND
  8
0
  0
SOLID
  8
0
 62
    15
 10
5.949240
 20
1.547040
 11
5.953640
 21
2.282280
 12
5.994120
 22
1.542640
 13
5.998520
 23
2.277440
  0
POLYLINE
  8
0
  6
CONTINUOUS
 66
     1
 40
0.000000
 41
0.000000
  0
VERTEX
  8
0
  6
CONTINUOUS
 10
5.949240
 20
1.547040
  0
VERTEX
  8
0
  6
CONTINUOUS
 10
5.953640
 20
2.282280
  0
VERTEX
  8
0
  6
CONTINUOUS
 10
5.998520
 20
2.277440
  0
VERTEX
  8
0
  6
CONTINUOUS
 10
5.994120
 20
1.542640
  0
VERTEX
  8
0
  6
CONTINUOUS
 10
5.949240
 20
1.547040
  0
SEQEND
  8
0
  0
SOLID
  8
0
 62
    15
 10
4.048440
 20
1.669360
 11
4.052840
 21
2.404600
 12
4.077920
 22
1.697960
 13
4.082320
 23
2.432760
  0
POLYLINE
  8
0
  6
CONTINUOUS
 66
     1
 40
0.000000
 41
0.000000
  0
VERTEX
  8
0
  6
CONTINUOUS
 10
4.048440
 20
1.669360
  0
VERTEX
  8
0
  6
CONTINUOUS
 10
4.052840
 20
2.404600
  0
VERTEX
  8
0
  6
CONTINUOUS
 10
4.082320
 20
2.432760
  0
VERTEX
  8
0
  6
CONTINUOUS
 10
4.077920
 20
1.697960
  0
VERTEX
  8
0
  6
CONTINUOUS
 10
4.048440
 20
1.669360
  0
SEQEND
  8
0
  0
SOLID
  8
0
 62
    15
 10
4.077920
 20
1.697960
 11
4.082320
 21
2.432760
 12
4.111800
 22
1.723920
 13
4.116200
 23
2.458720
  0
POLYLINE
  8
0
  6
CONTINUOUS
 66
     1
 40
0.000000
 41
0.000000
  0
VERTEX
  8
0
  6
CONTINUOUS
 10
4.077920
 20
1.697960
  0
VERTEX
  8
0
  6
CONTINUOUS
 10
4.082320
 20
2.432760
  0
VERTEX
  8
0
  6
CONTINUOUS
 10
4.116200
 20
2.458720
  0
VERTEX
  8
0
  6
CONTINUOUS
 10
4.111800
 20
1.723920
  0
VERTEX
  8
0
  6
CONTINUOUS
 10
4.077920
 20
1.697960
  0
SEQEND
  8
0
  0
SOLID
  8
0
 62
    15
 10
4.111800
 20
1.723920
 11
4.116200
 21
2.458720
 12
4.149200
 22
1.746360
 13
4.153600
 23
2.481600
  0
POLYLINE
  8
0
  6
CONTINUOUS
 66
     1
 40
0.000000
 41
0.000000
  0
VERTEX
  8
0
  6
CONTINUOUS
 10
4.111800
 20
1.723920
  0
VERTEX
  8
0
  6
CONTINUOUS
 10
4.116200
 20
2.458720
  0
VERTEX
  8
0
  6
CONTINUOUS
 10
4.153600
 20
2.481600
  0
VERTEX
  8
0
  6
CONTINUOUS
 10
4.149200
 20
1.746360
  0
VERTEX
  8
0
  6
CONTINUOUS
 10
4.111800
 20
1.723920
  0
SEQEND
  8
0
  0
SOLID
  8
0
 62
    15
 10
4.149200
 20
1.746360
 11
4.153600
 21
2.481600
 12
4.189680
 22
1.765720
 13
4.194080
 23
2.500520
  0
POLYLINE
  8
0
  6
CONTINUOUS
 66
     1
 40
0.000000
 41
0.000000
  0
VERTEX
  8
0
  6
CONTINUOUS
 10
4.149200
 20
1.746360
  0
VERTEX
  8
0
  6
CONTINUOUS
 10
4.153600
 20
2.481600
  0
VERTEX
  8
0
  6
CONTINUOUS
 10
4.194080
 20
2.500520
  0
VERTEX
  8
0
  6
CONTINUOUS
 10
4.189680
 20
1.765720
  0
VERTEX
  8
0
  6
CONTINUOUS
 10
4.149200
 20
1.746360
  0
SEQEND
  8
0
  0
SOLID
  8
0
 62
    15
 10
4.189680
 20
1.765720
 11
4.194080
 21
2.500520
 12
4.232800
 22
1.780680
 13
4.237200
 23
2.515920
  0
POLYLINE
  8
0
  6
CONTINUOUS
 66
     1
 40
0.000000
 41
0.000000
  0
VERTEX
  8
0
  6
CONTINUOUS
 10
4.189680
 20
1.765720
  0
VERTEX
  8
0
  6
CONTINUOUS
 10
4.194080
 20
2.500520
  0
VERTEX
  8
0
  6
CONTINUOUS
 10
4.237200
 20
2.515920
  0
VERTEX
  8
0
  6
CONTINUOUS
 10
4.232800
 20
1.780680
  0
VERTEX
  8
0
  6
CONTINUOUS
 10
4.189680
 20
1.765720
  0
SEQEND
  8
0
  0
SOLID
  8
0
 62
    15
 10
4.232800
 20
1.780680
 11
4.237200
 21
2.515920
 12
4.278120
 22
1.791240
 13
4.282520
 23
2.526480
  0
POLYLINE
  8
0
  6
CONTINUOUS
 66
     1
 40
0.000000
 41
0.000000
  0
VERTEX
  8
0
  6
CONTINUOUS
 10
4.232800
 20
1.780680
  0
VERTEX
  8
0
  6
CONTINUOUS
 10
4.237200
 20
2.515920
  0
VERTEX
  8
0
  6
CONTINUOUS
 10
4.282520
 20
2.526480
  0
VERTEX
  8
0
  6
CONTINUOUS
 10
4.278120
 20
1.791240
  0
VERTEX
  8
0
  6
CONTINUOUS
 10
4.232800
 20
1.780680
  0
SEQEND
  8
0
  0
SOLID
  8
0
 62
    15
 10
4.278120
 20
1.791240
 11
4.282520
 21
2.526480
 12
4.325200
 22
1.797400
 13
4.329160
 23
2.532200
  0
POLYLINE
  8
0
  6
CONTINUOUS
 66
     1
 40
0.000000
 41
0.000000
  0
VERTEX
  8
0
  6
CONTINUOUS
 10
4.278120
 20
1.791240
  0
VERTEX
  8
0
  6
CONTINUOUS
 10
4.282520
 20
2.526480
  0
VERTEX
  8
0
  6
CONTINUOUS
 10
4.329160
 20
2.532200
  0
VERTEX
  8
0
  6
CONTINUOUS
 10
4.325200
 20
1.797400
  0
VERTEX
  8
0
  6
CONTINUOUS
 10
4.278120
 20
1.791240
  0
SEQEND
  8
0
  0
SOLID
  8
0
 62
    15
 10
4.325200
 20
1.797400
 11
4.329160
 21
2.532200
 12
4.373160
 22
1.797400
 13
4.377120
 23
2.532640
  0
POLYLINE
  8
0
  6
CONTINUOUS
 66
     1
 40
0.000000
 41
0.000000
  0
VERTEX
  8
0
  6
CONTINUOUS
 10
4.325200
 20
1.797400
  0
VERTEX
  8
0
  6
CONTINUOUS
 10
4.329160
 20
2.532200
  0
VERTEX
  8
0
  6
CONTINUOUS
 10
4.377120
 20
2.532640
  0
VERTEX
  8
0
  6
CONTINUOUS
 10
4.373160
 20
1.797400
  0
VERTEX
  8
0
  6
CONTINUOUS
 10
4.325200
 20
1.797400
  0
SEQEND
  8
0
  0
SOLID
  8
0
 62
    15
 10
4.373160
 20
1.797400
 11
4.377120
 21
2.532640
 12
4.421560
 22
1.792120
 13
4.425520
 23
2.527360
  0
POLYLINE
  8
0
  6
CONTINUOUS
 66
     1
 40
0.000000
 41
0.000000
  0
VERTEX
  8
0
  6
CONTINUOUS
 10
4.373160
 20
1.797400
  0
VERTEX
  8
0
  6
CONTINUOUS
 10
4.377120
 20
2.532640
  0
VERTEX
  8
0
  6
CONTINUOUS
 10
4.425520
 20
2.527360
  0
VERTEX
  8
0
  6
CONTINUOUS
 10
4.421560
 20
1.792120
  0
VERTEX
  8
0
  6
CONTINUOUS
 10
4.373160
 20
1.797400
  0
SEQEND
  8
0
  0
SOLID
  8
0
 62
    15
 10
4.421560
 20
1.792120
 11
4.425520
 21
2.527360
 12
4.469960
 22
1.780680
 13
4.473920
 23
2.515480
  0
POLYLINE
  8
0
  6
CONTINUOUS
 66
     1
 40
0.000000
 41
0.000000
  0
VERTEX
  8
0
  6
CONTINUOUS
 10
4.421560
 20
1.792120
  0
VERTEX
  8
0
  6
CONTINUOUS
 10
4.425520
 20
2.527360
  0
VERTEX
  8
0
  6
CONTINUOUS
 10
4.473920
 20
2.515480
  0
VERTEX
  8
0
  6
CONTINUOUS
 10
4.469960
 20
1.780680
  0
VERTEX
  8
0
  6
CONTINUOUS
 10
4.421560
 20
1.792120
  0
SEQEND
  8
0
  0
SOLID
  8
0
 62
    15
 10
4.469960
 20
1.780680
 11
4.473920
 21
2.515480
 12
4.517920
 22
1.762200
 13
4.521880
 23
2.497000
  0
POLYLINE
  8
0
  6
CONTINUOUS
 66
     1
 40
0.000000
 41
0.000000
  0
VERTEX
  8
0
  6
CONTINUOUS
 10
4.469960
 20
1.780680
  0
VERTEX
  8
0
  6
CONTINUOUS
 10
4.473920
 20
2.515480
  0
VERTEX
  8
0
  6
CONTINUOUS
 10
4.521880
 20
2.497000
  0
VERTEX
  8
0
  6
CONTINUOUS
 10
4.517920
 20
1.762200
  0
VERTEX
  8
0
  6
CONTINUOUS
 10
4.469960
 20
1.780680
  0
SEQEND
  8
0
  0
SOLID
  8
0
 62
    15
 10
4.517920
 20
1.762200
 11
4.521880
 21
2.497000
 12
4.564560
 22
1.736680
 13
4.568960
 23
2.471480
  0
POLYLINE
  8
0
  6
CONTINUOUS
 66
     1
 40
0.000000
 41
0.000000
  0
VERTEX
  8
0
  6
CONTINUOUS
 10
4.517920
 20
1.762200
  0
VERTEX
  8
0
  6
CONTINUOUS
 10
4.521880
 20
2.497000
  0
VERTEX
  8
0
  6
CONTINUOUS
 10
4.568960
 20
2.471480
  0
VERTEX
  8
0
  6
CONTINUOUS
 10
4.564560
 20
1.736680
  0
VERTEX
  8
0
  6
CONTINUOUS
 10
4.517920
 20
1.762200
  0
SEQEND
  8
0
  0
SOLID
  8
0
 62
    15
 10
4.564560
 20
1.736680
 11
4.568960
 21
2.471480
 12
4.610320
 22
1.703680
 13
4.614280
 23
2.438480
  0
POLYLINE
  8
0
  6
CONTINUOUS
 66
     1
 40
0.000000
 41
0.000000
  0
VERTEX
  8
0
  6
CONTINUOUS
 10
4.564560
 20
1.736680
  0
VERTEX
  8
0
  6
CONTINUOUS
 10
4.568960
 20
2.471480
  0
VERTEX
  8
0
  6
CONTINUOUS
 10
4.614280
 20
2.438480
  0
VERTEX
  8
0
  6
CONTINUOUS
 10
4.610320
 20
1.703680
  0
VERTEX
  8
0
  6
CONTINUOUS
 10
4.564560
 20
1.736680
  0
SEQEND
  8
0
  0
SOLID
  8
0
 62
    15
 10
4.610320
 20
1.703680
 11
4.614280
 21
2.438480
 12
4.653440
 22
1.662320
 13
4.657840
 23
2.397120
  0
POLYLINE
  8
0
  6
CONTINUOUS
 66
     1
 40
0.000000
 41
0.000000
  0
VERTEX
  8
0
  6
CONTINUOUS
 10
4.610320
 20
1.703680
  0
VERTEX
  8
0
  6
CONTINUOUS
 10
4.614280
 20
2.438480
  0
VERTEX
  8
0
  6
CONTINUOUS
 10
4.657840
 20
2.397120
  0
VERTEX
  8
0
  6
CONTINUOUS
 10
4.653440
 20
1.662320
  0
VERTEX
  8
0
  6
CONTINUOUS
 10
4.610320
 20
1.703680
  0
SEQEND
  8
0
  0
SOLID
  8
0
 62
    15
 10
4.653440
 20
1.662320
 11
4.657840
 21
2.397120
 12
4.694360
 22
1.612600
 13
4.698760
 23
2.347400
  0
POLYLINE
  8
0
  6
CONTINUOUS
 66
     1
 40
0.000000
 41
0.000000
  0
VERTEX
  8
0
  6
CONTINUOUS
 10
4.653440
 20
1.662320
  0
VERTEX
  8
0
  6
CONTINUOUS
 10
4.657840
 20
2.397120
  0
VERTEX
  8
0
  6
CONTINUOUS
 10
4.698760
 20
2.347400
  0
VERTEX
  8
0
  6
CONTINUOUS
 10
4.694360
 20
1.612600
  0
VERTEX
  8
0
  6
CONTINUOUS
 10
4.653440
 20
1.662320
  0
SEQEND
  8
0
  0
SOLID
  8
0
 62
    15
 10
4.694360
 20
1.612600
 11
4.698760
 21
2.347400
 12
4.734840
 22
1.562440
 13
4.739240
 23
2.297240
  0
POLYLINE
  8
0
  6
CONTINUOUS
 66
     1
 40
0.000000
 41
0.000000
  0
VERTEX
  8
0
  6
CONTINUOUS
 10
4.694360
 20
1.612600
  0
VERTEX
  8
0
  6
CONTINUOUS
 10
4.698760
 20
2.347400
  0
VERTEX
  8
0
  6
CONTINUOUS
 10
4.739240
 20
2.297240
  0
VERTEX
  8
0
  6
CONTINUOUS
 10
4.734840
 20
1.562440
  0
VERTEX
  8
0
  6
CONTINUOUS
 10
4.694360
 20
1.612600
  0
SEQEND
  8
0
  0
SOLID
  8
0
 62
    15
 10
4.734840
 20
1.562440
 11
4.739240
 21
2.297240
 12
4.777520
 22
1.519760
 13
4.781920
 23
2.254560
  0
POLYLINE
  8
0
  6
CONTINUOUS
 66
     1
 40
0.000000
 41
0.000000
  0
VERTEX
  8
0
  6
CONTINUOUS
 10
4.734840
 20
1.562440
  0
VERTEX
  8
0
  6
CONTINUOUS
 10
4.739240
 20
2.297240
  0
VERTEX
  8
0
  6
CONTINUOUS
 10
4.781920
 20
2.254560
  0
VERTEX
  8
0
  6
CONTINUOUS
 10
4.777520
 20
1.519760
  0
VERTEX
  8
0
  6
CONTINUOUS
 10
4.734840
 20
1.562440
  0
SEQEND
  8
0
  0
SOLID
  8
0
 62
    15
 10
4.777520
 20
1.519760
 11
4.781920
 21
2.254560
 12
4.821960
 22
1.484120
 13
4.826360
 23
2.218920
  0
POLYLINE
  8
0
  6
CONTINUOUS
 66
     1
 40
0.000000
 41
0.000000
  0
VERTEX
  8
0
  6
CONTINUOUS
 10
4.777520
 20
1.519760
  0
VERTEX
  8
0
  6
CONTINUOUS
 10
4.781920
 20
2.254560
  0
VERTEX
  8
0
  6
CONTINUOUS
 10
4.826360
 20
2.218920
  0
VERTEX
  8
0
  6
CONTINUOUS
 10
4.821960
 20
1.484120
  0
VERTEX
  8
0
  6
CONTINUOUS
 10
4.777520
 20
1.519760
  0
SEQEND
  8
0
  0
SOLID
  8
0
 62
    15
 10
4.821960
 20
1.484120
 11
4.826360
 21
2.218920
 12
4.867720
 22
1.455520
 13
4.871680
 23
2.190320
  0
POLYLINE
  8
0
  6
CONTINUOUS
 66
     1
 40
0.000000
 41
0.000000
  0
VERTEX
  8
0
  6
CONTINUOUS
 10
4.821960
 20
1.484120
  0
VERTEX
  8
0
  6
CONTINUOUS
 10
4.826360
 20
2.218920
  0
VERTEX
  8
0
  6
CONTINUOUS
 10
4.871680
 20
2.190320
  0
VERTEX
  8
0
  6
CONTINUOUS
 10
4.867720
 20
1.455520
  0
VERTEX
  8
0
  6
CONTINUOUS
 10
4.821960
 20
1.484120
  0
SEQEND
  8
0
  0
SOLID
  8
0
 62
    15
 10
4.867720
 20
1.455520
 11
4.871680
 21
2.190320
 12
4.913920
 22
1.433520
 13
4.918320
 23
2.168760
  0
POLYLINE
  8
0
  6
CONTINUOUS
 66
     1
 40
0.000000
 41
0.000000
  0
VERTEX
  8
0
  6
CONTINUOUS
 10
4.867720
 20
1.455520
  0
VERTEX
  8
0
  6
CONTINUOUS
 10
4.871680
 20
2.190320
  0
VERTEX
  8
0
  6
CONTINUOUS
 10
4.918320
 20
2.168760
  0
VERTEX
  8
0
  6
CONTINUOUS
 10
4.913920
 20
1.433520
  0
VERTEX
  8
0
  6
CONTINUOUS
 10
4.867720
 20
1.455520
  0
SEQEND
  8
0
  0
SOLID
  8
0
 62
    15
 10
4.913920
 20
1.433520
 11
4.918320
 21
2.168760
 12
4.961000
 22
1.418120
 13
4.965400
 23
2.152920
  0
POLYLINE
  8
0
  6
CONTINUOUS
 66
     1
 40
0.000000
 41
0.000000
  0
VERTEX
  8
0
  6
CONTINUOUS
 10
4.913920
 20
1.433520
  0
VERTEX
  8
0
  6
CONTINUOUS
 10
4.918320
 20
2.168760
  0
VERTEX
  8
0
  6
CONTINUOUS
 10
4.965400
 20
2.152920
  0
VERTEX
  8
0
  6
CONTINUOUS
 10
4.961000
 20
1.418120
  0
VERTEX
  8
0
  6
CONTINUOUS
 10
4.913920
 20
1.433520
  0
SEQEND
  8
0
  0
SOLID
  8
0
 62
    15
 10
4.961000
 20
1.418120
 11
4.965400
 21
2.152920
 12
5.008080
 22
1.408440
 13
5.012480
 23
2.143240
  0
POLYLINE
  8
0
  6
CONTINUOUS
 66
     1
 40
0.000000
 41
0.000000
  0
VERTEX
  8
0
  6
CONTINUOUS
 10
4.961000
 20
1.418120
  0
VERTEX
  8
0
  6
CONTINUOUS
 10
4.965400
 20
2.152920
  0
VERTEX
  8
0
  6
CONTINUOUS
 10
5.012480
 20
2.143240
  0
VERTEX
  8
0
  6
CONTINUOUS
 10
5.008080
 20
1.408440
  0
VERTEX
  8
0
  6
CONTINUOUS
 10
4.961000
 20
1.418120
  0
SEQEND
  8
0
  0
SOLID
  8
0
 62
    15
 10
5.008080
 20
1.408440
 11
5.012480
 21
2.143240
 12
5.054720
 22
1.404480
 13
5.058680
 23
2.139720
  0
POLYLINE
  8
0
  6
CONTINUOUS
 66
     1
 40
0.000000
 41
0.000000
  0
VERTEX
  8
0
  6
CONTINUOUS
 10
5.008080
 20
1.408440
  0
VERTEX
  8
0
  6
CONTINUOUS
 10
5.012480
 20
2.143240
  0
VERTEX
  8
0
  6
CONTINUOUS
 10
5.058680
 20
2.139720
  0
VERTEX
  8
0
  6
CONTINUOUS
 10
5.054720
 20
1.404480
  0
VERTEX
  8
0
  6
CONTINUOUS
 10
5.008080
 20
1.408440
  0
SEQEND
  8
0
  0
SOLID
  8
0
 62
    15
 10
5.054720
 20
1.404480
 11
5.058680
 21
2.139720
 12
5.100480
 22
1.406240
 13
5.104440
 23
2.141040
  0
POLYLINE
  8
0
  6
CONTINUOUS
 66
     1
 40
0.000000
 41
0.000000
  0
VERTEX
  8
0
  6
CONTINUOUS
 10
5.054720
 20
1.404480
  0
VERTEX
  8
0
  6
CONTINUOUS
 10
5.058680
 20
2.139720
  0
VERTEX
  8
0
  6
CONTINUOUS
 10
5.104440
 20
2.141040
  0
VERTEX
  8
0
  6
CONTINUOUS
 10
5.100480
 20
1.406240
  0
VERTEX
  8
0
  6
CONTINUOUS
 10
5.054720
 20
1.404480
  0
SEQEND
  8
0
  0
SOLID
  8
0
 62
    15
 10
5.100480
 20
1.406240
 11
5.104440
 21
2.141040
 12
5.144920
 22
1.412840
 13
5.148880
 23
2.148080
  0
POLYLINE
  8
0
  6
CONTINUOUS
 66
     1
 40
0.000000
 41
0.000000
  0
VERTEX
  8
0
  6
CONTINUOUS
 10
5.100480
 20
1.406240
  0
VERTEX
  8
0
  6
CONTINUOUS
 10
5.104440
 20
2.141040
  0
VERTEX
  8
0
  6
CONTINUOUS
 10
5.148880
 20
2.148080
  0
VERTEX
  8
0
  6
CONTINUOUS
 10
5.144920
 20
1.412840
  0
VERTEX
  8
0
  6
CONTINUOUS
 10
5.100480
 20
1.406240
  0
SEQEND
  8
0
  0
SOLID
  8
0
 62
    15
 10
5.144920
 20
1.412840
 11
5.148880
 21
2.148080
 12
5.187600
 22
1.424720
 13
5.192000
 23
2.159520
  0
POLYLINE
  8
0
  6
CONTINUOUS
 66
     1
 40
0.000000
 41
0.000000
  0
VERTEX
  8
0
  6
CONTINUOUS
 10
5.144920
 20
1.412840
  0
VERTEX
  8
0
  6
CONTINUOUS
 10
5.148880
 20
2.148080
  0
VERTEX
  8
0
  6
CONTINUOUS
 10
5.192000
 20
2.159520
  0
VERTEX
  8
0
  6
CONTINUOUS
 10
5.187600
 20
1.424720
  0
VERTEX
  8
0
  6
CONTINUOUS
 10
5.144920
 20
1.412840
  0
SEQEND
  8
0
  0
SOLID
  8
0
 62
    15
 10
5.187600
 20
1.424720
 11
5.192000
 21
2.159520
 12
5.228080
 22
1.440560
 13
5.232480
 23
2.175800
  0
POLYLINE
  8
0
  6
CONTINUOUS
 66
     1
 40
0.000000
 41
0.000000
  0
VERTEX
  8
0
  6
CONTINUOUS
 10
5.187600
 20
1.424720
  0
VERTEX
  8
0
  6
CONTINUOUS
 10
5.192000
 20
2.159520
  0
VERTEX
  8
0
  6
CONTINUOUS
 10
5.232480
 20
2.175800
  0
VERTEX
  8
0
  6
CONTINUOUS
 10
5.228080
 20
1.440560
  0
VERTEX
  8
0
  6
CONTINUOUS
 10
5.187600
 20
1.424720
  0
SEQEND
  8
0
  0
SOLID
  8
0
 62
    15
 10
5.228080
 20
1.440560
 11
5.232480
 21
2.175800
 12
5.266360
 22
1.461240
 13
5.270760
 23
2.196040
  0
POLYLINE
  8
0
  6
CONTINUOUS
 66
     1
 40
0.000000
 41
0.000000
  0
VERTEX
  8
0
  6
CONTINUOUS
 10
5.228080
 20
1.440560
  0
VERTEX
  8
0
  6
CONTINUOUS
 10
5.232480
 20
2.175800
  0
VERTEX
  8
0
  6
CONTINUOUS
 10
5.270760
 20
2.196040
  0
VERTEX
  8
0
  6
CONTINUOUS
 10
5.266360
 20
1.461240
  0
VERTEX
  8
0
  6
CONTINUOUS
 10
5.228080
 20
1.440560
  0
SEQEND
  8
0
  0
SOLID
  8
0
 62
    15
 10
5.266360
 20
1.461240
 11
5.270760
 21
2.196040
 12
5.301560
 22
1.485440
 13
5.305960
 23
2.220680
  0
POLYLINE
  8
0
  6
CONTINUOUS
 66
     1
 40
0.000000
 41
0.000000
  0
VERTEX
  8
0
  6
CONTINUOUS
 10
5.266360
 20
1.461240
  0
VERTEX
  8
0
  6
CONTINUOUS
 10
5.270760
 20
2.196040
  0
VERTEX
  8
0
  6
CONTINUOUS
 10
5.305960
 20
2.220680
  0
VERTEX
  8
0
  6
CONTINUOUS
 10
5.301560
 20
1.485440
  0
VERTEX
  8
0
  6
CONTINUOUS
 10
5.266360
 20
1.461240
  0
SEQEND
  8
0
  0
SOLID
  8
0
 62
    15
 10
5.301560
 20
1.485440
 11
5.305960
 21
2.220680
 12
5.333680
 22
1.513600
 13
5.337640
 23
2.248840
  0
POLYLINE
  8
0
  6
CONTINUOUS
 66
     1
 40
0.000000
 41
0.000000
  0
VERTEX
  8
0
  6
CONTINUOUS
 10
5.301560
 20
1.485440
  0
VERTEX
  8
0
  6
CONTINUOUS
 10
5.305960
 20
2.220680
  0
VERTEX
  8
0
  6
CONTINUOUS
 10
5.337640
 20
2.248840
  0
VERTEX
  8
0
  6
CONTINUOUS
 10
5.333680
 20
1.513600
  0
VERTEX
  8
0
  6
CONTINUOUS
 10
5.301560
 20
1.485440
  0
SEQEND
  8
0
  0
SOLID
  8
0
 62
    15
 10
5.333680
 20
1.513600
 11
5.337640
 21
2.248840
 12
5.361400
 22
1.545280
 13
5.365800
 23
2.280080
  0
POLYLINE
  8
0
  6
CONTINUOUS
 66
     1
 40
0.000000
 41
0.000000
  0
VERTEX
  8
0
  6
CONTINUOUS
 10
5.333680
 20
1.513600
  0
VERTEX
  8
0
  6
CONTINUOUS
 10
5.337640
 20
2.248840
  0
VERTEX
  8
0
  6
CONTINUOUS
 10
5.365800
 20
2.280080
  0
VERTEX
  8
0
  6
CONTINUOUS
 10
5.361400
 20
1.545280
  0
VERTEX
  8
0
  6
CONTINUOUS
 10
5.333680
 20
1.513600
  0
SEQEND
  8
0
  0
SOLID
  8
0
 62
    15
 10
5.361400
 20
1.545280
 11
5.365800
 21
2.280080
 12
5.775880
 22
1.545280
 13
5.779840
 23
2.280080
  0
POLYLINE
  8
0
  6
CONTINUOUS
 66
     1
 40
0.000000
 41
0.000000
  0
VERTEX
  8
0
  6
CONTINUOUS
 10
5.361400
 20
1.545280
  0
VERTEX
  8
0
  6
CONTINUOUS
 10
5.365800
 20
2.280080
  0
VERTEX
  8
0
  6
CONTINUOUS
 10
5.779840
 20
2.280080
  0
VERTEX
  8
0
  6
CONTINUOUS
 10
5.775880
 20
1.545280
  0
VERTEX
  8
0
  6
CONTINUOUS
 10
5.361400
 20
1.545280
  0
SEQEND
  8
0
  0
SOLID
  8
0
 62
    15
 10
5.775880
 20
1.545280
 11
5.779840
 21
2.280080
 12
5.793920
 22
1.472240
 13
5.797880
 23
2.207040
  0
POLYLINE
  8
0
  6
CONTINUOUS
 66
     1
 40
0.000000
 41
0.000000
  0
VERTEX
  8
0
  6
CONTINUOUS
 10
5.775880
 20
1.545280
  0
VERTEX
  8
0
  6
CONTINUOUS
 10
5.779840
 20
2.280080
  0
VERTEX
  8
0
  6
CONTINUOUS
 10
5.797880
 20
2.207040
  0
VERTEX
  8
0
  6
CONTINUOUS
 10
5.793920
 20
1.472240
  0
VERTEX
  8
0
  6
CONTINUOUS
 10
5.775880
 20
1.545280
  0
SEQEND
  8
0
  0
SOLID
  8
0
 62
    15
 10
5.793920
 20
1.472240
 11
5.797880
 21
2.207040
 12
5.793920
 22
1.472240
 13
5.798320
 23
2.207040
  0
POLYLINE
  8
0
  6
CONTINUOUS
 66
     1
 40
0.000000
 41
0.000000
  0
VERTEX
  8
0
  6
CONTINUOUS
 10
5.793920
 20
1.472240
  0
VERTEX
  8
0
  6
CONTINUOUS
 10
5.797880
 20
2.207040
  0
VERTEX
  8
0
  6
CONTINUOUS
 10
5.798320
 20
2.207040
  0
VERTEX
  8
0
  6
CONTINUOUS
 10
5.793920
 20
1.472240
  0
SEQEND
  8
0
  0
SOLID
  8
0
 62
    15
 10
5.793920
 20
1.472240
 11
5.798320
 21
2.207040
 12
5.808000
 22
1.472240
 13
5.812400
 23
2.207040
  0
POLYLINE
  8
0
  6
CONTINUOUS
 66
     1
 40
0.000000
 41
0.000000
  0
VERTEX
  8
0
  6
CONTINUOUS
 10
5.793920
 20
1.472240
  0
VERTEX
  8
0
  6
CONTINUOUS
 10
5.798320
 20
2.207040
  0
VERTEX
  8
0
  6
CONTINUOUS
 10
5.812400
 20
2.207040
  0
VERTEX
  8
0
  6
CONTINUOUS
 10
5.808000
 20
1.472240
  0
VERTEX
  8
0
  6
CONTINUOUS
 10
5.793920
 20
1.472240
  0
SEQEND
  8
0
  0
SOLID
  8
0
 62
    15
 10
5.808000
 20
1.472240
 11
5.812400
 21
2.207040
 12
5.817680
 22
1.489400
 13
5.821640
 23
2.224640
  0
POLYLINE
  8
0
  6
CONTINUOUS
 66
     1
 40
0.000000
 41
0.000000
  0
VERTEX
  8
0
  6
CONTINUOUS
 10
5.808000
 20
1.472240
  0
VERTEX
  8
0
  6
CONTINUOUS
 10
5.812400
 20
2.207040
  0
VERTEX
  8
0
  6
CONTINUOUS
 10
5.821640
 20
2.224640
  0
VERTEX
  8
0
  6
CONTINUOUS
 10
5.817680
 20
1.489400
  0
VERTEX
  8
0
  6
CONTINUOUS
 10
5.808000
 20
1.472240
  0
SEQEND
  8
0
  0
SOLID
  8
0
 62
    15
 10
5.817680
 20
1.489400
 11
5.821640
 21
2.224640
 12
5.830440
 22
1.504800
 13
5.834400
 23
2.239600
  0
POLYLINE
  8
0
  6
CONTINUOUS
 66
     1
 40
0.000000
 41
0.000000
  0
VERTEX
  8
0
  6
CONTINUOUS
 10
5.817680
 20
1.489400
  0
VERTEX
  8
0
  6
CONTINUOUS
 10
5.821640
 20
2.224640
  0
VERTEX
  8
0
  6
CONTINUOUS
 10
5.834400
 20
2.239600
  0
VERTEX
  8
0
  6
CONTINUOUS
 10
5.830440
 20
1.504800
  0
VERTEX
  8
0
  6
CONTINUOUS
 10
5.817680
 20
1.489400
  0
SEQEND
  8
0
  0
SOLID
  8
0
 62
    15
 10
5.830440
 20
1.504800
 11
5.834400
 21
2.239600
 12
5.863880
 22
1.528120
 13
5.867840
 23
2.262920
  0
POLYLINE
  8
0
  6
CONTINUOUS
 66
     1
 40
0.000000
 41
0.000000
  0
VERTEX
  8
0
  6
CONTINUOUS
 10
5.830440
 20
1.504800
  0
VERTEX
  8
0
  6
CONTINUOUS
 10
5.834400
 20
2.239600
  0
VERTEX
  8
0
  6
CONTINUOUS
 10
5.867840
 20
2.262920
  0
VERTEX
  8
0
  6
CONTINUOUS
 10
5.863880
 20
1.528120
  0
VERTEX
  8
0
  6
CONTINUOUS
 10
5.830440
 20
1.504800
  0
SEQEND
  8
0
  0
SOLID
  8
0
 62
    15
 10
5.863880
 20
1.528120
 11
5.867840
 21
2.262920
 12
5.904800
 22
1.542200
 13
5.908760
 23
2.277440
  0
POLYLINE
  8
0
  6
CONTINUOUS
 66
     1
 40
0.000000
 41
0.000000
  0
VERTEX
  8
0
  6
CONTINUOUS
 10
5.863880
 20
1.528120
  0
VERTEX
  8
0
  6
CONTINUOUS
 10
5.867840
 20
2.262920
  0
VERTEX
  8
0
  6
CONTINUOUS
 10
5.908760
 20
2.277440
  0
VERTEX
  8
0
  6
CONTINUOUS
 10
5.904800
 20
1.542200
  0
VERTEX
  8
0
  6
CONTINUOUS
 10
5.863880
 20
1.528120
  0
SEQEND
  8
0
  0
SOLID
  8
0
 62
    15
 10
5.904800
 20
1.542200
 11
5.908760
 21
2.277440
 12
5.949240
 22
1.547040
 13
5.953640
 23
2.282280
  0
POLYLINE
  8
0
  6
CONTINUOUS
 66
     1
 40
0.000000
 41
0.000000
  0
VERTEX
  8
0
  6
CONTINUOUS
 10
5.904800
 20
1.542200
  0
VERTEX
  8
0
  6
CONTINUOUS
 10
5.908760
 20
2.277440
  0
VERTEX
  8
0
  6
CONTINUOUS
 10
5.953640
 20
2.282280
  0
VERTEX
  8
0
  6
CONTINUOUS
 10
5.949240
 20
1.547040
  0
VERTEX
  8
0
  6
CONTINUOUS
 10
5.904800
 20
1.542200
  0
SEQEND
  8
0
  0
SOLID
  8
0
 62
    15
 10
3.914240
 20
1.636360
 11
3.918640
 21
2.371160
 12
4.023800
 22
1.636360
 13
4.028200
 23
2.371160
  0
POLYLINE
  8
0
  6
CONTINUOUS
 66
     1
 40
0.000000
 41
0.000000
  0
VERTEX
  8
0
  6
CONTINUOUS
 10
3.914240
 20
1.636360
  0
VERTEX
  8
0
  6
CONTINUOUS
 10
3.918640
 20
2.371160
  0
VERTEX
  8
0
  6
CONTINUOUS
 10
4.028200
 20
2.371160
  0
VERTEX
  8
0
  6
CONTINUOUS
 10
4.023800
 20
1.636360
  0
VERTEX
  8
0
  6
CONTINUOUS
 10
3.914240
 20
1.636360
  0
SEQEND
  8
0
  0
SOLID
  8
0
 62
    15
 10
5.994120
 20
1.542640
 11
5.998520
 21
2.277440
 12
6.035480
 22
1.529000
 13
6.039880
 23
2.263800
  0
POLYLINE
  8
0
  6
CONTINUOUS
 66
     1
 40
0.000000
 41
0.000000
  0
VERTEX
  8
0
  6
CONTINUOUS
 10
5.994120
 20
1.542640
  0
VERTEX
  8
0
  6
CONTINUOUS
 10
5.998520
 20
2.277440
  0
VERTEX
  8
0
  6
CONTINUOUS
 10
6.039880
 20
2.263800
  0
VERTEX
  8
0
  6
CONTINUOUS
 10
6.035480
 20
1.529000
  0
VERTEX
  8
0
  6
CONTINUOUS
 10
5.994120
 20
1.542640
  0
SEQEND
  8
0
  0
SOLID
  8
0
 62
    15
 10
6.035480
 20
1.529000
 11
6.039880
 21
2.263800
 12
6.069360
 22
1.505680
 13
6.073760
 23
2.240480
  0
POLYLINE
  8
0
  6
CONTINUOUS
 66
     1
 40
0.000000
 41
0.000000
  0
VERTEX
  8
0
  6
CONTINUOUS
 10
6.035480
 20
1.529000
  0
VERTEX
  8
0
  6
CONTINUOUS
 10
6.039880
 20
2.263800
  0
VERTEX
  8
0
  6
CONTINUOUS
 10
6.073760
 20
2.240480
  0
VERTEX
  8
0
  6
CONTINUOUS
 10
6.069360
 20
1.505680
  0
VERTEX
  8
0
  6
CONTINUOUS
 10
6.035480
 20
1.529000
  0
SEQEND
  8
0
  0
SOLID
  8
0
 62
    15
 10
6.069360
 20
1.505680
 11
6.073760
 21
2.240480
 12
6.082560
 22
1.490280
 13
6.086520
 23
2.225520
  0
POLYLINE
  8
0
  6
CONTINUOUS
 66
     1
 40
0.000000
 41
0.000000
  0
VERTEX
  8
0
  6
CONTINUOUS
 10
6.069360
 20
1.505680
  0
VERTEX
  8
0
  6
CONTINUOUS
 10
6.073760
 20
2.240480
  0
VERTEX
  8
0
  6
CONTINUOUS
 10
6.086520
 20
2.225520
  0
VERTEX
  8
0
  6
CONTINUOUS
 10
6.082560
 20
1.490280
  0
VERTEX
  8
0
  6
CONTINUOUS
 10
6.069360
 20
1.505680
  0
SEQEND
  8
0
  0
SOLID
  8
0
 62
    15
 10
6.092240
 20
1.472680
 11
6.096640
 21
2.207920
 12
6.121280
 22
1.472680
 13
6.125240
 23
2.207920
  0
POLYLINE
  8
0
  6
CONTINUOUS
 66
     1
 40
0.000000
 41
0.000000
  0
VERTEX
  8
0
  6
CONTINUOUS
 10
6.092240
 20
1.472680
  0
VERTEX
  8
0
  6
CONTINUOUS
 10
6.096640
 20
2.207920
  0
VERTEX
  8
0
  6
CONTINUOUS
 10
6.125240
 20
2.207920
  0
VERTEX
  8
0
  6
CONTINUOUS
 10
6.121280
 20
1.472680
  0
VERTEX
  8
0
  6
CONTINUOUS
 10
6.092240
 20
1.472680
  0
SEQEND
  8
0
  0
SOLID
  8
0
 62
    15
 10
6.092240
 20
1.473120
 11
6.096640
 21
2.207920
 12
6.092240
 22
1.473120
 13
6.092240
 23
1.472680
  0
POLYLINE
  8
0
  6
CONTINUOUS
 66
     1
 40
0.000000
 41
0.000000
  0
VERTEX
  8
0
  6
CONTINUOUS
 10
6.092240
 20
1.473120
  0
VERTEX
  8
0
  6
CONTINUOUS
 10
6.096640
 20
2.207920
  0
VERTEX
  8
0
  6
CONTINUOUS
 10
6.092240
 20
1.472680
  0
VERTEX
  8
0
  6
CONTINUOUS
 10
6.092240
 20
1.473120
  0
SEQEND
  8
0
  0
SOLID
  8
0
 62
    15
 10
6.082560
 20
1.490280
 11
6.086520
 21
2.225520
 12
6.092240
 22
1.473120
 13
6.096640
 23
2.207920
  0
POLYLINE
  8
0
  6
CONTINUOUS
 66
     1
 40
0.000000
 41
0.000000
  0
VERTEX
  8
0
  6
CONTINUOUS
 10
6.082560
 20
1.490280
  0
VERTEX
  8
0
  6
CONTINUOUS
 10
6.086520
 20
2.225520
  0
VERTEX
  8
0
  6
CONTINUOUS
 10
6.096640
 20
2.207920
  0
VERTEX
  8
0
  6
CONTINUOUS
 10
6.092240
 20
1.473120
  0
VERTEX
  8
0
  6
CONTINUOUS
 10
6.082560
 20
1.490280
  0
SEQEND
  8
0
  0
SOLID
  8
0
 62
    15
 10
6.121280
 20
1.472680
 11
6.125240
 21
2.207920
 12
6.130520
 22
1.490280
 13
6.134920
 23
2.225520
  0
POLYLINE
  8
0
  6
CONTINUOUS
 66
     1
 40
0.000000
 41
0.000000
  0
VERTEX
  8
0
  6
CONTINUOUS
 10
6.121280
 20
1.472680
  0
VERTEX
  8
0
  6
CONTINUOUS
 10
6.125240
 20
2.207920
  0
VERTEX
  8
0
  6
CONTINUOUS
 10
6.134920
 20
2.225520
  0
VERTEX
  8
0
  6
CONTINUOUS
 10
6.130520
 20
1.490280
  0
VERTEX
  8
0
  6
CONTINUOUS
 10
6.121280
 20
1.472680
  0
SEQEND
  8
0
  0
SOLID
  8
0
 62
    15
 10
6.130520
 20
1.490280
 11
6.134920
 21
2.225520
 12
6.143280
 22
1.505680
 13
6.147680
 23
2.240480
  0
POLYLINE
  8
0
  6
CONTINUOUS
 66
     1
 40
0.000000
 41
0.000000
  0
VERTEX
  8
0
  6
CONTINUOUS
 10
6.130520
 20
1.490280
  0
VERTEX
  8
0
  6
CONTINUOUS
 10
6.134920
 20
2.225520
  0
VERTEX
  8
0
  6
CONTINUOUS
 10
6.147680
 20
2.240480
  0
VERTEX
  8
0
  6
CONTINUOUS
 10
6.143280
 20
1.505680
  0
VERTEX
  8
0
  6
CONTINUOUS
 10
6.130520
 20
1.490280
  0
SEQEND
  8
0
  0
SOLID
  8
0
 62
    15
 10
6.143280
 20
1.505680
 11
6.147680
 21
2.240480
 12
6.177160
 22
1.528560
 13
6.181560
 23
2.263800
  0
POLYLINE
  8
0
  6
CONTINUOUS
 66
     1
 40
0.000000
 41
0.000000
  0
VERTEX
  8
0
  6
CONTINUOUS
 10
6.143280
 20
1.505680
  0
VERTEX
  8
0
  6
CONTINUOUS
 10
6.147680
 20
2.240480
  0
VERTEX
  8
0
  6
CONTINUOUS
 10
6.181560
 20
2.263800
  0
VERTEX
  8
0
  6
CONTINUOUS
 10
6.177160
 20
1.528560
  0
VERTEX
  8
0
  6
CONTINUOUS
 10
6.143280
 20
1.505680
  0
SEQEND
  8
0
  0
SOLID
  8
0
 62
    15
 10
6.177160
 20
1.528560
 11
6.181560
 21
2.263800
 12
6.218960
 22
1.542640
 13
6.223360
 23
2.277440
  0
POLYLINE
  8
0
  6
CONTINUOUS
 66
     1
 40
0.000000
 41
0.000000
  0
VERTEX
  8
0
  6
CONTINUOUS
 10
6.177160
 20
1.528560
  0
VERTEX
  8
0
  6
CONTINUOUS
 10
6.181560
 20
2.263800
  0
VERTEX
  8
0
  6
CONTINUOUS
 10
6.223360
 20
2.277440
  0
VERTEX
  8
0
  6
CONTINUOUS
 10
6.218960
 20
1.542640
  0
VERTEX
  8
0
  6
CONTINUOUS
 10
6.177160
 20
1.528560
  0
SEQEND
  8
0
  0
SOLID
  8
0
 62
    15
 10
6.218960
 20
1.542640
 11
6.223360
 21
2.277440
 12
6.264280
 22
1.547040
 13
6.268680
 23
2.282280
  0
POLYLINE
  8
0
  6
CONTINUOUS
 66
     1
 40
0.000000
 41
0.000000
  0
VERTEX
  8
0
  6
CONTINUOUS
 10
6.218960
 20
1.542640
  0
VERTEX
  8
0
  6
CONTINUOUS
 10
6.223360
 20
2.277440
  0
VERTEX
  8
0
  6
CONTINUOUS
 10
6.268680
 20
2.282280
  0
VERTEX
  8
0
  6
CONTINUOUS
 10
6.264280
 20
1.547040
  0
VERTEX
  8
0
  6
CONTINUOUS
 10
6.218960
 20
1.542640
  0
SEQEND
  8
0
  0
SOLID
  8
0
 62
    15
 10
6.264280
 20
1.547040
 11
6.268680
 21
2.282280
 12
6.310040
 22
1.542200
 13
6.314440
 23
2.277440
  0
POLYLINE
  8
0
  6
CONTINUOUS
 66
     1
 40
0.000000
 41
0.000000
  0
VERTEX
  8
0
  6
CONTINUOUS
 10
6.264280
 20
1.547040
  0
VERTEX
  8
0
  6
CONTINUOUS
 10
6.268680
 20
2.282280
  0
VERTEX
  8
0
  6
CONTINUOUS
 10
6.314440
 20
2.277440
  0
VERTEX
  8
0
  6
CONTINUOUS
 10
6.310040
 20
1.542200
  0
VERTEX
  8
0
  6
CONTINUOUS
 10
6.264280
 20
1.547040
  0
SEQEND
  8
0
  0
SOLID
  8
0
 62
    15
 10
6.310040
 20
1.542200
 11
6.314440
 21
2.277440
 12
6.351840
 22
1.528120
 13
6.356240
 23
2.263360
  0
POLYLINE
  8
0
  6
CONTINUOUS
 66
     1
 40
0.000000
 41
0.000000
  0
VERTEX
  8
0
  6
CONTINUOUS
 10
6.310040
 20
1.542200
  0
VERTEX
  8
0
  6
CONTINUOUS
 10
6.314440
 20
2.277440
  0
VERTEX
  8
0
  6
CONTINUOUS
 10
6.356240
 20
2.263360
  0
VERTEX
  8
0
  6
CONTINUOUS
 10
6.351840
 20
1.528120
  0
VERTEX
  8
0
  6
CONTINUOUS
 10
6.310040
 20
1.542200
  0
SEQEND
  8
0
  0
SOLID
  8
0
 62
    15
 10
6.351840
 20
1.528120
 11
6.356240
 21
2.263360
 12
6.386160
 22
1.504800
 13
6.390560
 23
2.239600
  0
POLYLINE
  8
0
  6
CONTINUOUS
 66
     1
 40
0.000000
 41
0.000000
  0
VERTEX
  8
0
  6
CONTINUOUS
 10
6.351840
 20
1.528120
  0
VERTEX
  8
0
  6
CONTINUOUS
 10
6.356240
 20
2.263360
  0
VERTEX
  8
0
  6
CONTINUOUS
 10
6.390560
 20
2.239600
  0
VERTEX
  8
0
  6
CONTINUOUS
 10
6.386160
 20
1.504800
  0
VERTEX
  8
0
  6
CONTINUOUS
 10
6.351840
 20
1.528120
  0
SEQEND
  8
0
  0
SOLID
  8
0
 62
    15
 10
6.386160
 20
1.504800
 11
6.390560
 21
2.239600
 12
6.399360
 22
1.489840
 13
6.403760
 23
2.224640
  0
POLYLINE
  8
0
  6
CONTINUOUS
 66
     1
 40
0.000000
 41
0.000000
  0
VERTEX
  8
0
  6
CONTINUOUS
 10
6.386160
 20
1.504800
  0
VERTEX
  8
0
  6
CONTINUOUS
 10
6.390560
 20
2.239600
  0
VERTEX
  8
0
  6
CONTINUOUS
 10
6.403760
 20
2.224640
  0
VERTEX
  8
0
  6
CONTINUOUS
 10
6.399360
 20
1.489840
  0
VERTEX
  8
0
  6
CONTINUOUS
 10
6.386160
 20
1.504800
  0
SEQEND
  8
0
  0
SOLID
  8
0
 62
    15
 10
6.399360
 20
1.489840
 11
6.403760
 21
2.224640
 12
6.409480
 22
1.472240
 13
6.413440
 23
2.207040
  0
POLYLINE
  8
0
  6
CONTINUOUS
 66
     1
 40
0.000000
 41
0.000000
  0
VERTEX
  8
0
  6
CONTINUOUS
 10
6.399360
 20
1.489840
  0
VERTEX
  8
0
  6
CONTINUOUS
 10
6.403760
 20
2.224640
  0
VERTEX
  8
0
  6
CONTINUOUS
 10
6.413440
 20
2.207040
  0
VERTEX
  8
0
  6
CONTINUOUS
 10
6.409480
 20
1.472240
  0
VERTEX
  8
0
  6
CONTINUOUS
 10
6.399360
 20
1.489840
  0
SEQEND
  8
0
  0
SOLID
  8
0
 62
    15
 10
6.409480
 20
1.472240
 11
6.413440
 21
2.207040
 12
6.409480
 22
1.472240
 13
6.413880
 23
2.207040
  0
POLYLINE
  8
0
  6
CONTINUOUS
 66
     1
 40
0.000000
 41
0.000000
  0
VERTEX
  8
0
  6
CONTINUOUS
 10
6.409480
 20
1.472240
  0
VERTEX
  8
0
  6
CONTINUOUS
 10
6.413440
 20
2.207040
  0
VERTEX
  8
0
  6
CONTINUOUS
 10
6.413880
 20
2.207040
  0
VERTEX
  8
0
  6
CONTINUOUS
 10
6.409480
 20
1.472240
  0
SEQEND
  8
0
  0
SOLID
  8
0
 62
    15
 10
6.409480
 20
1.472240
 11
6.413880
 21
2.207040
 12
6.434120
 22
1.472240
 13
6.438520
 23
2.207040
  0
POLYLINE
  8
0
  6
CONTINUOUS
 66
     1
 40
0.000000
 41
0.000000
  0
VERTEX
  8
0
  6
CONTINUOUS
 10
6.409480
 20
1.472240
  0
VERTEX
  8
0
  6
CONTINUOUS
 10
6.413880
 20
2.207040
  0
VERTEX
  8
0
  6
CONTINUOUS
 10
6.438520
 20
2.207040
  0
VERTEX
  8
0
  6
CONTINUOUS
 10
6.434120
 20
1.472240
  0
VERTEX
  8
0
  6
CONTINUOUS
 10
6.409480
 20
1.472240
  0
SEQEND
  8
0
  0
SOLID
  8
0
 62
    15
 10
6.434120
 20
1.472240
 11
6.438520
 21
2.207040
 12
6.443360
 22
1.489400
 13
6.447760
 23
2.224640
  0
POLYLINE
  8
0
  6
CONTINUOUS
 66
     1
 40
0.000000
 41
0.000000
  0
VERTEX
  8
0
  6
CONTINUOUS
 10
6.434120
 20
1.472240
  0
VERTEX
  8
0
  6
CONTINUOUS
 10
6.438520
 20
2.207040
  0
VERTEX
  8
0
  6
CONTINUOUS
 10
6.447760
 20
2.224640
  0
VERTEX
  8
0
  6
CONTINUOUS
 10
6.443360
 20
1.489400
  0
VERTEX
  8
0
  6
CONTINUOUS
 10
6.434120
 20
1.472240
  0
SEQEND
  8
0
  0
SOLID
  8
0
 62
    15
 10
6.443360
 20
1.489400
 11
6.447760
 21
2.224640
 12
6.456120
 22
1.504800
 13
6.460520
 23
2.239600
  0
POLYLINE
  8
0
  6
CONTINUOUS
 66
     1
 40
0.000000
 41
0.000000
  0
VERTEX
  8
0
  6
CONTINUOUS
 10
6.443360
 20
1.489400
  0
VERTEX
  8
0
  6
CONTINUOUS
 10
6.447760
 20
2.224640
  0
VERTEX
  8
0
  6
CONTINUOUS
 10
6.460520
 20
2.239600
  0
VERTEX
  8
0
  6
CONTINUOUS
 10
6.456120
 20
1.504800
  0
VERTEX
  8
0
  6
CONTINUOUS
 10
6.443360
 20
1.489400
  0
SEQEND
  8
0
  0
SOLID
  8
0
 62
    15
 10
6.456120
 20
1.504800
 11
6.460520
 21
2.239600
 12
6.489560
 22
1.527680
 13
6.493960
 23
2.262480
  0
POLYLINE
  8
0
  6
CONTINUOUS
 66
     1
 40
0.000000
 41
0.000000
  0
VERTEX
  8
0
  6
CONTINUOUS
 10
6.456120
 20
1.504800
  0
VERTEX
  8
0
  6
CONTINUOUS
 10
6.460520
 20
2.239600
  0
VERTEX
  8
0
  6
CONTINUOUS
 10
6.493960
 20
2.262480
  0
VERTEX
  8
0
  6
CONTINUOUS
 10
6.489560
 20
1.527680
  0
VERTEX
  8
0
  6
CONTINUOUS
 10
6.456120
 20
1.504800
  0
SEQEND
  8
0
  0
SOLID
  8
0
 62
    15
 10
6.489560
 20
1.527680
 11
6.493960
 21
2.262480
 12
6.530920
 22
1.541320
 13
6.534880
 23
2.276560
  0
POLYLINE
  8
0
  6
CONTINUOUS
 66
     1
 40
0.000000
 41
0.000000
  0
VERTEX
  8
0
  6
CONTINUOUS
 10
6.489560
 20
1.527680
  0
VERTEX
  8
0
  6
CONTINUOUS
 10
6.493960
 20
2.262480
  0
VERTEX
  8
0
  6
CONTINUOUS
 10
6.534880
 20
2.276560
  0
VERTEX
  8
0
  6
CONTINUOUS
 10
6.530920
 20
1.541320
  0
VERTEX
  8
0
  6
CONTINUOUS
 10
6.489560
 20
1.527680
  0
SEQEND
  8
0
  0
SOLID
  8
0
 62
    15
 10
6.530920
 20
1.541320
 11
6.534880
 21
2.276560
 12
6.575800
 22
1.545720
 13
6.579760
 23
2.280520
  0
POLYLINE
  8
0
  6
CONTINUOUS
 66
     1
 40
0.000000
 41
0.000000
  0
VERTEX
  8
0
  6
CONTINUOUS
 10
6.530920
 20
1.541320
  0
VERTEX
  8
0
  6
CONTINUOUS
 10
6.534880
 20
2.276560
  0
VERTEX
  8
0
  6
CONTINUOUS
 10
6.579760
 20
2.280520
  0
VERTEX
  8
0
  6
CONTINUOUS
 10
6.575800
 20
1.545720
  0
VERTEX
  8
0
  6
CONTINUOUS
 10
6.530920
 20
1.541320
  0
SEQEND
  8
0
  0
SOLID
  8
0
 62
    15
 10
6.575800
 20
1.545720
 11
6.579760
 21
2.280520
 12
6.620680
 22
1.540880
 13
6.625080
 23
2.275680
  0
POLYLINE
  8
0
  6
CONTINUOUS
 66
     1
 40
0.000000
 41
0.000000
  0
VERTEX
  8
0
  6
CONTINUOUS
 10
6.575800
 20
1.545720
  0
VERTEX
  8
0
  6
CONTINUOUS
 10
6.579760
 20
2.280520
  0
VERTEX
  8
0
  6
CONTINUOUS
 10
6.625080
 20
2.275680
  0
VERTEX
  8
0
  6
CONTINUOUS
 10
6.620680
 20
1.540880
  0
VERTEX
  8
0
  6
CONTINUOUS
 10
6.575800
 20
1.545720
  0
SEQEND
  8
0
  0
SOLID
  8
0
 62
    15
 10
6.620680
 20
1.540880
 11
6.625080
 21
2.275680
 12
6.662040
 22
1.526360
 13
6.666440
 23
2.261600
  0
POLYLINE
  8
0
  6
CONTINUOUS
 66
     1
 40
0.000000
 41
0.000000
  0
VERTEX
  8
0
  6
CONTINUOUS
 10
6.620680
 20
1.540880
  0
VERTEX
  8
0
  6
CONTINUOUS
 10
6.625080
 20
2.275680
  0
VERTEX
  8
0
  6
CONTINUOUS
 10
6.666440
 20
2.261600
  0
VERTEX
  8
0
  6
CONTINUOUS
 10
6.662040
 20
1.526360
  0
VERTEX
  8
0
  6
CONTINUOUS
 10
6.620680
 20
1.540880
  0
SEQEND
  8
0
  0
SOLID
  8
0
 62
    15
 10
6.662040
 20
1.526360
 11
6.666440
 21
2.261600
 12
6.695920
 22
1.503040
 13
6.700320
 23
2.237840
  0
POLYLINE
  8
0
  6
CONTINUOUS
 66
     1
 40
0.000000
 41
0.000000
  0
VERTEX
  8
0
  6
CONTINUOUS
 10
6.662040
 20
1.526360
  0
VERTEX
  8
0
  6
CONTINUOUS
 10
6.666440
 20
2.261600
  0
VERTEX
  8
0
  6
CONTINUOUS
 10
6.700320
 20
2.237840
  0
VERTEX
  8
0
  6
CONTINUOUS
 10
6.695920
 20
1.503040
  0
VERTEX
  8
0
  6
CONTINUOUS
 10
6.662040
 20
1.526360
  0
SEQEND
  8
0
  0
SOLID
  8
0
 62
    15
 10
6.695920
 20
1.503040
 11
6.700320
 21
2.237840
 12
6.708680
 22
1.487640
 13
6.713080
 23
2.222440
  0
POLYLINE
  8
0
  6
CONTINUOUS
 66
     1
 40
0.000000
 41
0.000000
  0
VERTEX
  8
0
  6
CONTINUOUS
 10
6.695920
 20
1.503040
  0
VERTEX
  8
0
  6
CONTINUOUS
 10
6.700320
 20
2.237840
  0
VERTEX
  8
0
  6
CONTINUOUS
 10
6.713080
 20
2.222440
  0
VERTEX
  8
0
  6
CONTINUOUS
 10
6.708680
 20
1.487640
  0
VERTEX
  8
0
  6
CONTINUOUS
 10
6.695920
 20
1.503040
  0
SEQEND
  8
0
  0
SOLID
  8
0
 62
    15
 10
6.708680
 20
1.487640
 11
6.713080
 21
2.222440
 12
6.718800
 22
1.470040
 13
6.723200
 23
2.205280
  0
POLYLINE
  8
0
  6
CONTINUOUS
 66
     1
 40
0.000000
 41
0.000000
  0
VERTEX
  8
0
  6
CONTINUOUS
 10
6.708680
 20
1.487640
  0
VERTEX
  8
0
  6
CONTINUOUS
 10
6.713080
 20
2.222440
  0
VERTEX
  8
0
  6
CONTINUOUS
 10
6.723200
 20
2.205280
  0
VERTEX
  8
0
  6
CONTINUOUS
 10
6.718800
 20
1.470040
  0
VERTEX
  8
0
  6
CONTINUOUS
 10
6.708680
 20
1.487640
  0
SEQEND
  8
0
  0
SOLID
  8
0
 62
    15
 10
6.765000
 20
1.469600
 11
6.769400
 21
2.204400
 12
6.773360
 22
1.399640
 13
6.777760
 23
2.134440
  0
POLYLINE
  8
0
  6
CONTINUOUS
 66
     1
 40
0.000000
 41
0.000000
  0
VERTEX
  8
0
  6
CONTINUOUS
 10
6.765000
 20
1.469600
  0
VERTEX
  8
0
  6
CONTINUOUS
 10
6.769400
 20
2.204400
  0
VERTEX
  8
0
  6
CONTINUOUS
 10
6.777760
 20
2.134440
  0
VERTEX
  8
0
  6
CONTINUOUS
 10
6.773360
 20
1.399640
  0
VERTEX
  8
0
  6
CONTINUOUS
 10
6.765000
 20
1.469600
  0
SEQEND
  8
0
  0
SOLID
  8
0
 62
    15
 10
6.718800
 20
1.470040
 11
6.723200
 21
2.205280
 12
6.765000
 22
1.469600
 13
6.769400
 23
2.204400
  0
POLYLINE
  8
0
  6
CONTINUOUS
 66
     1
 40
0.000000
 41
0.000000
  0
VERTEX
  8
0
  6
CONTINUOUS
 10
6.718800
 20
1.470040
  0
VERTEX
  8
0
  6
CONTINUOUS
 10
6.723200
 20
2.205280
  0
VERTEX
  8
0
  6
CONTINUOUS
 10
6.769400
 20
2.204400
  0
VERTEX
  8
0
  6
CONTINUOUS
 10
6.765000
 20
1.469600
  0
VERTEX
  8
0
  6
CONTINUOUS
 10
6.718800
 20
1.470040
  0
SEQEND
  8
0
  0
SOLID
  8
0
 62
    15
 10
6.791400
 20
1.338920
 11
6.795800
 21
2.073720
 12
6.818240
 22
1.287440
 13
6.822640
 23
2.022680
  0
POLYLINE
  8
0
  6
CONTINUOUS
 66
     1
 40
0.000000
 41
0.000000
  0
VERTEX
  8
0
  6
CONTINUOUS
 10
6.791400
 20
1.338920
  0
VERTEX
  8
0
  6
CONTINUOUS
 10
6.795800
 20
2.073720
  0
VERTEX
  8
0
  6
CONTINUOUS
 10
6.822640
 20
2.022680
  0
VERTEX
  8
0
  6
CONTINUOUS
 10
6.818240
 20
1.287440
  0
VERTEX
  8
0
  6
CONTINUOUS
 10
6.791400
 20
1.338920
  0
SEQEND
  8
0
  0
SOLID
  8
0
 62
    15
 10
6.773360
 20
1.399640
 11
6.777760
 21
2.134440
 12
6.791400
 22
1.338920
 13
6.795800
 23
2.073720
  0
POLYLINE
  8
0
  6
CONTINUOUS
 66
     1
 40
0.000000
 41
0.000000
  0
VERTEX
  8
0
  6
CONTINUOUS
 10
6.773360
 20
1.399640
  0
VERTEX
  8
0
  6
CONTINUOUS
 10
6.777760
 20
2.134440
  0
VERTEX
  8
0
  6
CONTINUOUS
 10
6.795800
 20
2.073720
  0
VERTEX
  8
0
  6
CONTINUOUS
 10
6.791400
 20
1.338920
  0
VERTEX
  8
0
  6
CONTINUOUS
 10
6.773360
 20
1.399640
  0
SEQEND
  8
0
  0
SOLID
  8
0
 62
    15
 10
6.818240
 20
1.287440
 11
6.822640
 21
2.022680
 12
6.853000
 22
1.245640
 13
6.857400
 23
1.980440
  0
POLYLINE
  8
0
  6
CONTINUOUS
 66
     1
 40
0.000000
 41
0.000000
  0
VERTEX
  8
0
  6
CONTINUOUS
 10
6.818240
 20
1.287440
  0
VERTEX
  8
0
  6
CONTINUOUS
 10
6.822640
 20
2.022680
  0
VERTEX
  8
0
  6
CONTINUOUS
 10
6.857400
 20
1.980440
  0
VERTEX
  8
0
  6
CONTINUOUS
 10
6.853000
 20
1.245640
  0
VERTEX
  8
0
  6
CONTINUOUS
 10
6.818240
 20
1.287440
  0
SEQEND
  8
0
  0
SOLID
  8
0
 62
    15
 10
6.853000
 20
1.245640
 11
6.857400
 21
1.980440
 12
6.894360
 22
1.213080
 13
6.898760
 23
1.947880
  0
POLYLINE
  8
0
  6
CONTINUOUS
 66
     1
 40
0.000000
 41
0.000000
  0
VERTEX
  8
0
  6
CONTINUOUS
 10
6.853000
 20
1.245640
  0
VERTEX
  8
0
  6
CONTINUOUS
 10
6.857400
 20
1.980440
  0
VERTEX
  8
0
  6
CONTINUOUS
 10
6.898760
 20
1.947880
  0
VERTEX
  8
0
  6
CONTINUOUS
 10
6.894360
 20
1.213080
  0
VERTEX
  8
0
  6
CONTINUOUS
 10
6.853000
 20
1.245640
  0
SEQEND
  8
0
  0
SOLID
  8
0
 62
    15
 10
6.894360
 20
1.213080
 11
6.898760
 21
1.947880
 12
6.941440
 22
1.189760
 13
6.945840
 23
1.924560
  0
POLYLINE
  8
0
  6
CONTINUOUS
 66
     1
 40
0.000000
 41
0.000000
  0
VERTEX
  8
0
  6
CONTINUOUS
 10
6.894360
 20
1.213080
  0
VERTEX
  8
0
  6
CONTINUOUS
 10
6.898760
 20
1.947880
  0
VERTEX
  8
0
  6
CONTINUOUS
 10
6.945840
 20
1.924560
  0
VERTEX
  8
0
  6
CONTINUOUS
 10
6.941440
 20
1.189760
  0
VERTEX
  8
0
  6
CONTINUOUS
 10
6.894360
 20
1.213080
  0
SEQEND
  8
0
  0
SOLID
  8
0
 62
    15
 10
6.941440
 20
1.189760
 11
6.945840
 21
1.924560
 12
6.992920
 22
1.175680
 13
6.997320
 23
1.910480
  0
POLYLINE
  8
0
  6
CONTINUOUS
 66
     1
 40
0.000000
 41
0.000000
  0
VERTEX
  8
0
  6
CONTINUOUS
 10
6.941440
 20
1.189760
  0
VERTEX
  8
0
  6
CONTINUOUS
 10
6.945840
 20
1.924560
  0
VERTEX
  8
0
  6
CONTINUOUS
 10
6.997320
 20
1.910480
  0
VERTEX
  8
0
  6
CONTINUOUS
 10
6.992920
 20
1.175680
  0
VERTEX
  8
0
  6
CONTINUOUS
 10
6.941440
 20
1.189760
  0
SEQEND
  8
0
  0
SOLID
  8
0
 62
    15
 10
7.047920
 20
1.170840
 11
7.052320
 21
1.906080
 12
7.051880
 22
1.054240
 13
7.056280
 23
1.789040
  0
POLYLINE
  8
0
  6
CONTINUOUS
 66
     1
 40
0.000000
 41
0.000000
  0
VERTEX
  8
0
  6
CONTINUOUS
 10
7.047920
 20
1.170840
  0
VERTEX
  8
0
  6
CONTINUOUS
 10
7.052320
 20
1.906080
  0
VERTEX
  8
0
  6
CONTINUOUS
 10
7.056280
 20
1.789040
  0
VERTEX
  8
0
  6
CONTINUOUS
 10
7.051880
 20
1.054240
  0
VERTEX
  8
0
  6
CONTINUOUS
 10
7.047920
 20
1.170840
  0
SEQEND
  8
0
  0
SOLID
  8
0
 62
    15
 10
6.992920
 20
1.175680
 11
6.997320
 21
1.910480
 12
7.047920
 22
1.170840
 13
7.052320
 23
1.906080
  0
POLYLINE
  8
0
  6
CONTINUOUS
 66
     1
 40
0.000000
 41
0.000000
  0
VERTEX
  8
0
  6
CONTINUOUS
 10
6.992920
 20
1.175680
  0
VERTEX
  8
0
  6
CONTINUOUS
 10
6.997320
 20
1.910480
  0
VERTEX
  8
0
  6
CONTINUOUS
 10
7.052320
 20
1.906080
  0
VERTEX
  8
0
  6
CONTINUOUS
 10
7.047920
 20
1.170840
  0
VERTEX
  8
0
  6
CONTINUOUS
 10
6.992920
 20
1.175680
  0
SEQEND
  8
0
  0
SOLID
  8
0
 62
    15
 10
2.880680
 20
1.807080
 11
2.885080
 21
2.542320
 12
3.894440
 22
1.807080
 13
3.898840
 23
2.542320
  0
POLYLINE
  8
0
  6
CONTINUOUS
 66
     1
 40
0.000000
 41
0.000000
  0
VERTEX
  8
0
  6
CONTINUOUS
 10
2.880680
 20
1.807080
  0
VERTEX
  8
0
  6
CONTINUOUS
 10
2.885080
 20
2.542320
  0
VERTEX
  8
0
  6
CONTINUOUS
 10
3.898840
 20
2.542320
  0
VERTEX
  8
0
  6
CONTINUOUS
 10
3.894440
 20
1.807080
  0
VERTEX
  8
0
  6
CONTINUOUS
 10
2.880680
 20
1.807080
  0
SEQEND
  8
0
  0
SOLID
  8
0
 62
    15
 10
3.894440
 20
1.807080
 11
3.898840
 21
2.542320
 12
3.914240
 22
1.636360
 13
3.918640
 23
2.371160
  0
POLYLINE
  8
0
  6
CONTINUOUS
 66
     1
 40
0.000000
 41
0.000000
  0
VERTEX
  8
0
  6
CONTINUOUS
 10
3.894440
 20
1.807080
  0
VERTEX
  8
0
  6
CONTINUOUS
 10
3.898840
 20
2.542320
  0
VERTEX
  8
0
  6
CONTINUOUS
 10
3.918640
 20
2.371160
  0
VERTEX
  8
0
  6
CONTINUOUS
 10
3.914240
 20
1.636360
  0
VERTEX
  8
0
  6
CONTINUOUS
 10
3.894440
 20
1.807080
  0
SEQEND
  8
0
  0
SOLID
  8
0
 62
    15
 10
4.023360
 20
1.639000
 11
4.027760
 21
2.373800
 12
4.048440
 22
1.669360
 13
4.052840
 23
2.404600
  0
POLYLINE
  8
0
  6
CONTINUOUS
 66
     1
 40
0.000000
 41
0.000000
  0
VERTEX
  8
0
  6
CONTINUOUS
 10
4.023360
 20
1.639000
  0
VERTEX
  8
0
  6
CONTINUOUS
 10
4.027760
 20
2.373800
  0
VERTEX
  8
0
  6
CONTINUOUS
 10
4.052840
 20
2.404600
  0
VERTEX
  8
0
  6
CONTINUOUS
 10
4.048440
 20
1.669360
  0
VERTEX
  8
0
  6
CONTINUOUS
 10
4.023360
 20
1.639000
  0
SEQEND
  8
0
  0
POLYLINE
  8
0
  6
CONTINUOUS
 66
     1
 40
0.000000
 41
0.000000
  0
VERTEX
  8
0
  6
CONTINUOUS
 10
4.023360
 20
1.639000
  0
VERTEX
  8
0
  6
CONTINUOUS
 10
4.048440
 20
1.669360
  0
VERTEX
  8
0
  6
CONTINUOUS
 10
4.077920
 20
1.697960
  0
VERTEX
  8
0
  6
CONTINUOUS
 10
4.111800
 20
1.723920
  0
VERTEX
  8
0
  6
CONTINUOUS
 10
4.149200
 20
1.746360
  0
VERTEX
  8
0
  6
CONTINUOUS
 10
4.189680
 20
1.765720
  0
VERTEX
  8
0
  6
CONTINUOUS
 10
4.232800
 20
1.780680
  0
VERTEX
  8
0
  6
CONTINUOUS
 10
4.278120
 20
1.791240
  0
VERTEX
  8
0
  6
CONTINUOUS
 10
4.325200
 20
1.797400
  0
VERTEX
  8
0
  6
CONTINUOUS
 10
4.373160
 20
1.797400
  0
VERTEX
  8
0
  6
CONTINUOUS
 10
4.421560
 20
1.792120
  0
VERTEX
  8
0
  6
CONTINUOUS
 10
4.469960
 20
1.780680
  0
VERTEX
  8
0
  6
CONTINUOUS
 10
4.517920
 20
1.762200
  0
VERTEX
  8
0
  6
CONTINUOUS
 10
4.564560
 20
1.736680
  0
VERTEX
  8
0
  6
CONTINUOUS
 10
4.610320
 20
1.703680
  0
VERTEX
  8
0
  6
CONTINUOUS
 10
4.653440
 20
1.662320
  0
VERTEX
  8
0
  6
CONTINUOUS
 10
4.734840
 20
1.562440
  0
VERTEX
  8
0
  6
CONTINUOUS
 10
4.777520
 20
1.519760
  0
VERTEX
  8
0
  6
CONTINUOUS
 10
4.821960
 20
1.484120
  0
VERTEX
  8
0
  6
CONTINUOUS
 10
4.867720
 20
1.455520
  0
VERTEX
  8
0
  6
CONTINUOUS
 10
4.913920
 20
1.433520
  0
VERTEX
  8
0
  6
CONTINUOUS
 10
4.961000
 20
1.418120
  0
VERTEX
  8
0
  6
CONTINUOUS
 10
5.008080
 20
1.408440
  0
VERTEX
  8
0
  6
CONTINUOUS
 10
5.054720
 20
1.404480
  0
VERTEX
  8
0
  6
CONTINUOUS
 10
5.100480
 20
1.406240
  0
VERTEX
  8
0
  6
CONTINUOUS
 10
5.144920
 20
1.412840
  0
VERTEX
  8
0
  6
CONTINUOUS
 10
5.187600
 20
1.424720
  0
VERTEX
  8
0
  6
CONTINUOUS
 10
5.228080
 20
1.440560
  0
VERTEX
  8
0
  6
CONTINUOUS
 10
5.266360
 20
1.461240
  0
VERTEX
  8
0
  6
CONTINUOUS
 10
5.301560
 20
1.485440
  0
VERTEX
  8
0
  6
CONTINUOUS
 10
5.333680
 20
1.513600
  0
VERTEX
  8
0
  6
CONTINUOUS
 10
5.361400
 20
1.545280
  0
VERTEX
  8
0
  6
CONTINUOUS
 10
5.775880
 20
1.545280
  0
VERTEX
  8
0
  6
CONTINUOUS
 10
5.793920
 20
1.472240
  0
VERTEX
  8
0
  6
CONTINUOUS
 10
5.808000
 20
1.472240
  0
VERTEX
  8
0
  6
CONTINUOUS
 10
5.817680
 20
1.489400
  0
VERTEX
  8
0
  6
CONTINUOUS
 10
5.830440
 20
1.504800
  0
VERTEX
  8
0
  6
CONTINUOUS
 10
5.863880
 20
1.528120
  0
VERTEX
  8
0
  6
CONTINUOUS
 10
5.904800
 20
1.542200
  0
VERTEX
  8
0
  6
CONTINUOUS
 10
5.949240
 20
1.547040
  0
VERTEX
  8
0
  6
CONTINUOUS
 10
5.994120
 20
1.542640
  0
VERTEX
  8
0
  6
CONTINUOUS
 10
6.035480
 20
1.529000
  0
VERTEX
  8
0
  6
CONTINUOUS
 10
6.069360
 20
1.505680
  0
VERTEX
  8
0
  6
CONTINUOUS
 10
6.082560
 20
1.490280
  0
VERTEX
  8
0
  6
CONTINUOUS
 10
6.092240
 20
1.472680
  0
VERTEX
  8
0
  6
CONTINUOUS
 10
6.121280
 20
1.472680
  0
VERTEX
  8
0
  6
CONTINUOUS
 10
6.130520
 20
1.490280
  0
VERTEX
  8
0
  6
CONTINUOUS
 10
6.143280
 20
1.505680
  0
VERTEX
  8
0
  6
CONTINUOUS
 10
6.177160
 20
1.528560
  0
VERTEX
  8
0
  6
CONTINUOUS
 10
6.218960
 20
1.542640
  0
VERTEX
  8
0
  6
CONTINUOUS
 10
6.264280
 20
1.547040
  0
VERTEX
  8
0
  6
CONTINUOUS
 10
6.310040
 20
1.542200
  0
VERTEX
  8
0
  6
CONTINUOUS
 10
6.351840
 20
1.528120
  0
VERTEX
  8
0
  6
CONTINUOUS
 10
6.386160
 20
1.504800
  0
VERTEX
  8
0
  6
CONTINUOUS
 10
6.399360
 20
1.489840
  0
VERTEX
  8
0
  6
CONTINUOUS
 10
6.409480
 20
1.472240
  0
VERTEX
  8
0
  6
CONTINUOUS
 10
6.434120
 20
1.472240
  0
VERTEX
  8
0
  6
CONTINUOUS
 10
6.443360
 20
1.489400
  0
VERTEX
  8
0
  6
CONTINUOUS
 10
6.456120
 20
1.504800
  0
VERTEX
  8
0
  6
CONTINUOUS
 10
6.489560
 20
1.527680
  0
VERTEX
  8
0
  6
CONTINUOUS
 10
6.530920
 20
1.541320
  0
VERTEX
  8
0
  6
CONTINUOUS
 10
6.575800
 20
1.545720
  0
VERTEX
  8
0
  6
CONTINUOUS
 10
6.620680
 20
1.540880
  0
VERTEX
  8
0
  6
CONTINUOUS
 10
6.662040
 20
1.526360
  0
VERTEX
  8
0
  6
CONTINUOUS
 10
6.695920
 20
1.503040
  0
VERTEX
  8
0
  6
CONTINUOUS
 10
6.708680
 20
1.487640
  0
VERTEX
  8
0
  6
CONTINUOUS
 10
6.718800
 20
1.470040
  0
VERTEX
  8
0
  6
CONTINUOUS
 10
6.765000
 20
1.469600
  0
VERTEX
  8
0
  6
CONTINUOUS
 10
6.773360
 20
1.399640
  0
VERTEX
  8
0
  6
CONTINUOUS
 10
6.791400
 20
1.338920
  0
VERTEX
  8
0
  6
CONTINUOUS
 10
6.818240
 20
1.287440
  0
VERTEX
  8
0
  6
CONTINUOUS
 10
6.853000
 20
1.245640
  0
VERTEX
  8
0
  6
CONTINUOUS
 10
6.894360
 20
1.213080
  0
VERTEX
  8
0
  6
CONTINUOUS
 10
6.941440
 20
1.189760
  0
VERTEX
  8
0
  6
CONTINUOUS
 10
6.992920
 20
1.175680
  0
VERTEX
  8
0
  6
CONTINUOUS
 10
7.047920
 20
1.170840
  0
VERTEX
  8
0
  6
CONTINUOUS
 10
7.051880
 20
1.054240
  0
VERTEX
  8
0
  6
CONTINUOUS
 10
2.880680
 20
1.054240
  0
VERTEX
  8
0
  6
CONTINUOUS
 10
2.880680
 20
1.807080
  0
VERTEX
  8
0
  6
CONTINUOUS
 10
3.894440
 20
1.807080
  0
VERTEX
  8
0
  6
CONTINUOUS
 10
3.914240
 20
1.636360
  0
VERTEX
  8
0
  6
CONTINUOUS
 10
4.023800
 20
1.636360
  0
VERTEX
  8
0
  6
CONTINUOUS
 10
4.023360
 20
1.639000
  0
SEQEND
  8
0
  0
TEXT
  8
0
 10
4.673240
 20
0.807840
 40
0.138006
  1
BA  515
 41
1.000000
  7
SN0
 71
     0
 72
     5
 11
5.263163
 21
0.807840
  0
TEXT
  8
0
 10
4.471280
 20
0.616000
 40
0.138006
  1
3/4" x 4-3/16"
 41
1.000000
  7
SN0
 71
     0
 72
     5
 11
5.463366
 21
0.616000
  0
TEXT
  8
0
 10
3.485680
 20
3.428040
 40
0.138006
  1
BA  515
 41
1.000000
  7
SN0
 71
     0
 72
     5
 11
4.075603
 21
3.428040
  0
TEXT
  8
0
 10
3.283720
 20
3.236640
 40
0.138006
  1
3/4" x 4-3/16"
 41
1.000000
  7
SN0
 71
     0
 72
     5
 11
4.275806
 21
3.236640
  0
ENDSEC
  0
EOF
