  0
SECTION
  2
HEADER
  9
$ACADVER
  1
AC1006
  9
$EXTMIN
 10
1.518000
 20
0.525360
  9
$EXTMAX
 10
7.564920
 20
3.923480
  9
$LTSCALE
 40
0.044000
  9
$PDMODE
 70
    35
  9
$PDSIZE
 40
0.035200
  0
ENDSEC
  0
SECTION
  2
TABLES
  0
TABLE
  2
LTYPE
 70
     9
  0
LTYPE
  2
CONTINUOUS
 70
    64
  3
Solid line
 72
    65
 73
     0
 40
0.000000
  0
LTYPE
  2
DASHED
 70
    64
  3
__ __ __ __ __ __ __ __ __ __ __ __ __ __ __
 72
    65
 73
     2
 40
0.000330
 49
0.000220
 49
-0.000110
  0
LTYPE
  2
HIDDEN
 70
    64
  3
 _ _ _ _ _ _ _ _ _ _ _ _ _ _ _ _ _ _ _ _ _ _
 72
    65
 73
     2
 40
0.000165
 49
0.000110
 49
-0.000055
  0
LTYPE
  2
CENTER
 70
    64
  3
____ _ ____ _ ____ _ ____ _ ____ _ ____ _ ____
 72
    65
 73
     4
 40
0.000880
 49
0.000550
 49
-0.000110
 49
0.000110
 49
-0.000110
  0
LTYPE
  2
PHANTOM
 70
    64
  3
_____ _ _ _____ _ _ _____ _ _ _____ _ _ ____
 72
    65
 73
     6
 40
0.001100
 49
0.000550
 49
-0.000110
 49
0.000110
 49
-0.000110
 49
0.000110
 49
-0.000110
  0
LTYPE
  2
DOT
 70
    64
  3
...............................................
 72
    65
 73
     2
 40
0.000110
 49
0.000000
 49
-0.000110
  0
LTYPE
  2
DASHDOT
 70
    64
  3
__ . __ . __ . __ . __ . __ . __ . __ . __ . __
 72
    65
 73
     4
 40
0.000440
 49
0.000220
 49
-0.000110
 49
0.000000
 49
-0.000110
  0
LTYPE
  2
BORDER
 70
    64
  3
__ __ . __ __ . __ __ . __ __ . __ __ . __ __
 72
    65
 73
     6
 40
0.000770
 49
0.000220
 49
-0.000110
 49
0.000220
 49
-0.000110
 49
0.000000
 49
-0.000110
  0
LTYPE
  2
DIVIDE
 70
    64
  3
__ . . __ . . __ . . __ . . __ . . __ . . __
 72
    65
 73
     6
 40
0.000550
 49
0.000220
 49
-0.000110
 49
0.000000
 49
-0.000110
 49
0.000000
 49
-0.000110
  0
LTYPE
  2
DOTDOT
 70
    64
  3
 . .  . .  . .  . .  . .  . . 
 72
    65
 73
     5
 40
0.000242
 49
-0.000110
 49
0.000000
 49
-0.000110
 49
0.000000
 49
-0.000110
  0
ENDTAB
  0
TABLE
  2
STYLE
 70
     2
  0
STYLE
 70
     0
  2
SN0
 40
0.000000
 41
0.000440
 50
0.000000
 71
     0
 42
0.000000
  3
ROMAND
  0
STYLE
 70
    68
  2
SV0
 40
0.000000
 41
0.000440
 50
0.000000
 71
     0
 42
0.000000
  3
ROMAND
  0
ENDTAB
  0
TABLE
  2
LAYER
 70
     3
  0
LAYER
  2
FOREGROUND
 70
    64
 62
     7
  6
CONTINUOUS
  0
LAYER
  2
BACKGROUND
 70
    65
 62
    -7
  6
CONTINUOUS
  0
LAYER
  2
0
 70
    64
 62
     7
  6
CONTINUOUS
  0
ENDTAB
  0
ENDSEC
  0
SECTION
  2
ENTITIES
  0
POLYLINE
  8
FOREGROUND
  6
CONTINUOUS
 66
     1
 40
0.000000
 41
0.000000
  0
VERTEX
  8
FOREGROUND
  6
CONTINUOUS
 10
0.000000
 20
4.448840
  0
VERTEX
  8
FOREGROUND
  6
CONTINUOUS
 10
8.499920
 20
4.448840
  0
VERTEX
  8
FOREGROUND
  6
CONTINUOUS
 10
8.499920
 20
-6.551160
  0
VERTEX
  8
FOREGROUND
  6
CONTINUOUS
 10
0.000000
 20
-6.551160
  0
VERTEX
  8
FOREGROUND
  6
CONTINUOUS
 10
0.000000
 20
4.448840
  0
SEQEND
  8
0
  0
POLYLINE
  8
FOREGROUND
  6
CONTINUOUS
 66
     1
 40
0.000000
 41
0.000000
  0
VERTEX
  8
FOREGROUND
  6
CONTINUOUS
 10
0.000000
 20
4.448840
  0
VERTEX
  8
FOREGROUND
  6
CONTINUOUS
 10
8.499920
 20
4.448840
  0
VERTEX
  8
FOREGROUND
  6
CONTINUOUS
 10
8.499920
 20
-6.551160
  0
VERTEX
  8
FOREGROUND
  6
CONTINUOUS
 10
0.000000
 20
-6.551160
  0
VERTEX
  8
FOREGROUND
  6
CONTINUOUS
 10
0.000000
 20
4.448840
  0
SEQEND
  8
0
  0
POLYLINE
  8
0
  6
CONTINUOUS
 66
     1
 40
0.014080
 41
0.014080
  0
VERTEX
  8
0
  6
CONTINUOUS
 10
6.689760
 20
2.917640
  0
VERTEX
  8
0
  6
CONTINUOUS
 10
1.817200
 20
2.919840
  0
VERTEX
  8
0
  6
CONTINUOUS
 10
1.817200
 20
3.916000
  0
VERTEX
  8
0
  6
CONTINUOUS
 10
6.725840
 20
3.915560
  0
VERTEX
  8
0
  6
CONTINUOUS
 10
6.774240
 20
3.912480
  0
VERTEX
  8
0
  6
CONTINUOUS
 10
6.822200
 20
3.906320
  0
VERTEX
  8
0
  6
CONTINUOUS
 10
6.891280
 20
3.891360
  0
VERTEX
  8
0
  6
CONTINUOUS
 10
6.935280
 20
3.877280
  0
VERTEX
  8
0
  6
CONTINUOUS
 10
6.977520
 20
3.860560
  0
VERTEX
  8
0
  6
CONTINUOUS
 10
7.017560
 20
3.840760
  0
VERTEX
  8
0
  6
CONTINUOUS
 10
7.054520
 20
3.818320
  0
VERTEX
  8
0
  6
CONTINUOUS
 10
7.088840
 20
3.792800
  0
VERTEX
  8
0
  6
CONTINUOUS
 10
7.119200
 20
3.764200
  0
VERTEX
  8
0
  6
CONTINUOUS
 10
7.146480
 20
3.733400
  0
VERTEX
  8
0
  6
CONTINUOUS
 10
7.169360
 20
3.699520
  0
VERTEX
  8
0
  6
CONTINUOUS
 10
7.187840
 20
3.663000
  0
VERTEX
  8
0
  6
CONTINUOUS
 10
7.195760
 20
3.643640
  0
VERTEX
  8
0
  6
CONTINUOUS
 10
7.207200
 20
3.602720
  0
VERTEX
  8
0
  6
CONTINUOUS
 10
7.213360
 20
3.559600
  0
VERTEX
  8
0
  6
CONTINUOUS
 10
7.213800
 20
3.517800
  0
VERTEX
  8
0
  6
CONTINUOUS
 10
7.212040
 20
3.497560
  0
VERTEX
  8
0
  6
CONTINUOUS
 10
7.204120
 20
3.456640
  0
VERTEX
  8
0
  6
CONTINUOUS
 10
7.190480
 20
3.414400
  0
VERTEX
  8
0
  6
CONTINUOUS
 10
7.181680
 20
3.393720
  0
VERTEX
  8
0
  6
CONTINUOUS
 10
7.159680
 20
3.354120
  0
VERTEX
  8
0
  6
CONTINUOUS
 10
7.132400
 20
3.316720
  0
VERTEX
  8
0
  6
CONTINUOUS
 10
7.099840
 20
3.284160
  0
VERTEX
  8
0
  6
CONTINUOUS
 10
7.081360
 20
3.270080
  0
VERTEX
  8
0
  6
CONTINUOUS
 10
7.061560
 20
3.257320
  0
VERTEX
  8
0
  6
CONTINUOUS
 10
6.979720
 20
3.216400
  0
VERTEX
  8
0
  6
CONTINUOUS
 10
6.919000
 20
3.181640
  0
VERTEX
  8
0
  6
CONTINUOUS
 10
6.861360
 20
3.143360
  0
VERTEX
  8
0
  6
CONTINUOUS
 10
6.808560
 20
3.102000
  0
VERTEX
  8
0
  6
CONTINUOUS
 10
6.784800
 20
3.080440
  0
VERTEX
  8
0
  6
CONTINUOUS
 10
6.743880
 20
3.035560
  0
VERTEX
  8
0
  6
CONTINUOUS
 10
6.719680
 20
3.000800
  0
VERTEX
  8
0
  6
CONTINUOUS
 10
6.706920
 20
2.977040
  0
VERTEX
  8
0
  6
CONTINUOUS
 10
6.697680
 20
2.953280
  0
VERTEX
  8
0
  6
CONTINUOUS
 10
6.691960
 20
2.929520
  0
VERTEX
  8
0
  6
CONTINUOUS
 10
6.690640
 20
2.917640
  0
VERTEX
  8
0
  6
CONTINUOUS
 10
6.689760
 20
2.917640
  0
SEQEND
  8
0
  0
SOLID
  8
0
 62
    15
 10
6.913280
 20
1.609960
 11
7.562280
 21
1.984840
 12
6.905360
 22
1.569040
 13
7.554360
 23
1.943480
  0
POLYLINE
  8
0
  6
CONTINUOUS
 66
     1
 40
0.000000
 41
0.000000
  0
VERTEX
  8
0
  6
CONTINUOUS
 10
6.913280
 20
1.609960
  0
VERTEX
  8
0
  6
CONTINUOUS
 10
7.562280
 20
1.984840
  0
VERTEX
  8
0
  6
CONTINUOUS
 10
7.554360
 20
1.943480
  0
VERTEX
  8
0
  6
CONTINUOUS
 10
6.905360
 20
1.569040
  0
VERTEX
  8
0
  6
CONTINUOUS
 10
6.913280
 20
1.609960
  0
SEQEND
  8
0
  0
SOLID
  8
0
 62
    15
 10
6.402440
 20
2.027960
 11
7.051440
 21
2.402840
 12
6.499240
 22
2.021800
 13
7.148680
 23
2.396680
  0
POLYLINE
  8
0
  6
CONTINUOUS
 66
     1
 40
0.000000
 41
0.000000
  0
VERTEX
  8
0
  6
CONTINUOUS
 10
6.402440
 20
2.027960
  0
VERTEX
  8
0
  6
CONTINUOUS
 10
7.051440
 20
2.402840
  0
VERTEX
  8
0
  6
CONTINUOUS
 10
7.148680
 20
2.396680
  0
VERTEX
  8
0
  6
CONTINUOUS
 10
6.499240
 20
2.021800
  0
VERTEX
  8
0
  6
CONTINUOUS
 10
6.402440
 20
2.027960
  0
SEQEND
  8
0
  0
SOLID
  8
0
 62
    15
 10
6.499240
 20
2.021800
 11
7.148680
 21
2.396680
 12
6.592520
 22
2.003320
 13
7.241520
 23
2.378200
  0
POLYLINE
  8
0
  6
CONTINUOUS
 66
     1
 40
0.000000
 41
0.000000
  0
VERTEX
  8
0
  6
CONTINUOUS
 10
6.499240
 20
2.021800
  0
VERTEX
  8
0
  6
CONTINUOUS
 10
7.148680
 20
2.396680
  0
VERTEX
  8
0
  6
CONTINUOUS
 10
7.241520
 20
2.378200
  0
VERTEX
  8
0
  6
CONTINUOUS
 10
6.592520
 20
2.003320
  0
VERTEX
  8
0
  6
CONTINUOUS
 10
6.499240
 20
2.021800
  0
SEQEND
  8
0
  0
SOLID
  8
0
 62
    15
 10
6.592520
 20
2.003320
 11
7.241520
 21
2.378200
 12
6.678760
 22
1.972960
 13
7.328200
 23
2.347400
  0
POLYLINE
  8
0
  6
CONTINUOUS
 66
     1
 40
0.000000
 41
0.000000
  0
VERTEX
  8
0
  6
CONTINUOUS
 10
6.592520
 20
2.003320
  0
VERTEX
  8
0
  6
CONTINUOUS
 10
7.241520
 20
2.378200
  0
VERTEX
  8
0
  6
CONTINUOUS
 10
7.328200
 20
2.347400
  0
VERTEX
  8
0
  6
CONTINUOUS
 10
6.678760
 20
1.972960
  0
VERTEX
  8
0
  6
CONTINUOUS
 10
6.592520
 20
2.003320
  0
SEQEND
  8
0
  0
SOLID
  8
0
 62
    15
 10
6.678760
 20
1.972960
 11
7.328200
 21
2.347400
 12
6.755760
 22
1.930280
 13
7.405200
 23
2.305160
  0
POLYLINE
  8
0
  6
CONTINUOUS
 66
     1
 40
0.000000
 41
0.000000
  0
VERTEX
  8
0
  6
CONTINUOUS
 10
6.678760
 20
1.972960
  0
VERTEX
  8
0
  6
CONTINUOUS
 10
7.328200
 20
2.347400
  0
VERTEX
  8
0
  6
CONTINUOUS
 10
7.405200
 20
2.305160
  0
VERTEX
  8
0
  6
CONTINUOUS
 10
6.755760
 20
1.930280
  0
VERTEX
  8
0
  6
CONTINUOUS
 10
6.678760
 20
1.972960
  0
SEQEND
  8
0
  0
SOLID
  8
0
 62
    15
 10
6.755760
 20
1.930280
 11
7.405200
 21
2.305160
 12
6.820880
 22
1.876600
 13
7.469880
 23
2.251480
  0
POLYLINE
  8
0
  6
CONTINUOUS
 66
     1
 40
0.000000
 41
0.000000
  0
VERTEX
  8
0
  6
CONTINUOUS
 10
6.755760
 20
1.930280
  0
VERTEX
  8
0
  6
CONTINUOUS
 10
7.405200
 20
2.305160
  0
VERTEX
  8
0
  6
CONTINUOUS
 10
7.469880
 20
2.251480
  0
VERTEX
  8
0
  6
CONTINUOUS
 10
6.820880
 20
1.876600
  0
VERTEX
  8
0
  6
CONTINUOUS
 10
6.755760
 20
1.930280
  0
SEQEND
  8
0
  0
SOLID
  8
0
 62
    15
 10
6.820880
 20
1.876600
 11
7.469880
 21
2.251480
 12
6.847720
 22
1.845360
 13
7.496720
 23
2.220240
  0
POLYLINE
  8
0
  6
CONTINUOUS
 66
     1
 40
0.000000
 41
0.000000
  0
VERTEX
  8
0
  6
CONTINUOUS
 10
6.820880
 20
1.876600
  0
VERTEX
  8
0
  6
CONTINUOUS
 10
7.469880
 20
2.251480
  0
VERTEX
  8
0
  6
CONTINUOUS
 10
7.496720
 20
2.220240
  0
VERTEX
  8
0
  6
CONTINUOUS
 10
6.847720
 20
1.845360
  0
VERTEX
  8
0
  6
CONTINUOUS
 10
6.820880
 20
1.876600
  0
SEQEND
  8
0
  0
SOLID
  8
0
 62
    15
 10
6.847720
 20
1.845360
 11
7.496720
 21
2.220240
 12
6.870600
 22
1.811480
 13
7.520040
 23
2.186360
  0
POLYLINE
  8
0
  6
CONTINUOUS
 66
     1
 40
0.000000
 41
0.000000
  0
VERTEX
  8
0
  6
CONTINUOUS
 10
6.847720
 20
1.845360
  0
VERTEX
  8
0
  6
CONTINUOUS
 10
7.496720
 20
2.220240
  0
VERTEX
  8
0
  6
CONTINUOUS
 10
7.520040
 20
2.186360
  0
VERTEX
  8
0
  6
CONTINUOUS
 10
6.870600
 20
1.811480
  0
VERTEX
  8
0
  6
CONTINUOUS
 10
6.847720
 20
1.845360
  0
SEQEND
  8
0
  0
SOLID
  8
0
 62
    15
 10
6.870600
 20
1.811480
 11
7.520040
 21
2.186360
 12
6.889520
 22
1.774960
 13
7.538520
 23
2.149840
  0
POLYLINE
  8
0
  6
CONTINUOUS
 66
     1
 40
0.000000
 41
0.000000
  0
VERTEX
  8
0
  6
CONTINUOUS
 10
6.870600
 20
1.811480
  0
VERTEX
  8
0
  6
CONTINUOUS
 10
7.520040
 20
2.186360
  0
VERTEX
  8
0
  6
CONTINUOUS
 10
7.538520
 20
2.149840
  0
VERTEX
  8
0
  6
CONTINUOUS
 10
6.889520
 20
1.774960
  0
VERTEX
  8
0
  6
CONTINUOUS
 10
6.870600
 20
1.811480
  0
SEQEND
  8
0
  0
SOLID
  8
0
 62
    15
 10
6.889520
 20
1.774960
 11
7.538520
 21
2.149840
 12
6.903160
 22
1.735800
 13
7.552600
 23
2.110680
  0
POLYLINE
  8
0
  6
CONTINUOUS
 66
     1
 40
0.000000
 41
0.000000
  0
VERTEX
  8
0
  6
CONTINUOUS
 10
6.889520
 20
1.774960
  0
VERTEX
  8
0
  6
CONTINUOUS
 10
7.538520
 20
2.149840
  0
VERTEX
  8
0
  6
CONTINUOUS
 10
7.552600
 20
2.110680
  0
VERTEX
  8
0
  6
CONTINUOUS
 10
6.903160
 20
1.735800
  0
VERTEX
  8
0
  6
CONTINUOUS
 10
6.889520
 20
1.774960
  0
SEQEND
  8
0
  0
SOLID
  8
0
 62
    15
 10
6.903160
 20
1.735800
 11
7.552600
 21
2.110680
 12
6.911960
 22
1.694000
 13
7.561400
 23
2.068880
  0
POLYLINE
  8
0
  6
CONTINUOUS
 66
     1
 40
0.000000
 41
0.000000
  0
VERTEX
  8
0
  6
CONTINUOUS
 10
6.903160
 20
1.735800
  0
VERTEX
  8
0
  6
CONTINUOUS
 10
7.552600
 20
2.110680
  0
VERTEX
  8
0
  6
CONTINUOUS
 10
7.561400
 20
2.068880
  0
VERTEX
  8
0
  6
CONTINUOUS
 10
6.911960
 20
1.694000
  0
VERTEX
  8
0
  6
CONTINUOUS
 10
6.903160
 20
1.735800
  0
SEQEND
  8
0
  0
SOLID
  8
0
 62
    15
 10
6.911960
 20
1.694000
 11
7.561400
 21
2.068880
 12
6.915920
 22
1.649560
 13
7.564920
 23
2.024000
  0
POLYLINE
  8
0
  6
CONTINUOUS
 66
     1
 40
0.000000
 41
0.000000
  0
VERTEX
  8
0
  6
CONTINUOUS
 10
6.911960
 20
1.694000
  0
VERTEX
  8
0
  6
CONTINUOUS
 10
7.561400
 20
2.068880
  0
VERTEX
  8
0
  6
CONTINUOUS
 10
7.564920
 20
2.024000
  0
VERTEX
  8
0
  6
CONTINUOUS
 10
6.915920
 20
1.649560
  0
VERTEX
  8
0
  6
CONTINUOUS
 10
6.911960
 20
1.694000
  0
SEQEND
  8
0
  0
SOLID
  8
0
 62
    15
 10
6.915920
 20
1.649560
 11
7.564920
 21
2.024000
 12
6.913280
 22
1.609960
 13
7.562280
 23
1.984840
  0
POLYLINE
  8
0
  6
CONTINUOUS
 66
     1
 40
0.000000
 41
0.000000
  0
VERTEX
  8
0
  6
CONTINUOUS
 10
6.915920
 20
1.649560
  0
VERTEX
  8
0
  6
CONTINUOUS
 10
7.564920
 20
2.024000
  0
VERTEX
  8
0
  6
CONTINUOUS
 10
7.562280
 20
1.984840
  0
VERTEX
  8
0
  6
CONTINUOUS
 10
6.913280
 20
1.609960
  0
VERTEX
  8
0
  6
CONTINUOUS
 10
6.915920
 20
1.649560
  0
SEQEND
  8
0
  0
SOLID
  8
0
 62
    15
 10
1.518440
 20
2.027960
 11
2.167880
 21
2.402840
 12
6.402440
 22
2.027960
 13
7.051440
 23
2.402840
  0
POLYLINE
  8
0
  6
CONTINUOUS
 66
     1
 40
0.000000
 41
0.000000
  0
VERTEX
  8
0
  6
CONTINUOUS
 10
1.518440
 20
2.027960
  0
VERTEX
  8
0
  6
CONTINUOUS
 10
2.167880
 20
2.402840
  0
VERTEX
  8
0
  6
CONTINUOUS
 10
7.051440
 20
2.402840
  0
VERTEX
  8
0
  6
CONTINUOUS
 10
6.402440
 20
2.027960
  0
VERTEX
  8
0
  6
CONTINUOUS
 10
1.518440
 20
2.027960
  0
SEQEND
  8
0
  0
SOLID
  8
0
 62
    15
 10
6.905360
 20
1.569040
 11
7.554360
 21
1.943480
 12
6.891720
 22
1.527240
 13
7.540720
 23
1.901680
  0
POLYLINE
  8
0
  6
CONTINUOUS
 66
     1
 40
0.000000
 41
0.000000
  0
VERTEX
  8
0
  6
CONTINUOUS
 10
6.905360
 20
1.569040
  0
VERTEX
  8
0
  6
CONTINUOUS
 10
7.554360
 20
1.943480
  0
VERTEX
  8
0
  6
CONTINUOUS
 10
7.540720
 20
1.901680
  0
VERTEX
  8
0
  6
CONTINUOUS
 10
6.891720
 20
1.527240
  0
VERTEX
  8
0
  6
CONTINUOUS
 10
6.905360
 20
1.569040
  0
SEQEND
  8
0
  0
SOLID
  8
0
 62
    15
 10
6.872360
 20
1.485880
 11
7.521800
 21
1.860760
 12
6.847720
 22
1.447160
 13
7.496720
 23
1.822040
  0
POLYLINE
  8
0
  6
CONTINUOUS
 66
     1
 40
0.000000
 41
0.000000
  0
VERTEX
  8
0
  6
CONTINUOUS
 10
6.872360
 20
1.485880
  0
VERTEX
  8
0
  6
CONTINUOUS
 10
7.521800
 20
1.860760
  0
VERTEX
  8
0
  6
CONTINUOUS
 10
7.496720
 20
1.822040
  0
VERTEX
  8
0
  6
CONTINUOUS
 10
6.847720
 20
1.447160
  0
VERTEX
  8
0
  6
CONTINUOUS
 10
6.872360
 20
1.485880
  0
SEQEND
  8
0
  0
SOLID
  8
0
 62
    15
 10
6.891720
 20
1.527240
 11
7.540720
 21
1.901680
 12
6.872360
 22
1.485880
 13
7.521800
 23
1.860760
  0
POLYLINE
  8
0
  6
CONTINUOUS
 66
     1
 40
0.000000
 41
0.000000
  0
VERTEX
  8
0
  6
CONTINUOUS
 10
6.891720
 20
1.527240
  0
VERTEX
  8
0
  6
CONTINUOUS
 10
7.540720
 20
1.901680
  0
VERTEX
  8
0
  6
CONTINUOUS
 10
7.521800
 20
1.860760
  0
VERTEX
  8
0
  6
CONTINUOUS
 10
6.872360
 20
1.485880
  0
VERTEX
  8
0
  6
CONTINUOUS
 10
6.891720
 20
1.527240
  0
SEQEND
  8
0
  0
SOLID
  8
0
 62
    15
 10
6.847720
 20
1.447160
 11
7.496720
 21
1.822040
 12
6.817800
 22
1.412400
 13
7.466800
 23
1.787280
  0
POLYLINE
  8
0
  6
CONTINUOUS
 66
     1
 40
0.000000
 41
0.000000
  0
VERTEX
  8
0
  6
CONTINUOUS
 10
6.847720
 20
1.447160
  0
VERTEX
  8
0
  6
CONTINUOUS
 10
7.496720
 20
1.822040
  0
VERTEX
  8
0
  6
CONTINUOUS
 10
7.466800
 20
1.787280
  0
VERTEX
  8
0
  6
CONTINUOUS
 10
6.817800
 20
1.412400
  0
VERTEX
  8
0
  6
CONTINUOUS
 10
6.847720
 20
1.447160
  0
SEQEND
  8
0
  0
SOLID
  8
0
 62
    15
 10
6.817800
 20
1.412400
 11
7.466800
 21
1.787280
 12
6.782600
 22
1.382480
 13
7.431600
 23
1.757360
  0
POLYLINE
  8
0
  6
CONTINUOUS
 66
     1
 40
0.000000
 41
0.000000
  0
VERTEX
  8
0
  6
CONTINUOUS
 10
6.817800
 20
1.412400
  0
VERTEX
  8
0
  6
CONTINUOUS
 10
7.466800
 20
1.787280
  0
VERTEX
  8
0
  6
CONTINUOUS
 10
7.431600
 20
1.757360
  0
VERTEX
  8
0
  6
CONTINUOUS
 10
6.782600
 20
1.382480
  0
VERTEX
  8
0
  6
CONTINUOUS
 10
6.817800
 20
1.412400
  0
SEQEND
  8
0
  0
SOLID
  8
0
 62
    15
 10
6.782600
 20
1.382480
 11
7.431600
 21
1.757360
 12
6.742120
 22
1.359160
 13
7.391560
 23
1.733600
  0
POLYLINE
  8
0
  6
CONTINUOUS
 66
     1
 40
0.000000
 41
0.000000
  0
VERTEX
  8
0
  6
CONTINUOUS
 10
6.782600
 20
1.382480
  0
VERTEX
  8
0
  6
CONTINUOUS
 10
7.431600
 20
1.757360
  0
VERTEX
  8
0
  6
CONTINUOUS
 10
7.391560
 20
1.733600
  0
VERTEX
  8
0
  6
CONTINUOUS
 10
6.742120
 20
1.359160
  0
VERTEX
  8
0
  6
CONTINUOUS
 10
6.782600
 20
1.382480
  0
SEQEND
  8
0
  0
SOLID
  8
0
 62
    15
 10
6.620240
 20
1.294040
 11
7.269240
 21
1.668920
 12
6.562600
 22
1.255760
 13
7.211600
 23
1.630640
  0
POLYLINE
  8
0
  6
CONTINUOUS
 66
     1
 40
0.000000
 41
0.000000
  0
VERTEX
  8
0
  6
CONTINUOUS
 10
6.620240
 20
1.294040
  0
VERTEX
  8
0
  6
CONTINUOUS
 10
7.269240
 20
1.668920
  0
VERTEX
  8
0
  6
CONTINUOUS
 10
7.211600
 20
1.630640
  0
VERTEX
  8
0
  6
CONTINUOUS
 10
6.562600
 20
1.255760
  0
VERTEX
  8
0
  6
CONTINUOUS
 10
6.620240
 20
1.294040
  0
SEQEND
  8
0
  0
SOLID
  8
0
 62
    15
 10
6.562600
 20
1.255760
 11
7.211600
 21
1.630640
 12
6.509800
 22
1.214400
 13
7.158800
 23
1.589280
  0
POLYLINE
  8
0
  6
CONTINUOUS
 66
     1
 40
0.000000
 41
0.000000
  0
VERTEX
  8
0
  6
CONTINUOUS
 10
6.562600
 20
1.255760
  0
VERTEX
  8
0
  6
CONTINUOUS
 10
7.211600
 20
1.630640
  0
VERTEX
  8
0
  6
CONTINUOUS
 10
7.158800
 20
1.589280
  0
VERTEX
  8
0
  6
CONTINUOUS
 10
6.509800
 20
1.214400
  0
VERTEX
  8
0
  6
CONTINUOUS
 10
6.562600
 20
1.255760
  0
SEQEND
  8
0
  0
SOLID
  8
0
 62
    15
 10
6.509800
 20
1.214400
 11
7.158800
 21
1.589280
 12
6.464480
 22
1.170400
 13
7.113480
 23
1.545280
  0
POLYLINE
  8
0
  6
CONTINUOUS
 66
     1
 40
0.000000
 41
0.000000
  0
VERTEX
  8
0
  6
CONTINUOUS
 10
6.509800
 20
1.214400
  0
VERTEX
  8
0
  6
CONTINUOUS
 10
7.158800
 20
1.589280
  0
VERTEX
  8
0
  6
CONTINUOUS
 10
7.113480
 20
1.545280
  0
VERTEX
  8
0
  6
CONTINUOUS
 10
6.464480
 20
1.170400
  0
VERTEX
  8
0
  6
CONTINUOUS
 10
6.509800
 20
1.214400
  0
SEQEND
  8
0
  0
SOLID
  8
0
 62
    15
 10
6.427960
 20
1.124640
 11
7.076960
 21
1.499520
 12
6.403320
 22
1.077560
 13
7.052320
 23
1.452440
  0
POLYLINE
  8
0
  6
CONTINUOUS
 66
     1
 40
0.000000
 41
0.000000
  0
VERTEX
  8
0
  6
CONTINUOUS
 10
6.427960
 20
1.124640
  0
VERTEX
  8
0
  6
CONTINUOUS
 10
7.076960
 20
1.499520
  0
VERTEX
  8
0
  6
CONTINUOUS
 10
7.052320
 20
1.452440
  0
VERTEX
  8
0
  6
CONTINUOUS
 10
6.403320
 20
1.077560
  0
VERTEX
  8
0
  6
CONTINUOUS
 10
6.427960
 20
1.124640
  0
SEQEND
  8
0
  0
SOLID
  8
0
 62
    15
 10
6.464480
 20
1.170400
 11
7.113480
 21
1.545280
 12
6.427960
 22
1.124640
 13
7.076960
 23
1.499520
  0
POLYLINE
  8
0
  6
CONTINUOUS
 66
     1
 40
0.000000
 41
0.000000
  0
VERTEX
  8
0
  6
CONTINUOUS
 10
6.464480
 20
1.170400
  0
VERTEX
  8
0
  6
CONTINUOUS
 10
7.113480
 20
1.545280
  0
VERTEX
  8
0
  6
CONTINUOUS
 10
7.076960
 20
1.499520
  0
VERTEX
  8
0
  6
CONTINUOUS
 10
6.427960
 20
1.124640
  0
VERTEX
  8
0
  6
CONTINUOUS
 10
6.464480
 20
1.170400
  0
SEQEND
  8
0
  0
SOLID
  8
0
 62
    15
 10
6.403320
 20
1.077560
 11
7.052320
 21
1.452440
 12
6.391880
 22
1.029600
 13
7.040880
 23
1.404480
  0
POLYLINE
  8
0
  6
CONTINUOUS
 66
     1
 40
0.000000
 41
0.000000
  0
VERTEX
  8
0
  6
CONTINUOUS
 10
6.403320
 20
1.077560
  0
VERTEX
  8
0
  6
CONTINUOUS
 10
7.052320
 20
1.452440
  0
VERTEX
  8
0
  6
CONTINUOUS
 10
7.040880
 20
1.404480
  0
VERTEX
  8
0
  6
CONTINUOUS
 10
6.391880
 20
1.029600
  0
VERTEX
  8
0
  6
CONTINUOUS
 10
6.403320
 20
1.077560
  0
SEQEND
  8
0
  0
POLYLINE
  8
0
  6
CONTINUOUS
 66
     1
 40
0.000000
 41
0.000000
  0
VERTEX
  8
0
  6
CONTINUOUS
 10
6.391000
 20
1.030040
  0
VERTEX
  8
0
  6
CONTINUOUS
 10
1.518440
 20
1.031800
  0
VERTEX
  8
0
  6
CONTINUOUS
 10
1.518440
 20
2.027960
  0
VERTEX
  8
0
  6
CONTINUOUS
 10
6.402440
 20
2.027960
  0
VERTEX
  8
0
  6
CONTINUOUS
 10
6.499240
 20
2.021800
  0
VERTEX
  8
0
  6
CONTINUOUS
 10
6.592520
 20
2.003320
  0
VERTEX
  8
0
  6
CONTINUOUS
 10
6.678760
 20
1.972960
  0
VERTEX
  8
0
  6
CONTINUOUS
 10
6.755760
 20
1.930280
  0
VERTEX
  8
0
  6
CONTINUOUS
 10
6.820880
 20
1.876600
  0
VERTEX
  8
0
  6
CONTINUOUS
 10
6.847720
 20
1.845360
  0
VERTEX
  8
0
  6
CONTINUOUS
 10
6.870600
 20
1.811480
  0
VERTEX
  8
0
  6
CONTINUOUS
 10
6.889520
 20
1.774960
  0
VERTEX
  8
0
  6
CONTINUOUS
 10
6.903160
 20
1.735800
  0
VERTEX
  8
0
  6
CONTINUOUS
 10
6.911960
 20
1.694000
  0
VERTEX
  8
0
  6
CONTINUOUS
 10
6.915920
 20
1.649560
  0
VERTEX
  8
0
  6
CONTINUOUS
 10
6.913280
 20
1.609960
  0
VERTEX
  8
0
  6
CONTINUOUS
 10
6.905360
 20
1.569040
  0
VERTEX
  8
0
  6
CONTINUOUS
 10
6.891720
 20
1.527240
  0
VERTEX
  8
0
  6
CONTINUOUS
 10
6.872360
 20
1.485880
  0
VERTEX
  8
0
  6
CONTINUOUS
 10
6.847720
 20
1.447160
  0
VERTEX
  8
0
  6
CONTINUOUS
 10
6.817800
 20
1.412400
  0
VERTEX
  8
0
  6
CONTINUOUS
 10
6.782600
 20
1.382480
  0
VERTEX
  8
0
  6
CONTINUOUS
 10
6.742120
 20
1.359160
  0
VERTEX
  8
0
  6
CONTINUOUS
 10
6.620240
 20
1.294040
  0
VERTEX
  8
0
  6
CONTINUOUS
 10
6.562600
 20
1.255760
  0
VERTEX
  8
0
  6
CONTINUOUS
 10
6.509800
 20
1.214400
  0
VERTEX
  8
0
  6
CONTINUOUS
 10
6.464480
 20
1.170400
  0
VERTEX
  8
0
  6
CONTINUOUS
 10
6.427960
 20
1.124640
  0
VERTEX
  8
0
  6
CONTINUOUS
 10
6.403320
 20
1.077560
  0
VERTEX
  8
0
  6
CONTINUOUS
 10
6.391880
 20
1.029600
  0
VERTEX
  8
0
  6
CONTINUOUS
 10
6.391000
 20
1.030040
  0
SEQEND
  8
0
  0
TEXT
  8
0
 10
4.247760
 20
0.760760
 40
0.138026
  1
BA  514
 41
1.000000
  7
SN0
 71
     0
 72
     5
 11
4.837939
 21
0.760760
  0
TEXT
  8
0
 10
4.161080
 20
0.569360
 40
0.138026
  1
1" x 5-1/2"
 41
1.000000
  7
SN0
 71
     0
 72
     5
 11
4.923294
 21
0.569360
  0
ENDSEC
  0
EOF
