  0
SECTION
  2
HEADER
  9
$ACADVER
  1
AC1006
  9
$EXTMIN
 10
4.148760
 20
0.461560
  9
$EXTMAX
 10
7.255160
 20
2.527360
  9
$LTSCALE
 40
0.044000
  9
$PDMODE
 70
    35
  9
$PDSIZE
 40
0.035200
  0
ENDSEC
  0
SECTION
  2
TABLES
  0
TABLE
  2
LTYPE
 70
     9
  0
LTYPE
  2
CONTINUOUS
 70
    64
  3
Solid line
 72
    65
 73
     0
 40
0.000000
  0
LTYPE
  2
DASHED
 70
    64
  3
__ __ __ __ __ __ __ __ __ __ __ __ __ __ __
 72
    65
 73
     2
 40
0.000330
 49
0.000220
 49
-0.000110
  0
LTYPE
  2
HIDDEN
 70
    64
  3
 _ _ _ _ _ _ _ _ _ _ _ _ _ _ _ _ _ _ _ _ _ _
 72
    65
 73
     2
 40
0.000165
 49
0.000110
 49
-0.000055
  0
LTYPE
  2
CENTER
 70
    64
  3
____ _ ____ _ ____ _ ____ _ ____ _ ____ _ ____
 72
    65
 73
     4
 40
0.000880
 49
0.000550
 49
-0.000110
 49
0.000110
 49
-0.000110
  0
LTYPE
  2
PHANTOM
 70
    64
  3
_____ _ _ _____ _ _ _____ _ _ _____ _ _ ____
 72
    65
 73
     6
 40
0.001100
 49
0.000550
 49
-0.000110
 49
0.000110
 49
-0.000110
 49
0.000110
 49
-0.000110
  0
LTYPE
  2
DOT
 70
    64
  3
...............................................
 72
    65
 73
     2
 40
0.000110
 49
0.000000
 49
-0.000110
  0
LTYPE
  2
DASHDOT
 70
    64
  3
__ . __ . __ . __ . __ . __ . __ . __ . __ . __
 72
    65
 73
     4
 40
0.000440
 49
0.000220
 49
-0.000110
 49
0.000000
 49
-0.000110
  0
LTYPE
  2
BORDER
 70
    64
  3
__ __ . __ __ . __ __ . __ __ . __ __ . __ __
 72
    65
 73
     6
 40
0.000770
 49
0.000220
 49
-0.000110
 49
0.000220
 49
-0.000110
 49
0.000000
 49
-0.000110
  0
LTYPE
  2
DIVIDE
 70
    64
  3
__ . . __ . . __ . . __ . . __ . . __ . . __
 72
    65
 73
     6
 40
0.000550
 49
0.000220
 49
-0.000110
 49
0.000000
 49
-0.000110
 49
0.000000
 49
-0.000110
  0
LTYPE
  2
DOTDOT
 70
    64
  3
 . .  . .  . .  . .  . .  . . 
 72
    65
 73
     5
 40
0.000242
 49
-0.000110
 49
0.000000
 49
-0.000110
 49
0.000000
 49
-0.000110
  0
ENDTAB
  0
TABLE
  2
STYLE
 70
     2
  0
STYLE
 70
     0
  2
SN0
 40
0.000000
 41
0.000440
 50
0.000000
 71
     0
 42
0.000000
  3
ROMAND
  0
STYLE
 70
    68
  2
SV0
 40
0.000000
 41
0.000440
 50
0.000000
 71
     0
 42
0.000000
  3
ROMAND
  0
ENDTAB
  0
TABLE
  2
LAYER
 70
     3
  0
LAYER
  2
FOREGROUND
 70
    64
 62
     7
  6
CONTINUOUS
  0
LAYER
  2
BACKGROUND
 70
    65
 62
    -7
  6
CONTINUOUS
  0
LAYER
  2
0
 70
    64
 62
     7
  6
CONTINUOUS
  0
ENDTAB
  0
ENDSEC
  0
SECTION
  2
ENTITIES
  0
POLYLINE
  8
FOREGROUND
  6
CONTINUOUS
 66
     1
 40
0.000000
 41
0.000000
  0
VERTEX
  8
FOREGROUND
  6
CONTINUOUS
 10
0.000000
 20
2.988920
  0
VERTEX
  8
FOREGROUND
  6
CONTINUOUS
 10
8.499920
 20
2.988920
  0
VERTEX
  8
FOREGROUND
  6
CONTINUOUS
 10
8.499920
 20
-8.011080
  0
VERTEX
  8
FOREGROUND
  6
CONTINUOUS
 10
0.000000
 20
-8.011080
  0
VERTEX
  8
FOREGROUND
  6
CONTINUOUS
 10
0.000000
 20
2.988920
  0
SEQEND
  8
0
  0
POLYLINE
  8
FOREGROUND
  6
CONTINUOUS
 66
     1
 40
0.000000
 41
0.000000
  0
VERTEX
  8
FOREGROUND
  6
CONTINUOUS
 10
0.000000
 20
2.988920
  0
VERTEX
  8
FOREGROUND
  6
CONTINUOUS
 10
8.499920
 20
2.988920
  0
VERTEX
  8
FOREGROUND
  6
CONTINUOUS
 10
8.499920
 20
-8.011080
  0
VERTEX
  8
FOREGROUND
  6
CONTINUOUS
 10
0.000000
 20
-8.011080
  0
VERTEX
  8
FOREGROUND
  6
CONTINUOUS
 10
0.000000
 20
2.988920
  0
SEQEND
  8
0
  0
POLYLINE
  8
0
  6
CONTINUOUS
 66
     1
 40
0.014080
 41
0.014080
  0
VERTEX
  8
0
  6
CONTINUOUS
 10
5.916680
 20
2.170080
  0
VERTEX
  8
0
  6
CONTINUOUS
 10
5.955840
 20
2.171400
  0
VERTEX
  8
0
  6
CONTINUOUS
 10
6.006440
 20
2.178000
  0
VERTEX
  8
0
  6
CONTINUOUS
 10
6.035480
 20
2.186800
  0
VERTEX
  8
0
  6
CONTINUOUS
 10
6.056600
 20
2.197360
  0
VERTEX
  8
0
  6
CONTINUOUS
 10
6.077720
 20
2.215400
  0
VERTEX
  8
0
  6
CONTINUOUS
 10
6.111600
 20
2.251920
  0
VERTEX
  8
0
  6
CONTINUOUS
 10
6.133600
 20
2.280080
  0
VERTEX
  8
0
  6
CONTINUOUS
 10
6.156040
 20
2.302080
  0
VERTEX
  8
0
  6
CONTINUOUS
 10
6.175400
 20
2.315280
  0
VERTEX
  8
0
  6
CONTINUOUS
 10
6.199160
 20
2.325400
  0
VERTEX
  8
0
  6
CONTINUOUS
 10
6.228200
 20
2.330680
  0
VERTEX
  8
0
  6
CONTINUOUS
 10
6.245360
 20
2.331560
  0
VERTEX
  8
0
  6
CONTINUOUS
 10
6.248880
 20
2.350920
  0
VERTEX
  8
0
  6
CONTINUOUS
 10
6.254160
 20
2.369400
  0
VERTEX
  8
0
  6
CONTINUOUS
 10
6.269120
 20
2.404160
  0
VERTEX
  8
0
  6
CONTINUOUS
 10
6.289800
 20
2.435400
  0
VERTEX
  8
0
  6
CONTINUOUS
 10
6.315320
 20
2.462240
  0
VERTEX
  8
0
  6
CONTINUOUS
 10
6.344360
 20
2.484240
  0
VERTEX
  8
0
  6
CONTINUOUS
 10
6.376480
 20
2.501840
  0
VERTEX
  8
0
  6
CONTINUOUS
 10
6.393640
 20
2.508440
  0
VERTEX
  8
0
  6
CONTINUOUS
 10
6.428840
 20
2.517240
  0
VERTEX
  8
0
  6
CONTINUOUS
 10
6.464920
 20
2.519440
  0
VERTEX
  8
0
  6
CONTINUOUS
 10
6.482960
 20
2.518560
  0
VERTEX
  8
0
  6
CONTINUOUS
 10
6.501000
 20
2.515480
  0
VERTEX
  8
0
  6
CONTINUOUS
 10
6.519040
 20
2.510640
  0
VERTEX
  8
0
  6
CONTINUOUS
 10
6.536640
 20
2.504040
  0
VERTEX
  8
0
  6
CONTINUOUS
 10
6.553800
 20
2.495680
  0
VERTEX
  8
0
  6
CONTINUOUS
 10
6.586800
 20
2.472800
  0
VERTEX
  8
0
  6
CONTINUOUS
 10
6.602200
 20
2.458280
  0
VERTEX
  8
0
  6
CONTINUOUS
 10
6.623760
 20
2.432320
  0
VERTEX
  8
0
  6
CONTINUOUS
 10
6.643120
 20
2.401520
  0
VERTEX
  8
0
  6
CONTINUOUS
 10
6.660280
 20
2.365440
  0
VERTEX
  8
0
  6
CONTINUOUS
 10
6.674360
 20
2.324080
  0
VERTEX
  8
0
  6
CONTINUOUS
 10
6.682280
 20
2.293280
  0
VERTEX
  8
0
  6
CONTINUOUS
 10
6.779080
 20
2.269520
  0
VERTEX
  8
0
  6
CONTINUOUS
 10
6.780840
 20
2.238280
  0
VERTEX
  8
0
  6
CONTINUOUS
 10
6.786560
 20
2.204840
  0
VERTEX
  8
0
  6
CONTINUOUS
 10
6.801520
 20
2.151600
  0
VERTEX
  8
0
  6
CONTINUOUS
 10
6.822640
 20
2.097920
  0
VERTEX
  8
0
  6
CONTINUOUS
 10
6.849480
 20
2.045560
  0
VERTEX
  8
0
  6
CONTINUOUS
 10
6.880720
 20
1.997600
  0
VERTEX
  8
0
  6
CONTINUOUS
 10
6.903160
 20
1.969000
  0
VERTEX
  8
0
  6
CONTINUOUS
 10
6.938800
 20
1.933800
  0
VERTEX
  8
0
  6
CONTINUOUS
 10
6.963880
 20
1.915760
  0
VERTEX
  8
0
  6
CONTINUOUS
 10
6.988520
 20
1.903880
  0
VERTEX
  8
0
  6
CONTINUOUS
 10
7.001280
 20
1.899920
  0
VERTEX
  8
0
  6
CONTINUOUS
 10
7.025920
 20
1.897720
  0
VERTEX
  8
0
  6
CONTINUOUS
 10
7.038240
 20
1.899480
  0
VERTEX
  8
0
  6
CONTINUOUS
 10
7.050560
 20
1.903000
  0
VERTEX
  8
0
  6
CONTINUOUS
 10
7.062440
 20
1.908720
  0
VERTEX
  8
0
  6
CONTINUOUS
 10
7.106440
 20
1.938640
  0
VERTEX
  8
0
  6
CONTINUOUS
 10
7.135040
 20
1.951400
  0
VERTEX
  8
0
  6
CONTINUOUS
 10
7.152640
 20
1.955800
  0
VERTEX
  8
0
  6
CONTINUOUS
 10
7.168040
 20
1.956680
  0
VERTEX
  8
0
  6
CONTINUOUS
 10
7.182560
 20
1.954920
  0
VERTEX
  8
0
  6
CONTINUOUS
 10
7.195320
 20
1.950960
  0
VERTEX
  8
0
  6
CONTINUOUS
 10
7.206320
 20
1.944800
  0
VERTEX
  8
0
  6
CONTINUOUS
 10
7.216440
 20
1.936880
  0
VERTEX
  8
0
  6
CONTINUOUS
 10
7.231840
 20
1.917520
  0
VERTEX
  8
0
  6
CONTINUOUS
 10
7.241960
 20
1.895080
  0
VERTEX
  8
0
  6
CONTINUOUS
 10
7.247240
 20
1.872640
  0
VERTEX
  8
0
  6
CONTINUOUS
 10
7.247680
 20
1.732720
  0
VERTEX
  8
0
  6
CONTINUOUS
 10
5.915800
 20
1.732720
  0
VERTEX
  8
0
  6
CONTINUOUS
 10
5.915800
 20
2.170080
  0
VERTEX
  8
0
  6
CONTINUOUS
 10
5.916680
 20
2.170080
  0
SEQEND
  8
0
  0
SOLID
  8
0
 62
    15
 10
4.851000
 20
1.633720
 11
4.852320
 21
2.377760
 12
4.877400
 22
1.593680
 13
4.878720
 23
2.337720
  0
POLYLINE
  8
0
  6
CONTINUOUS
 66
     1
 40
0.000000
 41
0.000000
  0
VERTEX
  8
0
  6
CONTINUOUS
 10
4.851000
 20
1.633720
  0
VERTEX
  8
0
  6
CONTINUOUS
 10
4.852320
 20
2.377760
  0
VERTEX
  8
0
  6
CONTINUOUS
 10
4.878720
 20
2.337720
  0
VERTEX
  8
0
  6
CONTINUOUS
 10
4.877400
 20
1.593680
  0
VERTEX
  8
0
  6
CONTINUOUS
 10
4.851000
 20
1.633720
  0
SEQEND
  8
0
  0
SOLID
  8
0
 62
    15
 10
4.201120
 20
1.364440
 11
4.202880
 21
2.108040
 12
4.240280
 22
1.370160
 13
4.241600
 23
2.114200
  0
POLYLINE
  8
0
  6
CONTINUOUS
 66
     1
 40
0.000000
 41
0.000000
  0
VERTEX
  8
0
  6
CONTINUOUS
 10
4.201120
 20
1.364440
  0
VERTEX
  8
0
  6
CONTINUOUS
 10
4.202880
 20
2.108040
  0
VERTEX
  8
0
  6
CONTINUOUS
 10
4.241600
 20
2.114200
  0
VERTEX
  8
0
  6
CONTINUOUS
 10
4.240280
 20
1.370160
  0
VERTEX
  8
0
  6
CONTINUOUS
 10
4.201120
 20
1.364440
  0
SEQEND
  8
0
  0
SOLID
  8
0
 62
    15
 10
4.240280
 20
1.370160
 11
4.241600
 21
2.114200
 12
4.269320
 22
1.378960
 13
4.270640
 23
2.122560
  0
POLYLINE
  8
0
  6
CONTINUOUS
 66
     1
 40
0.000000
 41
0.000000
  0
VERTEX
  8
0
  6
CONTINUOUS
 10
4.240280
 20
1.370160
  0
VERTEX
  8
0
  6
CONTINUOUS
 10
4.241600
 20
2.114200
  0
VERTEX
  8
0
  6
CONTINUOUS
 10
4.270640
 20
2.122560
  0
VERTEX
  8
0
  6
CONTINUOUS
 10
4.269320
 20
1.378960
  0
VERTEX
  8
0
  6
CONTINUOUS
 10
4.240280
 20
1.370160
  0
SEQEND
  8
0
  0
SOLID
  8
0
 62
    15
 10
4.269320
 20
1.378960
 11
4.270640
 21
2.122560
 12
4.290440
 22
1.389520
 13
4.291760
 23
2.133560
  0
POLYLINE
  8
0
  6
CONTINUOUS
 66
     1
 40
0.000000
 41
0.000000
  0
VERTEX
  8
0
  6
CONTINUOUS
 10
4.269320
 20
1.378960
  0
VERTEX
  8
0
  6
CONTINUOUS
 10
4.270640
 20
2.122560
  0
VERTEX
  8
0
  6
CONTINUOUS
 10
4.291760
 20
2.133560
  0
VERTEX
  8
0
  6
CONTINUOUS
 10
4.290440
 20
1.389520
  0
VERTEX
  8
0
  6
CONTINUOUS
 10
4.269320
 20
1.378960
  0
SEQEND
  8
0
  0
SOLID
  8
0
 62
    15
 10
4.290440
 20
1.389520
 11
4.291760
 21
2.133560
 12
4.305400
 22
1.401400
 13
4.307160
 23
2.145000
  0
POLYLINE
  8
0
  6
CONTINUOUS
 66
     1
 40
0.000000
 41
0.000000
  0
VERTEX
  8
0
  6
CONTINUOUS
 10
4.290440
 20
1.389520
  0
VERTEX
  8
0
  6
CONTINUOUS
 10
4.291760
 20
2.133560
  0
VERTEX
  8
0
  6
CONTINUOUS
 10
4.307160
 20
2.145000
  0
VERTEX
  8
0
  6
CONTINUOUS
 10
4.305400
 20
1.401400
  0
VERTEX
  8
0
  6
CONTINUOUS
 10
4.290440
 20
1.389520
  0
SEQEND
  8
0
  0
SOLID
  8
0
 62
    15
 10
4.305400
 20
1.401400
 11
4.307160
 21
2.145000
 12
4.316840
 22
1.413280
 13
4.318160
 23
2.156880
  0
POLYLINE
  8
0
  6
CONTINUOUS
 66
     1
 40
0.000000
 41
0.000000
  0
VERTEX
  8
0
  6
CONTINUOUS
 10
4.305400
 20
1.401400
  0
VERTEX
  8
0
  6
CONTINUOUS
 10
4.307160
 20
2.145000
  0
VERTEX
  8
0
  6
CONTINUOUS
 10
4.318160
 20
2.156880
  0
VERTEX
  8
0
  6
CONTINUOUS
 10
4.316840
 20
1.413280
  0
VERTEX
  8
0
  6
CONTINUOUS
 10
4.305400
 20
1.401400
  0
SEQEND
  8
0
  0
SOLID
  8
0
 62
    15
 10
4.316840
 20
1.413280
 11
4.318160
 21
2.156880
 12
4.326080
 22
1.424280
 13
4.327840
 23
2.168320
  0
POLYLINE
  8
0
  6
CONTINUOUS
 66
     1
 40
0.000000
 41
0.000000
  0
VERTEX
  8
0
  6
CONTINUOUS
 10
4.316840
 20
1.413280
  0
VERTEX
  8
0
  6
CONTINUOUS
 10
4.318160
 20
2.156880
  0
VERTEX
  8
0
  6
CONTINUOUS
 10
4.327840
 20
2.168320
  0
VERTEX
  8
0
  6
CONTINUOUS
 10
4.326080
 20
1.424280
  0
VERTEX
  8
0
  6
CONTINUOUS
 10
4.316840
 20
1.413280
  0
SEQEND
  8
0
  0
SOLID
  8
0
 62
    15
 10
4.326080
 20
1.424280
 11
4.327840
 21
2.168320
 12
4.335760
 22
1.433960
 13
4.337080
 23
2.177560
  0
POLYLINE
  8
0
  6
CONTINUOUS
 66
     1
 40
0.000000
 41
0.000000
  0
VERTEX
  8
0
  6
CONTINUOUS
 10
4.326080
 20
1.424280
  0
VERTEX
  8
0
  6
CONTINUOUS
 10
4.327840
 20
2.168320
  0
VERTEX
  8
0
  6
CONTINUOUS
 10
4.337080
 20
2.177560
  0
VERTEX
  8
0
  6
CONTINUOUS
 10
4.335760
 20
1.433960
  0
VERTEX
  8
0
  6
CONTINUOUS
 10
4.326080
 20
1.424280
  0
SEQEND
  8
0
  0
SOLID
  8
0
 62
    15
 10
4.335760
 20
1.433960
 11
4.337080
 21
2.177560
 12
4.345440
 22
1.444520
 13
4.346760
 23
2.188120
  0
POLYLINE
  8
0
  6
CONTINUOUS
 66
     1
 40
0.000000
 41
0.000000
  0
VERTEX
  8
0
  6
CONTINUOUS
 10
4.335760
 20
1.433960
  0
VERTEX
  8
0
  6
CONTINUOUS
 10
4.337080
 20
2.177560
  0
VERTEX
  8
0
  6
CONTINUOUS
 10
4.346760
 20
2.188120
  0
VERTEX
  8
0
  6
CONTINUOUS
 10
4.345440
 20
1.444520
  0
VERTEX
  8
0
  6
CONTINUOUS
 10
4.335760
 20
1.433960
  0
SEQEND
  8
0
  0
SOLID
  8
0
 62
    15
 10
4.345440
 20
1.444520
 11
4.346760
 21
2.188120
 12
4.350720
 22
1.450680
 13
4.352040
 23
2.194280
  0
POLYLINE
  8
0
  6
CONTINUOUS
 66
     1
 40
0.000000
 41
0.000000
  0
VERTEX
  8
0
  6
CONTINUOUS
 10
4.345440
 20
1.444520
  0
VERTEX
  8
0
  6
CONTINUOUS
 10
4.346760
 20
2.188120
  0
VERTEX
  8
0
  6
CONTINUOUS
 10
4.352040
 20
2.194280
  0
VERTEX
  8
0
  6
CONTINUOUS
 10
4.350720
 20
1.450680
  0
VERTEX
  8
0
  6
CONTINUOUS
 10
4.345440
 20
1.444520
  0
SEQEND
  8
0
  0
SOLID
  8
0
 62
    15
 10
4.350720
 20
1.450680
 11
4.352040
 21
2.194280
 12
4.356000
 22
1.457720
 13
4.357320
 23
2.201320
  0
POLYLINE
  8
0
  6
CONTINUOUS
 66
     1
 40
0.000000
 41
0.000000
  0
VERTEX
  8
0
  6
CONTINUOUS
 10
4.350720
 20
1.450680
  0
VERTEX
  8
0
  6
CONTINUOUS
 10
4.352040
 20
2.194280
  0
VERTEX
  8
0
  6
CONTINUOUS
 10
4.357320
 20
2.201320
  0
VERTEX
  8
0
  6
CONTINUOUS
 10
4.356000
 20
1.457720
  0
VERTEX
  8
0
  6
CONTINUOUS
 10
4.350720
 20
1.450680
  0
SEQEND
  8
0
  0
SOLID
  8
0
 62
    15
 10
4.356000
 20
1.457720
 11
4.357320
 21
2.201320
 12
4.381960
 22
1.487200
 13
4.383280
 23
2.231240
  0
POLYLINE
  8
0
  6
CONTINUOUS
 66
     1
 40
0.000000
 41
0.000000
  0
VERTEX
  8
0
  6
CONTINUOUS
 10
4.356000
 20
1.457720
  0
VERTEX
  8
0
  6
CONTINUOUS
 10
4.357320
 20
2.201320
  0
VERTEX
  8
0
  6
CONTINUOUS
 10
4.383280
 20
2.231240
  0
VERTEX
  8
0
  6
CONTINUOUS
 10
4.381960
 20
1.487200
  0
VERTEX
  8
0
  6
CONTINUOUS
 10
4.356000
 20
1.457720
  0
SEQEND
  8
0
  0
SOLID
  8
0
 62
    15
 10
4.381960
 20
1.487200
 11
4.383280
 21
2.231240
 12
4.399120
 22
1.501280
 13
4.400440
 23
2.244880
  0
POLYLINE
  8
0
  6
CONTINUOUS
 66
     1
 40
0.000000
 41
0.000000
  0
VERTEX
  8
0
  6
CONTINUOUS
 10
4.381960
 20
1.487200
  0
VERTEX
  8
0
  6
CONTINUOUS
 10
4.383280
 20
2.231240
  0
VERTEX
  8
0
  6
CONTINUOUS
 10
4.400440
 20
2.244880
  0
VERTEX
  8
0
  6
CONTINUOUS
 10
4.399120
 20
1.501280
  0
VERTEX
  8
0
  6
CONTINUOUS
 10
4.381960
 20
1.487200
  0
SEQEND
  8
0
  0
SOLID
  8
0
 62
    15
 10
4.399120
 20
1.501280
 11
4.400440
 21
2.244880
 12
4.420240
 22
1.512720
 13
4.422000
 23
2.256760
  0
POLYLINE
  8
0
  6
CONTINUOUS
 66
     1
 40
0.000000
 41
0.000000
  0
VERTEX
  8
0
  6
CONTINUOUS
 10
4.399120
 20
1.501280
  0
VERTEX
  8
0
  6
CONTINUOUS
 10
4.400440
 20
2.244880
  0
VERTEX
  8
0
  6
CONTINUOUS
 10
4.422000
 20
2.256760
  0
VERTEX
  8
0
  6
CONTINUOUS
 10
4.420240
 20
1.512720
  0
VERTEX
  8
0
  6
CONTINUOUS
 10
4.399120
 20
1.501280
  0
SEQEND
  8
0
  0
SOLID
  8
0
 62
    15
 10
4.420240
 20
1.512720
 11
4.422000
 21
2.256760
 12
4.446640
 22
1.520640
 13
4.448400
 23
2.264680
  0
POLYLINE
  8
0
  6
CONTINUOUS
 66
     1
 40
0.000000
 41
0.000000
  0
VERTEX
  8
0
  6
CONTINUOUS
 10
4.420240
 20
1.512720
  0
VERTEX
  8
0
  6
CONTINUOUS
 10
4.422000
 20
2.256760
  0
VERTEX
  8
0
  6
CONTINUOUS
 10
4.448400
 20
2.264680
  0
VERTEX
  8
0
  6
CONTINUOUS
 10
4.446640
 20
1.520640
  0
VERTEX
  8
0
  6
CONTINUOUS
 10
4.420240
 20
1.512720
  0
SEQEND
  8
0
  0
SOLID
  8
0
 62
    15
 10
4.446640
 20
1.520640
 11
4.448400
 21
2.264680
 12
4.479200
 22
1.523720
 13
4.480520
 23
2.267760
  0
POLYLINE
  8
0
  6
CONTINUOUS
 66
     1
 40
0.000000
 41
0.000000
  0
VERTEX
  8
0
  6
CONTINUOUS
 10
4.446640
 20
1.520640
  0
VERTEX
  8
0
  6
CONTINUOUS
 10
4.448400
 20
2.264680
  0
VERTEX
  8
0
  6
CONTINUOUS
 10
4.480520
 20
2.267760
  0
VERTEX
  8
0
  6
CONTINUOUS
 10
4.479200
 20
1.523720
  0
VERTEX
  8
0
  6
CONTINUOUS
 10
4.446640
 20
1.520640
  0
SEQEND
  8
0
  0
SOLID
  8
0
 62
    15
 10
4.479200
 20
1.523720
 11
4.480520
 21
2.267760
 12
4.488000
 22
1.561560
 13
4.489320
 23
2.305600
  0
POLYLINE
  8
0
  6
CONTINUOUS
 66
     1
 40
0.000000
 41
0.000000
  0
VERTEX
  8
0
  6
CONTINUOUS
 10
4.479200
 20
1.523720
  0
VERTEX
  8
0
  6
CONTINUOUS
 10
4.480520
 20
2.267760
  0
VERTEX
  8
0
  6
CONTINUOUS
 10
4.489320
 20
2.305600
  0
VERTEX
  8
0
  6
CONTINUOUS
 10
4.488000
 20
1.561560
  0
VERTEX
  8
0
  6
CONTINUOUS
 10
4.479200
 20
1.523720
  0
SEQEND
  8
0
  0
SOLID
  8
0
 62
    15
 10
4.488000
 20
1.561560
 11
4.489320
 21
2.305600
 12
4.503400
 22
1.596320
 13
4.504720
 23
2.340360
  0
POLYLINE
  8
0
  6
CONTINUOUS
 66
     1
 40
0.000000
 41
0.000000
  0
VERTEX
  8
0
  6
CONTINUOUS
 10
4.488000
 20
1.561560
  0
VERTEX
  8
0
  6
CONTINUOUS
 10
4.489320
 20
2.305600
  0
VERTEX
  8
0
  6
CONTINUOUS
 10
4.504720
 20
2.340360
  0
VERTEX
  8
0
  6
CONTINUOUS
 10
4.503400
 20
1.596320
  0
VERTEX
  8
0
  6
CONTINUOUS
 10
4.488000
 20
1.561560
  0
SEQEND
  8
0
  0
SOLID
  8
0
 62
    15
 10
4.503400
 20
1.596320
 11
4.504720
 21
2.340360
 12
4.523640
 22
1.627560
 13
4.525400
 23
2.371160
  0
POLYLINE
  8
0
  6
CONTINUOUS
 66
     1
 40
0.000000
 41
0.000000
  0
VERTEX
  8
0
  6
CONTINUOUS
 10
4.503400
 20
1.596320
  0
VERTEX
  8
0
  6
CONTINUOUS
 10
4.504720
 20
2.340360
  0
VERTEX
  8
0
  6
CONTINUOUS
 10
4.525400
 20
2.371160
  0
VERTEX
  8
0
  6
CONTINUOUS
 10
4.523640
 20
1.627560
  0
VERTEX
  8
0
  6
CONTINUOUS
 10
4.503400
 20
1.596320
  0
SEQEND
  8
0
  0
SOLID
  8
0
 62
    15
 10
4.523640
 20
1.627560
 11
4.525400
 21
2.371160
 12
4.549160
 22
1.654400
 13
4.550480
 23
2.398000
  0
POLYLINE
  8
0
  6
CONTINUOUS
 66
     1
 40
0.000000
 41
0.000000
  0
VERTEX
  8
0
  6
CONTINUOUS
 10
4.523640
 20
1.627560
  0
VERTEX
  8
0
  6
CONTINUOUS
 10
4.525400
 20
2.371160
  0
VERTEX
  8
0
  6
CONTINUOUS
 10
4.550480
 20
2.398000
  0
VERTEX
  8
0
  6
CONTINUOUS
 10
4.549160
 20
1.654400
  0
VERTEX
  8
0
  6
CONTINUOUS
 10
4.523640
 20
1.627560
  0
SEQEND
  8
0
  0
SOLID
  8
0
 62
    15
 10
4.549160
 20
1.654400
 11
4.550480
 21
2.398000
 12
4.578200
 22
1.676840
 13
4.579960
 23
2.420440
  0
POLYLINE
  8
0
  6
CONTINUOUS
 66
     1
 40
0.000000
 41
0.000000
  0
VERTEX
  8
0
  6
CONTINUOUS
 10
4.549160
 20
1.654400
  0
VERTEX
  8
0
  6
CONTINUOUS
 10
4.550480
 20
2.398000
  0
VERTEX
  8
0
  6
CONTINUOUS
 10
4.579960
 20
2.420440
  0
VERTEX
  8
0
  6
CONTINUOUS
 10
4.578200
 20
1.676840
  0
VERTEX
  8
0
  6
CONTINUOUS
 10
4.549160
 20
1.654400
  0
SEQEND
  8
0
  0
SOLID
  8
0
 62
    15
 10
4.578200
 20
1.676840
 11
4.579960
 21
2.420440
 12
4.610320
 22
1.694000
 13
4.612080
 23
2.437600
  0
POLYLINE
  8
0
  6
CONTINUOUS
 66
     1
 40
0.000000
 41
0.000000
  0
VERTEX
  8
0
  6
CONTINUOUS
 10
4.578200
 20
1.676840
  0
VERTEX
  8
0
  6
CONTINUOUS
 10
4.579960
 20
2.420440
  0
VERTEX
  8
0
  6
CONTINUOUS
 10
4.612080
 20
2.437600
  0
VERTEX
  8
0
  6
CONTINUOUS
 10
4.610320
 20
1.694000
  0
VERTEX
  8
0
  6
CONTINUOUS
 10
4.578200
 20
1.676840
  0
SEQEND
  8
0
  0
SOLID
  8
0
 62
    15
 10
4.610320
 20
1.694000
 11
4.612080
 21
2.437600
 12
4.645080
 22
1.705880
 13
4.646400
 23
2.449480
  0
POLYLINE
  8
0
  6
CONTINUOUS
 66
     1
 40
0.000000
 41
0.000000
  0
VERTEX
  8
0
  6
CONTINUOUS
 10
4.610320
 20
1.694000
  0
VERTEX
  8
0
  6
CONTINUOUS
 10
4.612080
 20
2.437600
  0
VERTEX
  8
0
  6
CONTINUOUS
 10
4.646400
 20
2.449480
  0
VERTEX
  8
0
  6
CONTINUOUS
 10
4.645080
 20
1.705880
  0
VERTEX
  8
0
  6
CONTINUOUS
 10
4.610320
 20
1.694000
  0
SEQEND
  8
0
  0
SOLID
  8
0
 62
    15
 10
4.645080
 20
1.705880
 11
4.646400
 21
2.449480
 12
4.680720
 22
1.711600
 13
4.682040
 23
2.455200
  0
POLYLINE
  8
0
  6
CONTINUOUS
 66
     1
 40
0.000000
 41
0.000000
  0
VERTEX
  8
0
  6
CONTINUOUS
 10
4.645080
 20
1.705880
  0
VERTEX
  8
0
  6
CONTINUOUS
 10
4.646400
 20
2.449480
  0
VERTEX
  8
0
  6
CONTINUOUS
 10
4.682040
 20
2.455200
  0
VERTEX
  8
0
  6
CONTINUOUS
 10
4.680720
 20
1.711600
  0
VERTEX
  8
0
  6
CONTINUOUS
 10
4.645080
 20
1.705880
  0
SEQEND
  8
0
  0
SOLID
  8
0
 62
    15
 10
4.680720
 20
1.711600
 11
4.682040
 21
2.455200
 12
4.716800
 22
1.710720
 13
4.718120
 23
2.454760
  0
POLYLINE
  8
0
  6
CONTINUOUS
 66
     1
 40
0.000000
 41
0.000000
  0
VERTEX
  8
0
  6
CONTINUOUS
 10
4.680720
 20
1.711600
  0
VERTEX
  8
0
  6
CONTINUOUS
 10
4.682040
 20
2.455200
  0
VERTEX
  8
0
  6
CONTINUOUS
 10
4.718120
 20
2.454760
  0
VERTEX
  8
0
  6
CONTINUOUS
 10
4.716800
 20
1.710720
  0
VERTEX
  8
0
  6
CONTINUOUS
 10
4.680720
 20
1.711600
  0
SEQEND
  8
0
  0
SOLID
  8
0
 62
    15
 10
4.716800
 20
1.710720
 11
4.718120
 21
2.454760
 12
4.752880
 22
1.703240
 13
4.754200
 23
2.446840
  0
POLYLINE
  8
0
  6
CONTINUOUS
 66
     1
 40
0.000000
 41
0.000000
  0
VERTEX
  8
0
  6
CONTINUOUS
 10
4.716800
 20
1.710720
  0
VERTEX
  8
0
  6
CONTINUOUS
 10
4.718120
 20
2.454760
  0
VERTEX
  8
0
  6
CONTINUOUS
 10
4.754200
 20
2.446840
  0
VERTEX
  8
0
  6
CONTINUOUS
 10
4.752880
 20
1.703240
  0
VERTEX
  8
0
  6
CONTINUOUS
 10
4.716800
 20
1.710720
  0
SEQEND
  8
0
  0
SOLID
  8
0
 62
    15
 10
4.752880
 20
1.703240
 11
4.754200
 21
2.446840
 12
4.787640
 22
1.687840
 13
4.788960
 23
2.431880
  0
POLYLINE
  8
0
  6
CONTINUOUS
 66
     1
 40
0.000000
 41
0.000000
  0
VERTEX
  8
0
  6
CONTINUOUS
 10
4.752880
 20
1.703240
  0
VERTEX
  8
0
  6
CONTINUOUS
 10
4.754200
 20
2.446840
  0
VERTEX
  8
0
  6
CONTINUOUS
 10
4.788960
 20
2.431880
  0
VERTEX
  8
0
  6
CONTINUOUS
 10
4.787640
 20
1.687840
  0
VERTEX
  8
0
  6
CONTINUOUS
 10
4.752880
 20
1.703240
  0
SEQEND
  8
0
  0
SOLID
  8
0
 62
    15
 10
4.787640
 20
1.687840
 11
4.788960
 21
2.431880
 12
4.820640
 22
1.664960
 13
4.821960
 23
2.409000
  0
POLYLINE
  8
0
  6
CONTINUOUS
 66
     1
 40
0.000000
 41
0.000000
  0
VERTEX
  8
0
  6
CONTINUOUS
 10
4.787640
 20
1.687840
  0
VERTEX
  8
0
  6
CONTINUOUS
 10
4.788960
 20
2.431880
  0
VERTEX
  8
0
  6
CONTINUOUS
 10
4.821960
 20
2.409000
  0
VERTEX
  8
0
  6
CONTINUOUS
 10
4.820640
 20
1.664960
  0
VERTEX
  8
0
  6
CONTINUOUS
 10
4.787640
 20
1.687840
  0
SEQEND
  8
0
  0
SOLID
  8
0
 62
    15
 10
4.820640
 20
1.664960
 11
4.821960
 21
2.409000
 12
4.851000
 22
1.633720
 13
4.852320
 23
2.377760
  0
POLYLINE
  8
0
  6
CONTINUOUS
 66
     1
 40
0.000000
 41
0.000000
  0
VERTEX
  8
0
  6
CONTINUOUS
 10
4.820640
 20
1.664960
  0
VERTEX
  8
0
  6
CONTINUOUS
 10
4.821960
 20
2.409000
  0
VERTEX
  8
0
  6
CONTINUOUS
 10
4.852320
 20
2.377760
  0
VERTEX
  8
0
  6
CONTINUOUS
 10
4.851000
 20
1.633720
  0
VERTEX
  8
0
  6
CONTINUOUS
 10
4.820640
 20
1.664960
  0
SEQEND
  8
0
  0
SOLID
  8
0
 62
    15
 10
4.150520
 20
1.362240
 11
4.152280
 21
2.105840
 12
4.201120
 22
1.364440
 13
4.202880
 23
2.108040
  0
POLYLINE
  8
0
  6
CONTINUOUS
 66
     1
 40
0.000000
 41
0.000000
  0
VERTEX
  8
0
  6
CONTINUOUS
 10
4.150520
 20
1.362240
  0
VERTEX
  8
0
  6
CONTINUOUS
 10
4.152280
 20
2.105840
  0
VERTEX
  8
0
  6
CONTINUOUS
 10
4.202880
 20
2.108040
  0
VERTEX
  8
0
  6
CONTINUOUS
 10
4.201120
 20
1.364440
  0
VERTEX
  8
0
  6
CONTINUOUS
 10
4.150520
 20
1.362240
  0
SEQEND
  8
0
  0
SOLID
  8
0
 62
    15
 10
4.877400
 20
1.593680
 11
4.878720
 21
2.337720
 12
4.899400
 22
1.544400
 13
4.900720
 23
2.288440
  0
POLYLINE
  8
0
  6
CONTINUOUS
 66
     1
 40
0.000000
 41
0.000000
  0
VERTEX
  8
0
  6
CONTINUOUS
 10
4.877400
 20
1.593680
  0
VERTEX
  8
0
  6
CONTINUOUS
 10
4.878720
 20
2.337720
  0
VERTEX
  8
0
  6
CONTINUOUS
 10
4.900720
 20
2.288440
  0
VERTEX
  8
0
  6
CONTINUOUS
 10
4.899400
 20
1.544400
  0
VERTEX
  8
0
  6
CONTINUOUS
 10
4.877400
 20
1.593680
  0
SEQEND
  8
0
  0
SOLID
  8
0
 62
    15
 10
4.899400
 20
1.544400
 11
4.900720
 21
2.288440
 12
4.916120
 22
1.485440
 13
4.917880
 23
2.229480
  0
POLYLINE
  8
0
  6
CONTINUOUS
 66
     1
 40
0.000000
 41
0.000000
  0
VERTEX
  8
0
  6
CONTINUOUS
 10
4.899400
 20
1.544400
  0
VERTEX
  8
0
  6
CONTINUOUS
 10
4.900720
 20
2.288440
  0
VERTEX
  8
0
  6
CONTINUOUS
 10
4.917880
 20
2.229480
  0
VERTEX
  8
0
  6
CONTINUOUS
 10
4.916120
 20
1.485440
  0
VERTEX
  8
0
  6
CONTINUOUS
 10
4.899400
 20
1.544400
  0
SEQEND
  8
0
  0
SOLID
  8
0
 62
    15
 10
4.916120
 20
1.485440
 11
4.917880
 21
2.229480
 12
5.012920
 22
1.461680
 13
5.014240
 23
2.205720
  0
POLYLINE
  8
0
  6
CONTINUOUS
 66
     1
 40
0.000000
 41
0.000000
  0
VERTEX
  8
0
  6
CONTINUOUS
 10
4.916120
 20
1.485440
  0
VERTEX
  8
0
  6
CONTINUOUS
 10
4.917880
 20
2.229480
  0
VERTEX
  8
0
  6
CONTINUOUS
 10
5.014240
 20
2.205720
  0
VERTEX
  8
0
  6
CONTINUOUS
 10
5.012920
 20
1.461680
  0
VERTEX
  8
0
  6
CONTINUOUS
 10
4.916120
 20
1.485440
  0
SEQEND
  8
0
  0
SOLID
  8
0
 62
    15
 10
5.012920
 20
1.461680
 11
5.014240
 21
2.205720
 12
5.014680
 22
1.430440
 13
5.016440
 23
2.174480
  0
POLYLINE
  8
0
  6
CONTINUOUS
 66
     1
 40
0.000000
 41
0.000000
  0
VERTEX
  8
0
  6
CONTINUOUS
 10
5.012920
 20
1.461680
  0
VERTEX
  8
0
  6
CONTINUOUS
 10
5.014240
 20
2.205720
  0
VERTEX
  8
0
  6
CONTINUOUS
 10
5.016440
 20
2.174480
  0
VERTEX
  8
0
  6
CONTINUOUS
 10
5.014680
 20
1.430440
  0
VERTEX
  8
0
  6
CONTINUOUS
 10
5.012920
 20
1.461680
  0
SEQEND
  8
0
  0
SOLID
  8
0
 62
    15
 10
5.014680
 20
1.430440
 11
5.016440
 21
2.174480
 12
5.020400
 22
1.397000
 13
5.022160
 23
2.141040
  0
POLYLINE
  8
0
  6
CONTINUOUS
 66
     1
 40
0.000000
 41
0.000000
  0
VERTEX
  8
0
  6
CONTINUOUS
 10
5.014680
 20
1.430440
  0
VERTEX
  8
0
  6
CONTINUOUS
 10
5.016440
 20
2.174480
  0
VERTEX
  8
0
  6
CONTINUOUS
 10
5.022160
 20
2.141040
  0
VERTEX
  8
0
  6
CONTINUOUS
 10
5.020400
 20
1.397000
  0
VERTEX
  8
0
  6
CONTINUOUS
 10
5.014680
 20
1.430440
  0
SEQEND
  8
0
  0
SOLID
  8
0
 62
    15
 10
5.020400
 20
1.397000
 11
5.022160
 21
2.141040
 12
5.041960
 22
1.326160
 13
5.043280
 23
2.069760
  0
POLYLINE
  8
0
  6
CONTINUOUS
 66
     1
 40
0.000000
 41
0.000000
  0
VERTEX
  8
0
  6
CONTINUOUS
 10
5.020400
 20
1.397000
  0
VERTEX
  8
0
  6
CONTINUOUS
 10
5.022160
 20
2.141040
  0
VERTEX
  8
0
  6
CONTINUOUS
 10
5.043280
 20
2.069760
  0
VERTEX
  8
0
  6
CONTINUOUS
 10
5.041960
 20
1.326160
  0
VERTEX
  8
0
  6
CONTINUOUS
 10
5.020400
 20
1.397000
  0
SEQEND
  8
0
  0
SOLID
  8
0
 62
    15
 10
5.041960
 20
1.326160
 11
5.043280
 21
2.069760
 12
5.074080
 22
1.254880
 13
5.075400
 23
1.998920
  0
POLYLINE
  8
0
  6
CONTINUOUS
 66
     1
 40
0.000000
 41
0.000000
  0
VERTEX
  8
0
  6
CONTINUOUS
 10
5.041960
 20
1.326160
  0
VERTEX
  8
0
  6
CONTINUOUS
 10
5.043280
 20
2.069760
  0
VERTEX
  8
0
  6
CONTINUOUS
 10
5.075400
 20
1.998920
  0
VERTEX
  8
0
  6
CONTINUOUS
 10
5.074080
 20
1.254880
  0
VERTEX
  8
0
  6
CONTINUOUS
 10
5.041960
 20
1.326160
  0
SEQEND
  8
0
  0
SOLID
  8
0
 62
    15
 10
5.074080
 20
1.254880
 11
5.075400
 21
1.998920
 12
5.114560
 22
1.189760
 13
5.115880
 23
1.933800
  0
POLYLINE
  8
0
  6
CONTINUOUS
 66
     1
 40
0.000000
 41
0.000000
  0
VERTEX
  8
0
  6
CONTINUOUS
 10
5.074080
 20
1.254880
  0
VERTEX
  8
0
  6
CONTINUOUS
 10
5.075400
 20
1.998920
  0
VERTEX
  8
0
  6
CONTINUOUS
 10
5.115880
 20
1.933800
  0
VERTEX
  8
0
  6
CONTINUOUS
 10
5.114560
 20
1.189760
  0
VERTEX
  8
0
  6
CONTINUOUS
 10
5.074080
 20
1.254880
  0
SEQEND
  8
0
  0
SOLID
  8
0
 62
    15
 10
5.114560
 20
1.189760
 11
5.115880
 21
1.933800
 12
5.137000
 22
1.161600
 13
5.138760
 23
1.905200
  0
POLYLINE
  8
0
  6
CONTINUOUS
 66
     1
 40
0.000000
 41
0.000000
  0
VERTEX
  8
0
  6
CONTINUOUS
 10
5.114560
 20
1.189760
  0
VERTEX
  8
0
  6
CONTINUOUS
 10
5.115880
 20
1.933800
  0
VERTEX
  8
0
  6
CONTINUOUS
 10
5.138760
 20
1.905200
  0
VERTEX
  8
0
  6
CONTINUOUS
 10
5.137000
 20
1.161600
  0
VERTEX
  8
0
  6
CONTINUOUS
 10
5.114560
 20
1.189760
  0
SEQEND
  8
0
  0
SOLID
  8
0
 62
    15
 10
5.137000
 20
1.161600
 11
5.138760
 21
1.905200
 12
5.160760
 22
1.136520
 13
5.162080
 23
1.880560
  0
POLYLINE
  8
0
  6
CONTINUOUS
 66
     1
 40
0.000000
 41
0.000000
  0
VERTEX
  8
0
  6
CONTINUOUS
 10
5.137000
 20
1.161600
  0
VERTEX
  8
0
  6
CONTINUOUS
 10
5.138760
 20
1.905200
  0
VERTEX
  8
0
  6
CONTINUOUS
 10
5.162080
 20
1.880560
  0
VERTEX
  8
0
  6
CONTINUOUS
 10
5.160760
 20
1.136520
  0
VERTEX
  8
0
  6
CONTINUOUS
 10
5.137000
 20
1.161600
  0
SEQEND
  8
0
  0
SOLID
  8
0
 62
    15
 10
5.160760
 20
1.136520
 11
5.162080
 21
1.880560
 12
5.185400
 22
1.116280
 13
5.186720
 23
1.860320
  0
POLYLINE
  8
0
  6
CONTINUOUS
 66
     1
 40
0.000000
 41
0.000000
  0
VERTEX
  8
0
  6
CONTINUOUS
 10
5.160760
 20
1.136520
  0
VERTEX
  8
0
  6
CONTINUOUS
 10
5.162080
 20
1.880560
  0
VERTEX
  8
0
  6
CONTINUOUS
 10
5.186720
 20
1.860320
  0
VERTEX
  8
0
  6
CONTINUOUS
 10
5.185400
 20
1.116280
  0
VERTEX
  8
0
  6
CONTINUOUS
 10
5.160760
 20
1.136520
  0
SEQEND
  8
0
  0
SOLID
  8
0
 62
    15
 10
5.185400
 20
1.116280
 11
5.186720
 21
1.860320
 12
5.210040
 22
1.101320
 13
5.211360
 23
1.845360
  0
POLYLINE
  8
0
  6
CONTINUOUS
 66
     1
 40
0.000000
 41
0.000000
  0
VERTEX
  8
0
  6
CONTINUOUS
 10
5.185400
 20
1.116280
  0
VERTEX
  8
0
  6
CONTINUOUS
 10
5.186720
 20
1.860320
  0
VERTEX
  8
0
  6
CONTINUOUS
 10
5.211360
 20
1.845360
  0
VERTEX
  8
0
  6
CONTINUOUS
 10
5.210040
 20
1.101320
  0
VERTEX
  8
0
  6
CONTINUOUS
 10
5.185400
 20
1.116280
  0
SEQEND
  8
0
  0
SOLID
  8
0
 62
    15
 10
5.210040
 20
1.101320
 11
5.211360
 21
1.845360
 12
5.235120
 22
1.092520
 13
5.236440
 23
1.836120
  0
POLYLINE
  8
0
  6
CONTINUOUS
 66
     1
 40
0.000000
 41
0.000000
  0
VERTEX
  8
0
  6
CONTINUOUS
 10
5.210040
 20
1.101320
  0
VERTEX
  8
0
  6
CONTINUOUS
 10
5.211360
 20
1.845360
  0
VERTEX
  8
0
  6
CONTINUOUS
 10
5.236440
 20
1.836120
  0
VERTEX
  8
0
  6
CONTINUOUS
 10
5.235120
 20
1.092520
  0
VERTEX
  8
0
  6
CONTINUOUS
 10
5.210040
 20
1.101320
  0
SEQEND
  8
0
  0
SOLID
  8
0
 62
    15
 10
5.235120
 20
1.092520
 11
5.236440
 21
1.836120
 12
5.259760
 22
1.089880
 13
5.261080
 23
1.833920
  0
POLYLINE
  8
0
  6
CONTINUOUS
 66
     1
 40
0.000000
 41
0.000000
  0
VERTEX
  8
0
  6
CONTINUOUS
 10
5.235120
 20
1.092520
  0
VERTEX
  8
0
  6
CONTINUOUS
 10
5.236440
 20
1.836120
  0
VERTEX
  8
0
  6
CONTINUOUS
 10
5.261080
 20
1.833920
  0
VERTEX
  8
0
  6
CONTINUOUS
 10
5.259760
 20
1.089880
  0
VERTEX
  8
0
  6
CONTINUOUS
 10
5.235120
 20
1.092520
  0
SEQEND
  8
0
  0
SOLID
  8
0
 62
    15
 10
5.259760
 20
1.089880
 11
5.261080
 21
1.833920
 12
5.283960
 22
1.095160
 13
5.285720
 23
1.839200
  0
POLYLINE
  8
0
  6
CONTINUOUS
 66
     1
 40
0.000000
 41
0.000000
  0
VERTEX
  8
0
  6
CONTINUOUS
 10
5.259760
 20
1.089880
  0
VERTEX
  8
0
  6
CONTINUOUS
 10
5.261080
 20
1.833920
  0
VERTEX
  8
0
  6
CONTINUOUS
 10
5.285720
 20
1.839200
  0
VERTEX
  8
0
  6
CONTINUOUS
 10
5.283960
 20
1.095160
  0
VERTEX
  8
0
  6
CONTINUOUS
 10
5.259760
 20
1.089880
  0
SEQEND
  8
0
  0
SOLID
  8
0
 62
    15
 10
5.283960
 20
1.095160
 11
5.285720
 21
1.839200
 12
5.307720
 22
1.108800
 13
5.309040
 23
1.852400
  0
POLYLINE
  8
0
  6
CONTINUOUS
 66
     1
 40
0.000000
 41
0.000000
  0
VERTEX
  8
0
  6
CONTINUOUS
 10
5.283960
 20
1.095160
  0
VERTEX
  8
0
  6
CONTINUOUS
 10
5.285720
 20
1.839200
  0
VERTEX
  8
0
  6
CONTINUOUS
 10
5.309040
 20
1.852400
  0
VERTEX
  8
0
  6
CONTINUOUS
 10
5.307720
 20
1.108800
  0
VERTEX
  8
0
  6
CONTINUOUS
 10
5.283960
 20
1.095160
  0
SEQEND
  8
0
  0
SOLID
  8
0
 62
    15
 10
5.307720
 20
1.108800
 11
5.309040
 21
1.852400
 12
5.329720
 22
1.124200
 13
5.331040
 23
1.868240
  0
POLYLINE
  8
0
  6
CONTINUOUS
 66
     1
 40
0.000000
 41
0.000000
  0
VERTEX
  8
0
  6
CONTINUOUS
 10
5.307720
 20
1.108800
  0
VERTEX
  8
0
  6
CONTINUOUS
 10
5.309040
 20
1.852400
  0
VERTEX
  8
0
  6
CONTINUOUS
 10
5.331040
 20
1.868240
  0
VERTEX
  8
0
  6
CONTINUOUS
 10
5.329720
 20
1.124200
  0
VERTEX
  8
0
  6
CONTINUOUS
 10
5.307720
 20
1.108800
  0
SEQEND
  8
0
  0
SOLID
  8
0
 62
    15
 10
5.329720
 20
1.124200
 11
5.331040
 21
1.868240
 12
5.349960
 22
1.135640
 13
5.351720
 23
1.879680
  0
POLYLINE
  8
0
  6
CONTINUOUS
 66
     1
 40
0.000000
 41
0.000000
  0
VERTEX
  8
0
  6
CONTINUOUS
 10
5.329720
 20
1.124200
  0
VERTEX
  8
0
  6
CONTINUOUS
 10
5.331040
 20
1.868240
  0
VERTEX
  8
0
  6
CONTINUOUS
 10
5.351720
 20
1.879680
  0
VERTEX
  8
0
  6
CONTINUOUS
 10
5.349960
 20
1.135640
  0
VERTEX
  8
0
  6
CONTINUOUS
 10
5.329720
 20
1.124200
  0
SEQEND
  8
0
  0
SOLID
  8
0
 62
    15
 10
5.349960
 20
1.135640
 11
5.351720
 21
1.879680
 12
5.368880
 22
1.143560
 13
5.370640
 23
1.887160
  0
POLYLINE
  8
0
  6
CONTINUOUS
 66
     1
 40
0.000000
 41
0.000000
  0
VERTEX
  8
0
  6
CONTINUOUS
 10
5.349960
 20
1.135640
  0
VERTEX
  8
0
  6
CONTINUOUS
 10
5.351720
 20
1.879680
  0
VERTEX
  8
0
  6
CONTINUOUS
 10
5.370640
 20
1.887160
  0
VERTEX
  8
0
  6
CONTINUOUS
 10
5.368880
 20
1.143560
  0
VERTEX
  8
0
  6
CONTINUOUS
 10
5.349960
 20
1.135640
  0
SEQEND
  8
0
  0
SOLID
  8
0
 62
    15
 10
5.368880
 20
1.143560
 11
5.370640
 21
1.887160
 12
5.386480
 22
1.147960
 13
5.387800
 23
1.891560
  0
POLYLINE
  8
0
  6
CONTINUOUS
 66
     1
 40
0.000000
 41
0.000000
  0
VERTEX
  8
0
  6
CONTINUOUS
 10
5.368880
 20
1.143560
  0
VERTEX
  8
0
  6
CONTINUOUS
 10
5.370640
 20
1.887160
  0
VERTEX
  8
0
  6
CONTINUOUS
 10
5.387800
 20
1.891560
  0
VERTEX
  8
0
  6
CONTINUOUS
 10
5.386480
 20
1.147960
  0
VERTEX
  8
0
  6
CONTINUOUS
 10
5.368880
 20
1.143560
  0
SEQEND
  8
0
  0
SOLID
  8
0
 62
    15
 10
5.386480
 20
1.147960
 11
5.387800
 21
1.891560
 12
5.416400
 22
1.147080
 13
5.417720
 23
1.891120
  0
POLYLINE
  8
0
  6
CONTINUOUS
 66
     1
 40
0.000000
 41
0.000000
  0
VERTEX
  8
0
  6
CONTINUOUS
 10
5.386480
 20
1.147960
  0
VERTEX
  8
0
  6
CONTINUOUS
 10
5.387800
 20
1.891560
  0
VERTEX
  8
0
  6
CONTINUOUS
 10
5.417720
 20
1.891120
  0
VERTEX
  8
0
  6
CONTINUOUS
 10
5.416400
 20
1.147080
  0
VERTEX
  8
0
  6
CONTINUOUS
 10
5.386480
 20
1.147960
  0
SEQEND
  8
0
  0
SOLID
  8
0
 62
    15
 10
5.416400
 20
1.147080
 11
5.417720
 21
1.891120
 12
5.440600
 22
1.136960
 13
5.441920
 23
1.880560
  0
POLYLINE
  8
0
  6
CONTINUOUS
 66
     1
 40
0.000000
 41
0.000000
  0
VERTEX
  8
0
  6
CONTINUOUS
 10
5.416400
 20
1.147080
  0
VERTEX
  8
0
  6
CONTINUOUS
 10
5.417720
 20
1.891120
  0
VERTEX
  8
0
  6
CONTINUOUS
 10
5.441920
 20
1.880560
  0
VERTEX
  8
0
  6
CONTINUOUS
 10
5.440600
 20
1.136960
  0
VERTEX
  8
0
  6
CONTINUOUS
 10
5.416400
 20
1.147080
  0
SEQEND
  8
0
  0
SOLID
  8
0
 62
    15
 10
5.440600
 20
1.136960
 11
5.441920
 21
1.880560
 12
5.458640
 22
1.119800
 13
5.460400
 23
1.863840
  0
POLYLINE
  8
0
  6
CONTINUOUS
 66
     1
 40
0.000000
 41
0.000000
  0
VERTEX
  8
0
  6
CONTINUOUS
 10
5.440600
 20
1.136960
  0
VERTEX
  8
0
  6
CONTINUOUS
 10
5.441920
 20
1.880560
  0
VERTEX
  8
0
  6
CONTINUOUS
 10
5.460400
 20
1.863840
  0
VERTEX
  8
0
  6
CONTINUOUS
 10
5.458640
 20
1.119800
  0
VERTEX
  8
0
  6
CONTINUOUS
 10
5.440600
 20
1.136960
  0
SEQEND
  8
0
  0
SOLID
  8
0
 62
    15
 10
5.458640
 20
1.119800
 11
5.460400
 21
1.863840
 12
5.471840
 22
1.098680
 13
5.473160
 23
1.842280
  0
POLYLINE
  8
0
  6
CONTINUOUS
 66
     1
 40
0.000000
 41
0.000000
  0
VERTEX
  8
0
  6
CONTINUOUS
 10
5.458640
 20
1.119800
  0
VERTEX
  8
0
  6
CONTINUOUS
 10
5.460400
 20
1.863840
  0
VERTEX
  8
0
  6
CONTINUOUS
 10
5.473160
 20
1.842280
  0
VERTEX
  8
0
  6
CONTINUOUS
 10
5.471840
 20
1.098680
  0
VERTEX
  8
0
  6
CONTINUOUS
 10
5.458640
 20
1.119800
  0
SEQEND
  8
0
  0
SOLID
  8
0
 62
    15
 10
5.471840
 20
1.098680
 11
5.473160
 21
1.842280
 12
5.479320
 22
1.075800
 13
5.480640
 23
1.819840
  0
POLYLINE
  8
0
  6
CONTINUOUS
 66
     1
 40
0.000000
 41
0.000000
  0
VERTEX
  8
0
  6
CONTINUOUS
 10
5.471840
 20
1.098680
  0
VERTEX
  8
0
  6
CONTINUOUS
 10
5.473160
 20
1.842280
  0
VERTEX
  8
0
  6
CONTINUOUS
 10
5.480640
 20
1.819840
  0
VERTEX
  8
0
  6
CONTINUOUS
 10
5.479320
 20
1.075800
  0
VERTEX
  8
0
  6
CONTINUOUS
 10
5.471840
 20
1.098680
  0
SEQEND
  8
0
  0
SOLID
  8
0
 62
    15
 10
5.481520
 20
1.054680
 11
5.483280
 21
1.798720
 12
5.481520
 22
0.924880
 13
5.483280
 23
1.668480
  0
POLYLINE
  8
0
  6
CONTINUOUS
 66
     1
 40
0.000000
 41
0.000000
  0
VERTEX
  8
0
  6
CONTINUOUS
 10
5.481520
 20
1.054680
  0
VERTEX
  8
0
  6
CONTINUOUS
 10
5.483280
 20
1.798720
  0
VERTEX
  8
0
  6
CONTINUOUS
 10
5.483280
 20
1.668480
  0
VERTEX
  8
0
  6
CONTINUOUS
 10
5.481520
 20
0.924880
  0
VERTEX
  8
0
  6
CONTINUOUS
 10
5.481520
 20
1.054680
  0
SEQEND
  8
0
  0
SOLID
  8
0
 62
    15
 10
5.479320
 20
1.075800
 11
5.480640
 21
1.819840
 12
5.481520
 22
1.054680
 13
5.483280
 23
1.798720
  0
POLYLINE
  8
0
  6
CONTINUOUS
 66
     1
 40
0.000000
 41
0.000000
  0
VERTEX
  8
0
  6
CONTINUOUS
 10
5.479320
 20
1.075800
  0
VERTEX
  8
0
  6
CONTINUOUS
 10
5.480640
 20
1.819840
  0
VERTEX
  8
0
  6
CONTINUOUS
 10
5.483280
 20
1.798720
  0
VERTEX
  8
0
  6
CONTINUOUS
 10
5.481520
 20
1.054680
  0
VERTEX
  8
0
  6
CONTINUOUS
 10
5.479320
 20
1.075800
  0
SEQEND
  8
0
  0
SOLID
  8
0
 62
    15
 10
4.149640
 20
1.362240
 11
4.150960
 21
2.105840
 12
4.150520
 22
1.362240
 13
4.152280
 23
2.105840
  0
POLYLINE
  8
0
  6
CONTINUOUS
 66
     1
 40
0.000000
 41
0.000000
  0
VERTEX
  8
0
  6
CONTINUOUS
 10
4.149640
 20
1.362240
  0
VERTEX
  8
0
  6
CONTINUOUS
 10
4.150960
 20
2.105840
  0
VERTEX
  8
0
  6
CONTINUOUS
 10
4.152280
 20
2.105840
  0
VERTEX
  8
0
  6
CONTINUOUS
 10
4.150520
 20
1.362240
  0
VERTEX
  8
0
  6
CONTINUOUS
 10
4.149640
 20
1.362240
  0
SEQEND
  8
0
  0
POLYLINE
  8
0
  6
CONTINUOUS
 66
     1
 40
0.000000
 41
0.000000
  0
VERTEX
  8
0
  6
CONTINUOUS
 10
4.150520
 20
1.362240
  0
VERTEX
  8
0
  6
CONTINUOUS
 10
4.201120
 20
1.364440
  0
VERTEX
  8
0
  6
CONTINUOUS
 10
4.240280
 20
1.370160
  0
VERTEX
  8
0
  6
CONTINUOUS
 10
4.269320
 20
1.378960
  0
VERTEX
  8
0
  6
CONTINUOUS
 10
4.290440
 20
1.389520
  0
VERTEX
  8
0
  6
CONTINUOUS
 10
4.305400
 20
1.401400
  0
VERTEX
  8
0
  6
CONTINUOUS
 10
4.350720
 20
1.450680
  0
VERTEX
  8
0
  6
CONTINUOUS
 10
4.381960
 20
1.487200
  0
VERTEX
  8
0
  6
CONTINUOUS
 10
4.399120
 20
1.501280
  0
VERTEX
  8
0
  6
CONTINUOUS
 10
4.420240
 20
1.512720
  0
VERTEX
  8
0
  6
CONTINUOUS
 10
4.446640
 20
1.520640
  0
VERTEX
  8
0
  6
CONTINUOUS
 10
4.479200
 20
1.523720
  0
VERTEX
  8
0
  6
CONTINUOUS
 10
4.488000
 20
1.561560
  0
VERTEX
  8
0
  6
CONTINUOUS
 10
4.503400
 20
1.596320
  0
VERTEX
  8
0
  6
CONTINUOUS
 10
4.523640
 20
1.627560
  0
VERTEX
  8
0
  6
CONTINUOUS
 10
4.549160
 20
1.654400
  0
VERTEX
  8
0
  6
CONTINUOUS
 10
4.578200
 20
1.676840
  0
VERTEX
  8
0
  6
CONTINUOUS
 10
4.610320
 20
1.694000
  0
VERTEX
  8
0
  6
CONTINUOUS
 10
4.645080
 20
1.705880
  0
VERTEX
  8
0
  6
CONTINUOUS
 10
4.680720
 20
1.711600
  0
VERTEX
  8
0
  6
CONTINUOUS
 10
4.716800
 20
1.710720
  0
VERTEX
  8
0
  6
CONTINUOUS
 10
4.752880
 20
1.703240
  0
VERTEX
  8
0
  6
CONTINUOUS
 10
4.787640
 20
1.687840
  0
VERTEX
  8
0
  6
CONTINUOUS
 10
4.820640
 20
1.664960
  0
VERTEX
  8
0
  6
CONTINUOUS
 10
4.851000
 20
1.633720
  0
VERTEX
  8
0
  6
CONTINUOUS
 10
4.877400
 20
1.593680
  0
VERTEX
  8
0
  6
CONTINUOUS
 10
4.899400
 20
1.544400
  0
VERTEX
  8
0
  6
CONTINUOUS
 10
4.916120
 20
1.485440
  0
VERTEX
  8
0
  6
CONTINUOUS
 10
5.012920
 20
1.461680
  0
VERTEX
  8
0
  6
CONTINUOUS
 10
5.014680
 20
1.430440
  0
VERTEX
  8
0
  6
CONTINUOUS
 10
5.020400
 20
1.397000
  0
VERTEX
  8
0
  6
CONTINUOUS
 10
5.041960
 20
1.326160
  0
VERTEX
  8
0
  6
CONTINUOUS
 10
5.074080
 20
1.254880
  0
VERTEX
  8
0
  6
CONTINUOUS
 10
5.114560
 20
1.189760
  0
VERTEX
  8
0
  6
CONTINUOUS
 10
5.137000
 20
1.161600
  0
VERTEX
  8
0
  6
CONTINUOUS
 10
5.160760
 20
1.136520
  0
VERTEX
  8
0
  6
CONTINUOUS
 10
5.185400
 20
1.116280
  0
VERTEX
  8
0
  6
CONTINUOUS
 10
5.210040
 20
1.101320
  0
VERTEX
  8
0
  6
CONTINUOUS
 10
5.235120
 20
1.092520
  0
VERTEX
  8
0
  6
CONTINUOUS
 10
5.259760
 20
1.089880
  0
VERTEX
  8
0
  6
CONTINUOUS
 10
5.283960
 20
1.095160
  0
VERTEX
  8
0
  6
CONTINUOUS
 10
5.349960
 20
1.135640
  0
VERTEX
  8
0
  6
CONTINUOUS
 10
5.368880
 20
1.143560
  0
VERTEX
  8
0
  6
CONTINUOUS
 10
5.386480
 20
1.147960
  0
VERTEX
  8
0
  6
CONTINUOUS
 10
5.416400
 20
1.147080
  0
VERTEX
  8
0
  6
CONTINUOUS
 10
5.440600
 20
1.136960
  0
VERTEX
  8
0
  6
CONTINUOUS
 10
5.458640
 20
1.119800
  0
VERTEX
  8
0
  6
CONTINUOUS
 10
5.471840
 20
1.098680
  0
VERTEX
  8
0
  6
CONTINUOUS
 10
5.479320
 20
1.075800
  0
VERTEX
  8
0
  6
CONTINUOUS
 10
5.481520
 20
1.054680
  0
VERTEX
  8
0
  6
CONTINUOUS
 10
5.481520
 20
0.924880
  0
VERTEX
  8
0
  6
CONTINUOUS
 10
4.149640
 20
0.924880
  0
VERTEX
  8
0
  6
CONTINUOUS
 10
4.149640
 20
1.362240
  0
VERTEX
  8
0
  6
CONTINUOUS
 10
4.150520
 20
1.362240
  0
SEQEND
  8
0
  0
TEXT
  8
0
 10
4.522760
 20
0.696080
 40
0.138110
  1
BA  512
 41
1.000000
  7
SN0
 71
     0
 72
     5
 11
5.113287
 21
0.696080
  0
TEXT
  8
0
 10
4.320800
 20
0.504680
 40
0.138110
  1
3/4" x 1-5/16"
 41
1.000000
  7
SN0
 71
     0
 72
     5
 11
5.314382
 21
0.504680
  0
ENDSEC
  0
EOF
