  0
SECTION
  2
HEADER
  9
$ACADVER
  1
AC1006
  9
$EXTMIN
 10
3.457080
 20
0.417120
  9
$EXTMAX
 10
7.388920
 20
3.101120
  9
$LTSCALE
 40
0.044000
  9
$PDMODE
 70
    35
  9
$PDSIZE
 40
0.035200
  0
ENDSEC
  0
SECTION
  2
TABLES
  0
TABLE
  2
LTYPE
 70
     9
  0
LTYPE
  2
CONTINUOUS
 70
    64
  3
Solid line
 72
    65
 73
     0
 40
0.000000
  0
LTYPE
  2
DASHED
 70
    64
  3
__ __ __ __ __ __ __ __ __ __ __ __ __ __ __
 72
    65
 73
     2
 40
0.000330
 49
0.000220
 49
-0.000110
  0
LTYPE
  2
HIDDEN
 70
    64
  3
 _ _ _ _ _ _ _ _ _ _ _ _ _ _ _ _ _ _ _ _ _ _
 72
    65
 73
     2
 40
0.000165
 49
0.000110
 49
-0.000055
  0
LTYPE
  2
CENTER
 70
    64
  3
____ _ ____ _ ____ _ ____ _ ____ _ ____ _ ____
 72
    65
 73
     4
 40
0.000880
 49
0.000550
 49
-0.000110
 49
0.000110
 49
-0.000110
  0
LTYPE
  2
PHANTOM
 70
    64
  3
_____ _ _ _____ _ _ _____ _ _ _____ _ _ ____
 72
    65
 73
     6
 40
0.001100
 49
0.000550
 49
-0.000110
 49
0.000110
 49
-0.000110
 49
0.000110
 49
-0.000110
  0
LTYPE
  2
DOT
 70
    64
  3
...............................................
 72
    65
 73
     2
 40
0.000110
 49
0.000000
 49
-0.000110
  0
LTYPE
  2
DASHDOT
 70
    64
  3
__ . __ . __ . __ . __ . __ . __ . __ . __ . __
 72
    65
 73
     4
 40
0.000440
 49
0.000220
 49
-0.000110
 49
0.000000
 49
-0.000110
  0
LTYPE
  2
BORDER
 70
    64
  3
__ __ . __ __ . __ __ . __ __ . __ __ . __ __
 72
    65
 73
     6
 40
0.000770
 49
0.000220
 49
-0.000110
 49
0.000220
 49
-0.000110
 49
0.000000
 49
-0.000110
  0
LTYPE
  2
DIVIDE
 70
    64
  3
__ . . __ . . __ . . __ . . __ . . __ . . __
 72
    65
 73
     6
 40
0.000550
 49
0.000220
 49
-0.000110
 49
0.000000
 49
-0.000110
 49
0.000000
 49
-0.000110
  0
LTYPE
  2
DOTDOT
 70
    64
  3
 . .  . .  . .  . .  . .  . . 
 72
    65
 73
     5
 40
0.000242
 49
-0.000110
 49
0.000000
 49
-0.000110
 49
0.000000
 49
-0.000110
  0
ENDTAB
  0
TABLE
  2
STYLE
 70
     2
  0
STYLE
 70
     0
  2
SN0
 40
0.000000
 41
0.000440
 50
0.000000
 71
     0
 42
0.000000
  3
ROMAND
  0
STYLE
 70
    68
  2
SV0
 40
0.000000
 41
0.000440
 50
0.000000
 71
     0
 42
0.000000
  3
ROMAND
  0
ENDTAB
  0
TABLE
  2
LAYER
 70
     3
  0
LAYER
  2
FOREGROUND
 70
    64
 62
     7
  6
CONTINUOUS
  0
LAYER
  2
BACKGROUND
 70
    65
 62
    -7
  6
CONTINUOUS
  0
LAYER
  2
0
 70
    64
 62
     7
  6
CONTINUOUS
  0
ENDTAB
  0
ENDSEC
  0
SECTION
  2
ENTITIES
  0
POLYLINE
  8
FOREGROUND
  6
CONTINUOUS
 66
     1
 40
0.000000
 41
0.000000
  0
VERTEX
  8
FOREGROUND
  6
CONTINUOUS
 10
0.000000
 20
3.518240
  0
VERTEX
  8
FOREGROUND
  6
CONTINUOUS
 10
8.499920
 20
3.518240
  0
VERTEX
  8
FOREGROUND
  6
CONTINUOUS
 10
8.499920
 20
-7.481760
  0
VERTEX
  8
FOREGROUND
  6
CONTINUOUS
 10
0.000000
 20
-7.481760
  0
VERTEX
  8
FOREGROUND
  6
CONTINUOUS
 10
0.000000
 20
3.518240
  0
SEQEND
  8
0
  0
POLYLINE
  8
FOREGROUND
  6
CONTINUOUS
 66
     1
 40
0.000000
 41
0.000000
  0
VERTEX
  8
FOREGROUND
  6
CONTINUOUS
 10
0.000000
 20
3.518240
  0
VERTEX
  8
FOREGROUND
  6
CONTINUOUS
 10
8.499920
 20
3.518240
  0
VERTEX
  8
FOREGROUND
  6
CONTINUOUS
 10
8.499920
 20
-7.481760
  0
VERTEX
  8
FOREGROUND
  6
CONTINUOUS
 10
0.000000
 20
-7.481760
  0
VERTEX
  8
FOREGROUND
  6
CONTINUOUS
 10
0.000000
 20
3.518240
  0
SEQEND
  8
0
  0
SOLID
  8
0
 62
    15
 10
4.239840
 20
1.960640
 11
4.883560
 21
2.332880
 12
4.298360
 22
1.860760
 13
4.941640
 23
2.233000
  0
POLYLINE
  8
0
  6
CONTINUOUS
 66
     1
 40
0.000000
 41
0.000000
  0
VERTEX
  8
0
  6
CONTINUOUS
 10
4.239840
 20
1.960640
  0
VERTEX
  8
0
  6
CONTINUOUS
 10
4.883560
 20
2.332880
  0
VERTEX
  8
0
  6
CONTINUOUS
 10
4.941640
 20
2.233000
  0
VERTEX
  8
0
  6
CONTINUOUS
 10
4.298360
 20
1.860760
  0
VERTEX
  8
0
  6
CONTINUOUS
 10
4.239840
 20
1.960640
  0
SEQEND
  8
0
  0
SOLID
  8
0
 62
    15
 10
3.506800
 20
2.713480
 11
4.150080
 21
3.085720
 12
3.551680
 22
2.724040
 13
4.195400
 23
3.096280
  0
POLYLINE
  8
0
  6
CONTINUOUS
 66
     1
 40
0.000000
 41
0.000000
  0
VERTEX
  8
0
  6
CONTINUOUS
 10
3.506800
 20
2.713480
  0
VERTEX
  8
0
  6
CONTINUOUS
 10
4.150080
 20
3.085720
  0
VERTEX
  8
0
  6
CONTINUOUS
 10
4.195400
 20
3.096280
  0
VERTEX
  8
0
  6
CONTINUOUS
 10
3.551680
 20
2.724040
  0
VERTEX
  8
0
  6
CONTINUOUS
 10
3.506800
 20
2.713480
  0
SEQEND
  8
0
  0
SOLID
  8
0
 62
    15
 10
3.551680
 20
2.724040
 11
4.195400
 21
3.096280
 12
3.593040
 22
2.728000
 13
4.236760
 23
3.100240
  0
POLYLINE
  8
0
  6
CONTINUOUS
 66
     1
 40
0.000000
 41
0.000000
  0
VERTEX
  8
0
  6
CONTINUOUS
 10
3.551680
 20
2.724040
  0
VERTEX
  8
0
  6
CONTINUOUS
 10
4.195400
 20
3.096280
  0
VERTEX
  8
0
  6
CONTINUOUS
 10
4.236760
 20
3.100240
  0
VERTEX
  8
0
  6
CONTINUOUS
 10
3.593040
 20
2.728000
  0
VERTEX
  8
0
  6
CONTINUOUS
 10
3.551680
 20
2.724040
  0
SEQEND
  8
0
  0
SOLID
  8
0
 62
    15
 10
3.593040
 20
2.728000
 11
4.236760
 21
3.100240
 12
3.630440
 22
2.726680
 13
4.274160
 23
3.098920
  0
POLYLINE
  8
0
  6
CONTINUOUS
 66
     1
 40
0.000000
 41
0.000000
  0
VERTEX
  8
0
  6
CONTINUOUS
 10
3.593040
 20
2.728000
  0
VERTEX
  8
0
  6
CONTINUOUS
 10
4.236760
 20
3.100240
  0
VERTEX
  8
0
  6
CONTINUOUS
 10
4.274160
 20
3.098920
  0
VERTEX
  8
0
  6
CONTINUOUS
 10
3.630440
 20
2.726680
  0
VERTEX
  8
0
  6
CONTINUOUS
 10
3.593040
 20
2.728000
  0
SEQEND
  8
0
  0
SOLID
  8
0
 62
    15
 10
3.630440
 20
2.726680
 11
4.274160
 21
3.098920
 12
3.694680
 22
2.710400
 13
4.337960
 23
3.082640
  0
POLYLINE
  8
0
  6
CONTINUOUS
 66
     1
 40
0.000000
 41
0.000000
  0
VERTEX
  8
0
  6
CONTINUOUS
 10
3.630440
 20
2.726680
  0
VERTEX
  8
0
  6
CONTINUOUS
 10
4.274160
 20
3.098920
  0
VERTEX
  8
0
  6
CONTINUOUS
 10
4.337960
 20
3.082640
  0
VERTEX
  8
0
  6
CONTINUOUS
 10
3.694680
 20
2.710400
  0
VERTEX
  8
0
  6
CONTINUOUS
 10
3.630440
 20
2.726680
  0
SEQEND
  8
0
  0
SOLID
  8
0
 62
    15
 10
3.694680
 20
2.710400
 11
4.337960
 21
3.082640
 12
3.745280
 22
2.679600
 13
4.388560
 23
3.051840
  0
POLYLINE
  8
0
  6
CONTINUOUS
 66
     1
 40
0.000000
 41
0.000000
  0
VERTEX
  8
0
  6
CONTINUOUS
 10
3.694680
 20
2.710400
  0
VERTEX
  8
0
  6
CONTINUOUS
 10
4.337960
 20
3.082640
  0
VERTEX
  8
0
  6
CONTINUOUS
 10
4.388560
 20
3.051840
  0
VERTEX
  8
0
  6
CONTINUOUS
 10
3.745280
 20
2.679600
  0
VERTEX
  8
0
  6
CONTINUOUS
 10
3.694680
 20
2.710400
  0
SEQEND
  8
0
  0
SOLID
  8
0
 62
    15
 10
3.745280
 20
2.679600
 11
4.388560
 21
3.051840
 12
3.783120
 22
2.640000
 13
4.426840
 23
3.012240
  0
POLYLINE
  8
0
  6
CONTINUOUS
 66
     1
 40
0.000000
 41
0.000000
  0
VERTEX
  8
0
  6
CONTINUOUS
 10
3.745280
 20
2.679600
  0
VERTEX
  8
0
  6
CONTINUOUS
 10
4.388560
 20
3.051840
  0
VERTEX
  8
0
  6
CONTINUOUS
 10
4.426840
 20
3.012240
  0
VERTEX
  8
0
  6
CONTINUOUS
 10
3.783120
 20
2.640000
  0
VERTEX
  8
0
  6
CONTINUOUS
 10
3.745280
 20
2.679600
  0
SEQEND
  8
0
  0
SOLID
  8
0
 62
    15
 10
3.783120
 20
2.640000
 11
4.426840
 21
3.012240
 12
3.809520
 22
2.596880
 13
4.453240
 23
2.969120
  0
POLYLINE
  8
0
  6
CONTINUOUS
 66
     1
 40
0.000000
 41
0.000000
  0
VERTEX
  8
0
  6
CONTINUOUS
 10
3.783120
 20
2.640000
  0
VERTEX
  8
0
  6
CONTINUOUS
 10
4.426840
 20
3.012240
  0
VERTEX
  8
0
  6
CONTINUOUS
 10
4.453240
 20
2.969120
  0
VERTEX
  8
0
  6
CONTINUOUS
 10
3.809520
 20
2.596880
  0
VERTEX
  8
0
  6
CONTINUOUS
 10
3.783120
 20
2.640000
  0
SEQEND
  8
0
  0
SOLID
  8
0
 62
    15
 10
3.809520
 20
2.596880
 11
4.453240
 21
2.969120
 12
3.825800
 22
2.555080
 13
4.469080
 23
2.927320
  0
POLYLINE
  8
0
  6
CONTINUOUS
 66
     1
 40
0.000000
 41
0.000000
  0
VERTEX
  8
0
  6
CONTINUOUS
 10
3.809520
 20
2.596880
  0
VERTEX
  8
0
  6
CONTINUOUS
 10
4.453240
 20
2.969120
  0
VERTEX
  8
0
  6
CONTINUOUS
 10
4.469080
 20
2.927320
  0
VERTEX
  8
0
  6
CONTINUOUS
 10
3.825800
 20
2.555080
  0
VERTEX
  8
0
  6
CONTINUOUS
 10
3.809520
 20
2.596880
  0
SEQEND
  8
0
  0
SOLID
  8
0
 62
    15
 10
3.825800
 20
2.555080
 11
4.469080
 21
2.927320
 12
3.832400
 22
2.519440
 13
4.475680
 23
2.892120
  0
POLYLINE
  8
0
  6
CONTINUOUS
 66
     1
 40
0.000000
 41
0.000000
  0
VERTEX
  8
0
  6
CONTINUOUS
 10
3.825800
 20
2.555080
  0
VERTEX
  8
0
  6
CONTINUOUS
 10
4.469080
 20
2.927320
  0
VERTEX
  8
0
  6
CONTINUOUS
 10
4.475680
 20
2.892120
  0
VERTEX
  8
0
  6
CONTINUOUS
 10
3.832400
 20
2.519440
  0
VERTEX
  8
0
  6
CONTINUOUS
 10
3.825800
 20
2.555080
  0
SEQEND
  8
0
  0
SOLID
  8
0
 62
    15
 10
3.832400
 20
2.519440
 11
4.475680
 21
2.892120
 12
3.828880
 22
2.459160
 13
4.472160
 23
2.831400
  0
POLYLINE
  8
0
  6
CONTINUOUS
 66
     1
 40
0.000000
 41
0.000000
  0
VERTEX
  8
0
  6
CONTINUOUS
 10
3.832400
 20
2.519440
  0
VERTEX
  8
0
  6
CONTINUOUS
 10
4.475680
 20
2.892120
  0
VERTEX
  8
0
  6
CONTINUOUS
 10
4.472160
 20
2.831400
  0
VERTEX
  8
0
  6
CONTINUOUS
 10
3.828880
 20
2.459160
  0
VERTEX
  8
0
  6
CONTINUOUS
 10
3.832400
 20
2.519440
  0
SEQEND
  8
0
  0
SOLID
  8
0
 62
    15
 10
3.828880
 20
2.459160
 11
4.472160
 21
2.831400
 12
3.806440
 22
2.398880
 13
4.449720
 23
2.771120
  0
POLYLINE
  8
0
  6
CONTINUOUS
 66
     1
 40
0.000000
 41
0.000000
  0
VERTEX
  8
0
  6
CONTINUOUS
 10
3.828880
 20
2.459160
  0
VERTEX
  8
0
  6
CONTINUOUS
 10
4.472160
 20
2.831400
  0
VERTEX
  8
0
  6
CONTINUOUS
 10
4.449720
 20
2.771120
  0
VERTEX
  8
0
  6
CONTINUOUS
 10
3.806440
 20
2.398880
  0
VERTEX
  8
0
  6
CONTINUOUS
 10
3.828880
 20
2.459160
  0
SEQEND
  8
0
  0
SOLID
  8
0
 62
    15
 10
3.806440
 20
2.398880
 11
4.449720
 21
2.771120
 12
3.760680
 22
2.338160
 13
4.404400
 23
2.710400
  0
POLYLINE
  8
0
  6
CONTINUOUS
 66
     1
 40
0.000000
 41
0.000000
  0
VERTEX
  8
0
  6
CONTINUOUS
 10
3.806440
 20
2.398880
  0
VERTEX
  8
0
  6
CONTINUOUS
 10
4.449720
 20
2.771120
  0
VERTEX
  8
0
  6
CONTINUOUS
 10
4.404400
 20
2.710400
  0
VERTEX
  8
0
  6
CONTINUOUS
 10
3.760680
 20
2.338160
  0
VERTEX
  8
0
  6
CONTINUOUS
 10
3.806440
 20
2.398880
  0
SEQEND
  8
0
  0
SOLID
  8
0
 62
    15
 10
3.760680
 20
2.338160
 11
4.404400
 21
2.710400
 12
3.728120
 22
2.307360
 13
4.371840
 23
2.679600
  0
POLYLINE
  8
0
  6
CONTINUOUS
 66
     1
 40
0.000000
 41
0.000000
  0
VERTEX
  8
0
  6
CONTINUOUS
 10
3.760680
 20
2.338160
  0
VERTEX
  8
0
  6
CONTINUOUS
 10
4.404400
 20
2.710400
  0
VERTEX
  8
0
  6
CONTINUOUS
 10
4.371840
 20
2.679600
  0
VERTEX
  8
0
  6
CONTINUOUS
 10
3.728120
 20
2.307360
  0
VERTEX
  8
0
  6
CONTINUOUS
 10
3.760680
 20
2.338160
  0
SEQEND
  8
0
  0
SOLID
  8
0
 62
    15
 10
3.728120
 20
2.307360
 11
4.371840
 21
2.679600
 12
3.688520
 22
2.276560
 13
4.331800
 23
2.648800
  0
POLYLINE
  8
0
  6
CONTINUOUS
 66
     1
 40
0.000000
 41
0.000000
  0
VERTEX
  8
0
  6
CONTINUOUS
 10
3.728120
 20
2.307360
  0
VERTEX
  8
0
  6
CONTINUOUS
 10
4.371840
 20
2.679600
  0
VERTEX
  8
0
  6
CONTINUOUS
 10
4.331800
 20
2.648800
  0
VERTEX
  8
0
  6
CONTINUOUS
 10
3.688520
 20
2.276560
  0
VERTEX
  8
0
  6
CONTINUOUS
 10
3.728120
 20
2.307360
  0
SEQEND
  8
0
  0
SOLID
  8
0
 62
    15
 10
3.688520
 20
2.276560
 11
4.331800
 21
2.648800
 12
3.734720
 22
2.200000
 13
4.378440
 23
2.572240
  0
POLYLINE
  8
0
  6
CONTINUOUS
 66
     1
 40
0.000000
 41
0.000000
  0
VERTEX
  8
0
  6
CONTINUOUS
 10
3.688520
 20
2.276560
  0
VERTEX
  8
0
  6
CONTINUOUS
 10
4.331800
 20
2.648800
  0
VERTEX
  8
0
  6
CONTINUOUS
 10
4.378440
 20
2.572240
  0
VERTEX
  8
0
  6
CONTINUOUS
 10
3.734720
 20
2.200000
  0
VERTEX
  8
0
  6
CONTINUOUS
 10
3.688520
 20
2.276560
  0
SEQEND
  8
0
  0
SOLID
  8
0
 62
    15
 10
3.734720
 20
2.200000
 11
4.378440
 21
2.572240
 12
3.796760
 22
2.134880
 13
4.440480
 23
2.507120
  0
POLYLINE
  8
0
  6
CONTINUOUS
 66
     1
 40
0.000000
 41
0.000000
  0
VERTEX
  8
0
  6
CONTINUOUS
 10
3.734720
 20
2.200000
  0
VERTEX
  8
0
  6
CONTINUOUS
 10
4.378440
 20
2.572240
  0
VERTEX
  8
0
  6
CONTINUOUS
 10
4.440480
 20
2.507120
  0
VERTEX
  8
0
  6
CONTINUOUS
 10
3.796760
 20
2.134880
  0
VERTEX
  8
0
  6
CONTINUOUS
 10
3.734720
 20
2.200000
  0
SEQEND
  8
0
  0
SOLID
  8
0
 62
    15
 10
3.796760
 20
2.134880
 11
4.440480
 21
2.507120
 12
3.869800
 22
2.080320
 13
4.513520
 23
2.452560
  0
POLYLINE
  8
0
  6
CONTINUOUS
 66
     1
 40
0.000000
 41
0.000000
  0
VERTEX
  8
0
  6
CONTINUOUS
 10
3.796760
 20
2.134880
  0
VERTEX
  8
0
  6
CONTINUOUS
 10
4.440480
 20
2.507120
  0
VERTEX
  8
0
  6
CONTINUOUS
 10
4.513520
 20
2.452560
  0
VERTEX
  8
0
  6
CONTINUOUS
 10
3.869800
 20
2.080320
  0
VERTEX
  8
0
  6
CONTINUOUS
 10
3.796760
 20
2.134880
  0
SEQEND
  8
0
  0
SOLID
  8
0
 62
    15
 10
3.869800
 20
2.080320
 11
4.513520
 21
2.452560
 12
3.949440
 22
2.036320
 13
4.592720
 23
2.408560
  0
POLYLINE
  8
0
  6
CONTINUOUS
 66
     1
 40
0.000000
 41
0.000000
  0
VERTEX
  8
0
  6
CONTINUOUS
 10
3.869800
 20
2.080320
  0
VERTEX
  8
0
  6
CONTINUOUS
 10
4.513520
 20
2.452560
  0
VERTEX
  8
0
  6
CONTINUOUS
 10
4.592720
 20
2.408560
  0
VERTEX
  8
0
  6
CONTINUOUS
 10
3.949440
 20
2.036320
  0
VERTEX
  8
0
  6
CONTINUOUS
 10
3.869800
 20
2.080320
  0
SEQEND
  8
0
  0
SOLID
  8
0
 62
    15
 10
3.949440
 20
2.036320
 11
4.592720
 21
2.408560
 12
4.030840
 22
2.002880
 13
4.674120
 23
2.375120
  0
POLYLINE
  8
0
  6
CONTINUOUS
 66
     1
 40
0.000000
 41
0.000000
  0
VERTEX
  8
0
  6
CONTINUOUS
 10
3.949440
 20
2.036320
  0
VERTEX
  8
0
  6
CONTINUOUS
 10
4.592720
 20
2.408560
  0
VERTEX
  8
0
  6
CONTINUOUS
 10
4.674120
 20
2.375120
  0
VERTEX
  8
0
  6
CONTINUOUS
 10
4.030840
 20
2.002880
  0
VERTEX
  8
0
  6
CONTINUOUS
 10
3.949440
 20
2.036320
  0
SEQEND
  8
0
  0
SOLID
  8
0
 62
    15
 10
4.030840
 20
2.002880
 11
4.674120
 21
2.375120
 12
4.109160
 22
1.979120
 13
4.752880
 23
2.351360
  0
POLYLINE
  8
0
  6
CONTINUOUS
 66
     1
 40
0.000000
 41
0.000000
  0
VERTEX
  8
0
  6
CONTINUOUS
 10
4.030840
 20
2.002880
  0
VERTEX
  8
0
  6
CONTINUOUS
 10
4.674120
 20
2.375120
  0
VERTEX
  8
0
  6
CONTINUOUS
 10
4.752880
 20
2.351360
  0
VERTEX
  8
0
  6
CONTINUOUS
 10
4.109160
 20
1.979120
  0
VERTEX
  8
0
  6
CONTINUOUS
 10
4.030840
 20
2.002880
  0
SEQEND
  8
0
  0
SOLID
  8
0
 62
    15
 10
4.109160
 20
1.979120
 11
4.752880
 21
2.351360
 12
4.180440
 22
1.965040
 13
4.824160
 23
2.337280
  0
POLYLINE
  8
0
  6
CONTINUOUS
 66
     1
 40
0.000000
 41
0.000000
  0
VERTEX
  8
0
  6
CONTINUOUS
 10
4.109160
 20
1.979120
  0
VERTEX
  8
0
  6
CONTINUOUS
 10
4.752880
 20
2.351360
  0
VERTEX
  8
0
  6
CONTINUOUS
 10
4.824160
 20
2.337280
  0
VERTEX
  8
0
  6
CONTINUOUS
 10
4.180440
 20
1.965040
  0
VERTEX
  8
0
  6
CONTINUOUS
 10
4.109160
 20
1.979120
  0
SEQEND
  8
0
  0
SOLID
  8
0
 62
    15
 10
4.180440
 20
1.965040
 11
4.824160
 21
2.337280
 12
4.239840
 22
1.960640
 13
4.883560
 23
2.332880
  0
POLYLINE
  8
0
  6
CONTINUOUS
 66
     1
 40
0.000000
 41
0.000000
  0
VERTEX
  8
0
  6
CONTINUOUS
 10
4.180440
 20
1.965040
  0
VERTEX
  8
0
  6
CONTINUOUS
 10
4.824160
 20
2.337280
  0
VERTEX
  8
0
  6
CONTINUOUS
 10
4.883560
 20
2.332880
  0
VERTEX
  8
0
  6
CONTINUOUS
 10
4.239840
 20
1.960640
  0
VERTEX
  8
0
  6
CONTINUOUS
 10
4.180440
 20
1.965040
  0
SEQEND
  8
0
  0
SOLID
  8
0
 62
    15
 10
3.457520
 20
2.696320
 11
4.101240
 21
3.068560
 12
3.506800
 22
2.713480
 13
4.150080
 23
3.085720
  0
POLYLINE
  8
0
  6
CONTINUOUS
 66
     1
 40
0.000000
 41
0.000000
  0
VERTEX
  8
0
  6
CONTINUOUS
 10
3.457520
 20
2.696320
  0
VERTEX
  8
0
  6
CONTINUOUS
 10
4.101240
 20
3.068560
  0
VERTEX
  8
0
  6
CONTINUOUS
 10
4.150080
 20
3.085720
  0
VERTEX
  8
0
  6
CONTINUOUS
 10
3.506800
 20
2.713480
  0
VERTEX
  8
0
  6
CONTINUOUS
 10
3.457520
 20
2.696320
  0
SEQEND
  8
0
  0
SOLID
  8
0
 62
    15
 10
4.298360
 20
1.860760
 11
4.941640
 21
2.233000
 12
4.373160
 22
1.859880
 13
5.016440
 23
2.232120
  0
POLYLINE
  8
0
  6
CONTINUOUS
 66
     1
 40
0.000000
 41
0.000000
  0
VERTEX
  8
0
  6
CONTINUOUS
 10
4.298360
 20
1.860760
  0
VERTEX
  8
0
  6
CONTINUOUS
 10
4.941640
 20
2.233000
  0
VERTEX
  8
0
  6
CONTINUOUS
 10
5.016440
 20
2.232120
  0
VERTEX
  8
0
  6
CONTINUOUS
 10
4.373160
 20
1.859880
  0
VERTEX
  8
0
  6
CONTINUOUS
 10
4.298360
 20
1.860760
  0
SEQEND
  8
0
  0
SOLID
  8
0
 62
    15
 10
4.373160
 20
1.859880
 11
5.016440
 21
2.232120
 12
4.440920
 22
1.847560
 13
5.084200
 23
2.219800
  0
POLYLINE
  8
0
  6
CONTINUOUS
 66
     1
 40
0.000000
 41
0.000000
  0
VERTEX
  8
0
  6
CONTINUOUS
 10
4.373160
 20
1.859880
  0
VERTEX
  8
0
  6
CONTINUOUS
 10
5.016440
 20
2.232120
  0
VERTEX
  8
0
  6
CONTINUOUS
 10
5.084200
 20
2.219800
  0
VERTEX
  8
0
  6
CONTINUOUS
 10
4.440920
 20
1.847560
  0
VERTEX
  8
0
  6
CONTINUOUS
 10
4.373160
 20
1.859880
  0
SEQEND
  8
0
  0
SOLID
  8
0
 62
    15
 10
4.440920
 20
1.847560
 11
5.084200
 21
2.219800
 12
4.501640
 22
1.825120
 13
5.144920
 23
2.197800
  0
POLYLINE
  8
0
  6
CONTINUOUS
 66
     1
 40
0.000000
 41
0.000000
  0
VERTEX
  8
0
  6
CONTINUOUS
 10
4.440920
 20
1.847560
  0
VERTEX
  8
0
  6
CONTINUOUS
 10
5.084200
 20
2.219800
  0
VERTEX
  8
0
  6
CONTINUOUS
 10
5.144920
 20
2.197800
  0
VERTEX
  8
0
  6
CONTINUOUS
 10
4.501640
 20
1.825120
  0
VERTEX
  8
0
  6
CONTINUOUS
 10
4.440920
 20
1.847560
  0
SEQEND
  8
0
  0
SOLID
  8
0
 62
    15
 10
4.501640
 20
1.825120
 11
5.144920
 21
2.197800
 12
4.555320
 22
1.794320
 13
5.198600
 23
2.166560
  0
POLYLINE
  8
0
  6
CONTINUOUS
 66
     1
 40
0.000000
 41
0.000000
  0
VERTEX
  8
0
  6
CONTINUOUS
 10
4.501640
 20
1.825120
  0
VERTEX
  8
0
  6
CONTINUOUS
 10
5.144920
 20
2.197800
  0
VERTEX
  8
0
  6
CONTINUOUS
 10
5.198600
 20
2.166560
  0
VERTEX
  8
0
  6
CONTINUOUS
 10
4.555320
 20
1.794320
  0
VERTEX
  8
0
  6
CONTINUOUS
 10
4.501640
 20
1.825120
  0
SEQEND
  8
0
  0
SOLID
  8
0
 62
    15
 10
4.555320
 20
1.794320
 11
5.198600
 21
2.166560
 12
4.601520
 22
1.756040
 13
5.245240
 23
2.128280
  0
POLYLINE
  8
0
  6
CONTINUOUS
 66
     1
 40
0.000000
 41
0.000000
  0
VERTEX
  8
0
  6
CONTINUOUS
 10
4.555320
 20
1.794320
  0
VERTEX
  8
0
  6
CONTINUOUS
 10
5.198600
 20
2.166560
  0
VERTEX
  8
0
  6
CONTINUOUS
 10
5.245240
 20
2.128280
  0
VERTEX
  8
0
  6
CONTINUOUS
 10
4.601520
 20
1.756040
  0
VERTEX
  8
0
  6
CONTINUOUS
 10
4.555320
 20
1.794320
  0
SEQEND
  8
0
  0
SOLID
  8
0
 62
    15
 10
4.601520
 20
1.756040
 11
5.245240
 21
2.128280
 12
4.640680
 22
1.711160
 13
5.283960
 23
2.083400
  0
POLYLINE
  8
0
  6
CONTINUOUS
 66
     1
 40
0.000000
 41
0.000000
  0
VERTEX
  8
0
  6
CONTINUOUS
 10
4.601520
 20
1.756040
  0
VERTEX
  8
0
  6
CONTINUOUS
 10
5.245240
 20
2.128280
  0
VERTEX
  8
0
  6
CONTINUOUS
 10
5.283960
 20
2.083400
  0
VERTEX
  8
0
  6
CONTINUOUS
 10
4.640680
 20
1.711160
  0
VERTEX
  8
0
  6
CONTINUOUS
 10
4.601520
 20
1.756040
  0
SEQEND
  8
0
  0
SOLID
  8
0
 62
    15
 10
4.640680
 20
1.711160
 11
5.283960
 21
2.083400
 12
4.672360
 22
1.661000
 13
5.315640
 23
2.033240
  0
POLYLINE
  8
0
  6
CONTINUOUS
 66
     1
 40
0.000000
 41
0.000000
  0
VERTEX
  8
0
  6
CONTINUOUS
 10
4.640680
 20
1.711160
  0
VERTEX
  8
0
  6
CONTINUOUS
 10
5.283960
 20
2.083400
  0
VERTEX
  8
0
  6
CONTINUOUS
 10
5.315640
 20
2.033240
  0
VERTEX
  8
0
  6
CONTINUOUS
 10
4.672360
 20
1.661000
  0
VERTEX
  8
0
  6
CONTINUOUS
 10
4.640680
 20
1.711160
  0
SEQEND
  8
0
  0
SOLID
  8
0
 62
    15
 10
4.672360
 20
1.661000
 11
5.315640
 21
2.033240
 12
4.696120
 22
1.606880
 13
5.339840
 23
1.979120
  0
POLYLINE
  8
0
  6
CONTINUOUS
 66
     1
 40
0.000000
 41
0.000000
  0
VERTEX
  8
0
  6
CONTINUOUS
 10
4.672360
 20
1.661000
  0
VERTEX
  8
0
  6
CONTINUOUS
 10
5.315640
 20
2.033240
  0
VERTEX
  8
0
  6
CONTINUOUS
 10
5.339840
 20
1.979120
  0
VERTEX
  8
0
  6
CONTINUOUS
 10
4.696120
 20
1.606880
  0
VERTEX
  8
0
  6
CONTINUOUS
 10
4.672360
 20
1.661000
  0
SEQEND
  8
0
  0
SOLID
  8
0
 62
    15
 10
4.696120
 20
1.606880
 11
5.339840
 21
1.979120
 12
4.712400
 22
1.550120
 13
5.356120
 23
1.922360
  0
POLYLINE
  8
0
  6
CONTINUOUS
 66
     1
 40
0.000000
 41
0.000000
  0
VERTEX
  8
0
  6
CONTINUOUS
 10
4.696120
 20
1.606880
  0
VERTEX
  8
0
  6
CONTINUOUS
 10
5.339840
 20
1.979120
  0
VERTEX
  8
0
  6
CONTINUOUS
 10
5.356120
 20
1.922360
  0
VERTEX
  8
0
  6
CONTINUOUS
 10
4.712400
 20
1.550120
  0
VERTEX
  8
0
  6
CONTINUOUS
 10
4.696120
 20
1.606880
  0
SEQEND
  8
0
  0
SOLID
  8
0
 62
    15
 10
4.712400
 20
1.550120
 11
5.356120
 21
1.922360
 12
4.721200
 22
1.491600
 13
5.364480
 23
1.863840
  0
POLYLINE
  8
0
  6
CONTINUOUS
 66
     1
 40
0.000000
 41
0.000000
  0
VERTEX
  8
0
  6
CONTINUOUS
 10
4.712400
 20
1.550120
  0
VERTEX
  8
0
  6
CONTINUOUS
 10
5.356120
 20
1.922360
  0
VERTEX
  8
0
  6
CONTINUOUS
 10
5.364480
 20
1.863840
  0
VERTEX
  8
0
  6
CONTINUOUS
 10
4.721200
 20
1.491600
  0
VERTEX
  8
0
  6
CONTINUOUS
 10
4.712400
 20
1.550120
  0
SEQEND
  8
0
  0
SOLID
  8
0
 62
    15
 10
4.721200
 20
1.491600
 11
5.364480
 21
1.863840
 12
4.721640
 22
1.432640
 13
5.365360
 23
1.804880
  0
POLYLINE
  8
0
  6
CONTINUOUS
 66
     1
 40
0.000000
 41
0.000000
  0
VERTEX
  8
0
  6
CONTINUOUS
 10
4.721200
 20
1.491600
  0
VERTEX
  8
0
  6
CONTINUOUS
 10
5.364480
 20
1.863840
  0
VERTEX
  8
0
  6
CONTINUOUS
 10
5.365360
 20
1.804880
  0
VERTEX
  8
0
  6
CONTINUOUS
 10
4.721640
 20
1.432640
  0
VERTEX
  8
0
  6
CONTINUOUS
 10
4.721200
 20
1.491600
  0
SEQEND
  8
0
  0
SOLID
  8
0
 62
    15
 10
4.721640
 20
1.432640
 11
5.365360
 21
1.804880
 12
4.714600
 22
1.374560
 13
5.357880
 23
1.746800
  0
POLYLINE
  8
0
  6
CONTINUOUS
 66
     1
 40
0.000000
 41
0.000000
  0
VERTEX
  8
0
  6
CONTINUOUS
 10
4.721640
 20
1.432640
  0
VERTEX
  8
0
  6
CONTINUOUS
 10
5.365360
 20
1.804880
  0
VERTEX
  8
0
  6
CONTINUOUS
 10
5.357880
 20
1.746800
  0
VERTEX
  8
0
  6
CONTINUOUS
 10
4.714600
 20
1.374560
  0
VERTEX
  8
0
  6
CONTINUOUS
 10
4.721640
 20
1.432640
  0
SEQEND
  8
0
  0
SOLID
  8
0
 62
    15
 10
4.714600
 20
1.374560
 11
5.357880
 21
1.746800
 12
4.699200
 22
1.318680
 13
5.342480
 23
1.690920
  0
POLYLINE
  8
0
  6
CONTINUOUS
 66
     1
 40
0.000000
 41
0.000000
  0
VERTEX
  8
0
  6
CONTINUOUS
 10
4.714600
 20
1.374560
  0
VERTEX
  8
0
  6
CONTINUOUS
 10
5.357880
 20
1.746800
  0
VERTEX
  8
0
  6
CONTINUOUS
 10
5.342480
 20
1.690920
  0
VERTEX
  8
0
  6
CONTINUOUS
 10
4.699200
 20
1.318680
  0
VERTEX
  8
0
  6
CONTINUOUS
 10
4.714600
 20
1.374560
  0
SEQEND
  8
0
  0
SOLID
  8
0
 62
    15
 10
4.699200
 20
1.318680
 11
5.342480
 21
1.690920
 12
4.675440
 22
1.265880
 13
5.318720
 23
1.638120
  0
POLYLINE
  8
0
  6
CONTINUOUS
 66
     1
 40
0.000000
 41
0.000000
  0
VERTEX
  8
0
  6
CONTINUOUS
 10
4.699200
 20
1.318680
  0
VERTEX
  8
0
  6
CONTINUOUS
 10
5.342480
 20
1.690920
  0
VERTEX
  8
0
  6
CONTINUOUS
 10
5.318720
 20
1.638120
  0
VERTEX
  8
0
  6
CONTINUOUS
 10
4.675440
 20
1.265880
  0
VERTEX
  8
0
  6
CONTINUOUS
 10
4.699200
 20
1.318680
  0
SEQEND
  8
0
  0
SOLID
  8
0
 62
    15
 10
4.675440
 20
1.265880
 11
5.318720
 21
1.638120
 12
4.643320
 22
1.217480
 13
5.287040
 23
1.589720
  0
POLYLINE
  8
0
  6
CONTINUOUS
 66
     1
 40
0.000000
 41
0.000000
  0
VERTEX
  8
0
  6
CONTINUOUS
 10
4.675440
 20
1.265880
  0
VERTEX
  8
0
  6
CONTINUOUS
 10
5.318720
 20
1.638120
  0
VERTEX
  8
0
  6
CONTINUOUS
 10
5.287040
 20
1.589720
  0
VERTEX
  8
0
  6
CONTINUOUS
 10
4.643320
 20
1.217480
  0
VERTEX
  8
0
  6
CONTINUOUS
 10
4.675440
 20
1.265880
  0
SEQEND
  8
0
  0
SOLID
  8
0
 62
    15
 10
4.643320
 20
1.217480
 11
5.287040
 21
1.589720
 12
4.603280
 22
1.174800
 13
5.246560
 23
1.547040
  0
POLYLINE
  8
0
  6
CONTINUOUS
 66
     1
 40
0.000000
 41
0.000000
  0
VERTEX
  8
0
  6
CONTINUOUS
 10
4.643320
 20
1.217480
  0
VERTEX
  8
0
  6
CONTINUOUS
 10
5.287040
 20
1.589720
  0
VERTEX
  8
0
  6
CONTINUOUS
 10
5.246560
 20
1.547040
  0
VERTEX
  8
0
  6
CONTINUOUS
 10
4.603280
 20
1.174800
  0
VERTEX
  8
0
  6
CONTINUOUS
 10
4.643320
 20
1.217480
  0
SEQEND
  8
0
  0
SOLID
  8
0
 62
    15
 10
4.617800
 20
1.092080
 11
5.261520
 21
1.464320
 12
4.589640
 22
1.070520
 13
5.233360
 23
1.442760
  0
POLYLINE
  8
0
  6
CONTINUOUS
 66
     1
 40
0.000000
 41
0.000000
  0
VERTEX
  8
0
  6
CONTINUOUS
 10
4.617800
 20
1.092080
  0
VERTEX
  8
0
  6
CONTINUOUS
 10
5.261520
 20
1.464320
  0
VERTEX
  8
0
  6
CONTINUOUS
 10
5.233360
 20
1.442760
  0
VERTEX
  8
0
  6
CONTINUOUS
 10
4.589640
 20
1.070520
  0
VERTEX
  8
0
  6
CONTINUOUS
 10
4.617800
 20
1.092080
  0
SEQEND
  8
0
  0
SOLID
  8
0
 62
    15
 10
4.642000
 20
1.107920
 11
5.285720
 21
1.480160
 12
4.617800
 22
1.092080
 13
5.261520
 23
1.464320
  0
POLYLINE
  8
0
  6
CONTINUOUS
 66
     1
 40
0.000000
 41
0.000000
  0
VERTEX
  8
0
  6
CONTINUOUS
 10
4.642000
 20
1.107920
  0
VERTEX
  8
0
  6
CONTINUOUS
 10
5.285720
 20
1.480160
  0
VERTEX
  8
0
  6
CONTINUOUS
 10
5.261520
 20
1.464320
  0
VERTEX
  8
0
  6
CONTINUOUS
 10
4.617800
 20
1.092080
  0
VERTEX
  8
0
  6
CONTINUOUS
 10
4.642000
 20
1.107920
  0
SEQEND
  8
0
  0
SOLID
  8
0
 62
    15
 10
4.603280
 20
1.174800
 11
5.246560
 21
1.547040
 12
4.642000
 22
1.107920
 13
5.285720
 23
1.480160
  0
POLYLINE
  8
0
  6
CONTINUOUS
 66
     1
 40
0.000000
 41
0.000000
  0
VERTEX
  8
0
  6
CONTINUOUS
 10
4.603280
 20
1.174800
  0
VERTEX
  8
0
  6
CONTINUOUS
 10
5.246560
 20
1.547040
  0
VERTEX
  8
0
  6
CONTINUOUS
 10
5.285720
 20
1.480160
  0
VERTEX
  8
0
  6
CONTINUOUS
 10
4.642000
 20
1.107920
  0
VERTEX
  8
0
  6
CONTINUOUS
 10
4.603280
 20
1.174800
  0
SEQEND
  8
0
  0
SOLID
  8
0
 62
    15
 10
4.589640
 20
1.070520
 11
5.233360
 21
1.442760
 12
4.529800
 22
1.014640
 13
5.173520
 23
1.386880
  0
POLYLINE
  8
0
  6
CONTINUOUS
 66
     1
 40
0.000000
 41
0.000000
  0
VERTEX
  8
0
  6
CONTINUOUS
 10
4.589640
 20
1.070520
  0
VERTEX
  8
0
  6
CONTINUOUS
 10
5.233360
 20
1.442760
  0
VERTEX
  8
0
  6
CONTINUOUS
 10
5.173520
 20
1.386880
  0
VERTEX
  8
0
  6
CONTINUOUS
 10
4.529800
 20
1.014640
  0
VERTEX
  8
0
  6
CONTINUOUS
 10
4.589640
 20
1.070520
  0
SEQEND
  8
0
  0
SOLID
  8
0
 62
    15
 10
4.529800
 20
1.014640
 11
5.173520
 21
1.386880
 12
4.476560
 22
0.949080
 13
5.120280
 23
1.321320
  0
POLYLINE
  8
0
  6
CONTINUOUS
 66
     1
 40
0.000000
 41
0.000000
  0
VERTEX
  8
0
  6
CONTINUOUS
 10
4.529800
 20
1.014640
  0
VERTEX
  8
0
  6
CONTINUOUS
 10
5.173520
 20
1.386880
  0
VERTEX
  8
0
  6
CONTINUOUS
 10
5.120280
 20
1.321320
  0
VERTEX
  8
0
  6
CONTINUOUS
 10
4.476560
 20
0.949080
  0
VERTEX
  8
0
  6
CONTINUOUS
 10
4.529800
 20
1.014640
  0
SEQEND
  8
0
  0
SOLID
  8
0
 62
    15
 10
4.476560
 20
0.949080
 11
5.120280
 21
1.321320
 12
4.457200
 22
0.915200
 13
5.100480
 23
1.287880
  0
POLYLINE
  8
0
  6
CONTINUOUS
 66
     1
 40
0.000000
 41
0.000000
  0
VERTEX
  8
0
  6
CONTINUOUS
 10
4.476560
 20
0.949080
  0
VERTEX
  8
0
  6
CONTINUOUS
 10
5.120280
 20
1.321320
  0
VERTEX
  8
0
  6
CONTINUOUS
 10
5.100480
 20
1.287880
  0
VERTEX
  8
0
  6
CONTINUOUS
 10
4.457200
 20
0.915200
  0
VERTEX
  8
0
  6
CONTINUOUS
 10
4.476560
 20
0.949080
  0
SEQEND
  8
0
  0
SOLID
  8
0
 62
    15
 10
4.457200
 20
0.915200
 11
5.100480
 21
1.287880
 12
4.444440
 22
0.882640
 13
5.088160
 23
1.254880
  0
POLYLINE
  8
0
  6
CONTINUOUS
 66
     1
 40
0.000000
 41
0.000000
  0
VERTEX
  8
0
  6
CONTINUOUS
 10
4.457200
 20
0.915200
  0
VERTEX
  8
0
  6
CONTINUOUS
 10
5.100480
 20
1.287880
  0
VERTEX
  8
0
  6
CONTINUOUS
 10
5.088160
 20
1.254880
  0
VERTEX
  8
0
  6
CONTINUOUS
 10
4.444440
 20
0.882640
  0
VERTEX
  8
0
  6
CONTINUOUS
 10
4.457200
 20
0.915200
  0
SEQEND
  8
0
  0
POLYLINE
  8
0
  6
CONTINUOUS
 66
     1
 40
0.000000
 41
0.000000
  0
VERTEX
  8
0
  6
CONTINUOUS
 10
3.457520
 20
2.696320
  0
VERTEX
  8
0
  6
CONTINUOUS
 10
3.506800
 20
2.713480
  0
VERTEX
  8
0
  6
CONTINUOUS
 10
3.551680
 20
2.724040
  0
VERTEX
  8
0
  6
CONTINUOUS
 10
3.593040
 20
2.728000
  0
VERTEX
  8
0
  6
CONTINUOUS
 10
3.630440
 20
2.726680
  0
VERTEX
  8
0
  6
CONTINUOUS
 10
3.694680
 20
2.710400
  0
VERTEX
  8
0
  6
CONTINUOUS
 10
3.745280
 20
2.679600
  0
VERTEX
  8
0
  6
CONTINUOUS
 10
3.783120
 20
2.640000
  0
VERTEX
  8
0
  6
CONTINUOUS
 10
3.809520
 20
2.596880
  0
VERTEX
  8
0
  6
CONTINUOUS
 10
3.825800
 20
2.555080
  0
VERTEX
  8
0
  6
CONTINUOUS
 10
3.832400
 20
2.519440
  0
VERTEX
  8
0
  6
CONTINUOUS
 10
3.828880
 20
2.459160
  0
VERTEX
  8
0
  6
CONTINUOUS
 10
3.806440
 20
2.398880
  0
VERTEX
  8
0
  6
CONTINUOUS
 10
3.760680
 20
2.338160
  0
VERTEX
  8
0
  6
CONTINUOUS
 10
3.728120
 20
2.307360
  0
VERTEX
  8
0
  6
CONTINUOUS
 10
3.688520
 20
2.276560
  0
VERTEX
  8
0
  6
CONTINUOUS
 10
3.734720
 20
2.200000
  0
VERTEX
  8
0
  6
CONTINUOUS
 10
3.796760
 20
2.134880
  0
VERTEX
  8
0
  6
CONTINUOUS
 10
3.869800
 20
2.080320
  0
VERTEX
  8
0
  6
CONTINUOUS
 10
3.949440
 20
2.036320
  0
VERTEX
  8
0
  6
CONTINUOUS
 10
4.030840
 20
2.002880
  0
VERTEX
  8
0
  6
CONTINUOUS
 10
4.109160
 20
1.979120
  0
VERTEX
  8
0
  6
CONTINUOUS
 10
4.180440
 20
1.965040
  0
VERTEX
  8
0
  6
CONTINUOUS
 10
4.239840
 20
1.960640
  0
VERTEX
  8
0
  6
CONTINUOUS
 10
4.298360
 20
1.860760
  0
VERTEX
  8
0
  6
CONTINUOUS
 10
4.373160
 20
1.859880
  0
VERTEX
  8
0
  6
CONTINUOUS
 10
4.440920
 20
1.847560
  0
VERTEX
  8
0
  6
CONTINUOUS
 10
4.501640
 20
1.825120
  0
VERTEX
  8
0
  6
CONTINUOUS
 10
4.555320
 20
1.794320
  0
VERTEX
  8
0
  6
CONTINUOUS
 10
4.601520
 20
1.756040
  0
VERTEX
  8
0
  6
CONTINUOUS
 10
4.640680
 20
1.711160
  0
VERTEX
  8
0
  6
CONTINUOUS
 10
4.672360
 20
1.661000
  0
VERTEX
  8
0
  6
CONTINUOUS
 10
4.696120
 20
1.606880
  0
VERTEX
  8
0
  6
CONTINUOUS
 10
4.712400
 20
1.550120
  0
VERTEX
  8
0
  6
CONTINUOUS
 10
4.721200
 20
1.491600
  0
VERTEX
  8
0
  6
CONTINUOUS
 10
4.721640
 20
1.432640
  0
VERTEX
  8
0
  6
CONTINUOUS
 10
4.714600
 20
1.374560
  0
VERTEX
  8
0
  6
CONTINUOUS
 10
4.699200
 20
1.318680
  0
VERTEX
  8
0
  6
CONTINUOUS
 10
4.675440
 20
1.265880
  0
VERTEX
  8
0
  6
CONTINUOUS
 10
4.643320
 20
1.217480
  0
VERTEX
  8
0
  6
CONTINUOUS
 10
4.603280
 20
1.174800
  0
VERTEX
  8
0
  6
CONTINUOUS
 10
4.642000
 20
1.107920
  0
VERTEX
  8
0
  6
CONTINUOUS
 10
4.617800
 20
1.092080
  0
VERTEX
  8
0
  6
CONTINUOUS
 10
4.589640
 20
1.070520
  0
VERTEX
  8
0
  6
CONTINUOUS
 10
4.529800
 20
1.014640
  0
VERTEX
  8
0
  6
CONTINUOUS
 10
4.476560
 20
0.949080
  0
VERTEX
  8
0
  6
CONTINUOUS
 10
4.457200
 20
0.915200
  0
VERTEX
  8
0
  6
CONTINUOUS
 10
4.444440
 20
0.882640
  0
VERTEX
  8
0
  6
CONTINUOUS
 10
4.287360
 20
0.923560
  0
VERTEX
  8
0
  6
CONTINUOUS
 10
4.284720
 20
1.422080
  0
VERTEX
  8
0
  6
CONTINUOUS
 10
3.914680
 20
1.413720
  0
VERTEX
  8
0
  6
CONTINUOUS
 10
3.463680
 20
2.185480
  0
VERTEX
  8
0
  6
CONTINUOUS
 10
3.457520
 20
2.696320
  0
SEQEND
  8
0
  0
TEXT
  8
0
 10
4.117080
 20
0.653400
 40
0.138226
  1
BA  511
 41
1.000000
  7
SN0
 71
     0
 72
     5
 11
4.707053
 21
0.653400
  0
TEXT
  8
0
 10
3.915120
 20
0.461560
 40
0.138226
  1
3/4" x 2-1/16"
 41
1.000000
  7
SN0
 71
     0
 72
     5
 11
4.907516
 21
0.461560
  0
POLYLINE
  8
0
  6
CONTINUOUS
 66
     1
 40
0.014080
 41
0.014080
  0
VERTEX
  8
0
  6
CONTINUOUS
 10
6.116880
 20
1.253560
  0
VERTEX
  8
0
  6
CONTINUOUS
 10
6.166160
 20
1.236400
  0
VERTEX
  8
0
  6
CONTINUOUS
 10
6.211040
 20
1.226280
  0
VERTEX
  8
0
  6
CONTINUOUS
 10
6.232160
 20
1.223200
  0
VERTEX
  8
0
  6
CONTINUOUS
 10
6.271760
 20
1.221880
  0
VERTEX
  8
0
  6
CONTINUOUS
 10
6.307400
 20
1.225840
  0
VERTEX
  8
0
  6
CONTINUOUS
 10
6.339080
 20
1.234200
  0
VERTEX
  8
0
  6
CONTINUOUS
 10
6.367680
 20
1.246080
  0
VERTEX
  8
0
  6
CONTINUOUS
 10
6.393200
 20
1.261480
  0
VERTEX
  8
0
  6
CONTINUOUS
 10
6.424880
 20
1.289200
  0
VERTEX
  8
0
  6
CONTINUOUS
 10
6.449960
 20
1.320440
  0
VERTEX
  8
0
  6
CONTINUOUS
 10
6.468880
 20
1.353440
  0
VERTEX
  8
0
  6
CONTINUOUS
 10
6.482080
 20
1.385120
  0
VERTEX
  8
0
  6
CONTINUOUS
 10
6.489560
 20
1.414160
  0
VERTEX
  8
0
  6
CONTINUOUS
 10
6.491760
 20
1.430440
  0
VERTEX
  8
0
  6
CONTINUOUS
 10
6.492200
 20
1.460800
  0
VERTEX
  8
0
  6
CONTINUOUS
 10
6.488240
 20
1.490720
  0
VERTEX
  8
0
  6
CONTINUOUS
 10
6.479440
 20
1.521080
  0
VERTEX
  8
0
  6
CONTINUOUS
 10
6.465360
 20
1.551000
  0
VERTEX
  8
0
  6
CONTINUOUS
 10
6.446000
 20
1.581360
  0
VERTEX
  8
0
  6
CONTINUOUS
 10
6.420040
 20
1.612160
  0
VERTEX
  8
0
  6
CONTINUOUS
 10
6.387480
 20
1.642520
  0
VERTEX
  8
0
  6
CONTINUOUS
 10
6.347440
 20
1.673320
  0
VERTEX
  8
0
  6
CONTINUOUS
 10
6.368560
 20
1.712920
  0
VERTEX
  8
0
  6
CONTINUOUS
 10
6.394080
 20
1.749880
  0
VERTEX
  8
0
  6
CONTINUOUS
 10
6.423560
 20
1.784200
  0
VERTEX
  8
0
  6
CONTINUOUS
 10
6.456120
 20
1.815440
  0
VERTEX
  8
0
  6
CONTINUOUS
 10
6.510240
 20
1.857240
  0
VERTEX
  8
0
  6
CONTINUOUS
 10
6.568320
 20
1.893320
  0
VERTEX
  8
0
  6
CONTINUOUS
 10
6.608800
 20
1.914000
  0
VERTEX
  8
0
  6
CONTINUOUS
 10
6.669520
 20
1.939960
  0
VERTEX
  8
0
  6
CONTINUOUS
 10
6.729800
 20
1.960640
  0
VERTEX
  8
0
  6
CONTINUOUS
 10
6.787000
 20
1.975600
  0
VERTEX
  8
0
  6
CONTINUOUS
 10
6.839800
 20
1.985280
  0
VERTEX
  8
0
  6
CONTINUOUS
 10
6.885560
 20
1.989240
  0
VERTEX
  8
0
  6
CONTINUOUS
 10
6.899200
 20
1.989680
  0
VERTEX
  8
0
  6
CONTINUOUS
 10
6.957280
 20
2.089560
  0
VERTEX
  8
0
  6
CONTINUOUS
 10
6.995560
 20
2.088680
  0
VERTEX
  8
0
  6
CONTINUOUS
 10
7.032080
 20
2.090440
  0
VERTEX
  8
0
  6
CONTINUOUS
 10
7.066840
 20
2.095280
  0
VERTEX
  8
0
  6
CONTINUOUS
 10
7.115680
 20
2.107160
  0
VERTEX
  8
0
  6
CONTINUOUS
 10
7.160560
 20
2.124760
  0
VERTEX
  8
0
  6
CONTINUOUS
 10
7.201480
 20
2.147200
  0
VERTEX
  8
0
  6
CONTINUOUS
 10
7.238440
 20
2.174040
  0
VERTEX
  8
0
  6
CONTINUOUS
 10
7.260880
 20
2.194280
  0
VERTEX
  8
0
  6
CONTINUOUS
 10
7.281120
 20
2.215840
  0
VERTEX
  8
0
  6
CONTINUOUS
 10
7.300040
 20
2.239160
  0
VERTEX
  8
0
  6
CONTINUOUS
 10
7.316760
 20
2.263800
  0
VERTEX
  8
0
  6
CONTINUOUS
 10
7.344480
 20
2.315720
  0
VERTEX
  8
0
  6
CONTINUOUS
 10
7.355480
 20
2.343440
  0
VERTEX
  8
0
  6
CONTINUOUS
 10
7.364720
 20
2.371600
  0
VERTEX
  8
0
  6
CONTINUOUS
 10
7.371760
 20
2.400200
  0
VERTEX
  8
0
  6
CONTINUOUS
 10
7.377040
 20
2.429240
  0
VERTEX
  8
0
  6
CONTINUOUS
 10
7.380120
 20
2.458720
  0
VERTEX
  8
0
  6
CONTINUOUS
 10
7.381440
 20
2.488200
  0
VERTEX
  8
0
  6
CONTINUOUS
 10
7.381000
 20
2.517240
  0
VERTEX
  8
0
  6
CONTINUOUS
 10
7.378360
 20
2.546720
  0
VERTEX
  8
0
  6
CONTINUOUS
 10
7.373520
 20
2.575320
  0
VERTEX
  8
0
  6
CONTINUOUS
 10
7.366920
 20
2.603920
  0
VERTEX
  8
0
  6
CONTINUOUS
 10
7.358120
 20
2.631640
  0
VERTEX
  8
0
  6
CONTINUOUS
 10
7.347560
 20
2.658480
  0
VERTEX
  8
0
  6
CONTINUOUS
 10
7.334360
 20
2.684440
  0
VERTEX
  8
0
  6
CONTINUOUS
 10
7.311480
 20
2.720960
  0
VERTEX
  8
0
  6
CONTINUOUS
 10
7.283320
 20
2.754840
  0
VERTEX
  8
0
  6
CONTINUOUS
 10
7.262200
 20
2.775520
  0
VERTEX
  8
0
  6
CONTINUOUS
 10
7.301360
 20
2.842400
  0
VERTEX
  8
0
  6
CONTINUOUS
 10
7.263520
 20
2.868360
  0
VERTEX
  8
0
  6
CONTINUOUS
 10
7.219080
 20
2.906200
  0
VERTEX
  8
0
  6
CONTINUOUS
 10
7.174640
 20
2.951520
  0
VERTEX
  8
0
  6
CONTINUOUS
 10
7.135920
 20
3.001240
  0
VERTEX
  8
0
  6
CONTINUOUS
 10
7.116560
 20
3.034680
  0
VERTEX
  8
0
  6
CONTINUOUS
 10
7.109080
 20
3.051400
  0
VERTEX
  8
0
  6
CONTINUOUS
 10
7.103800
 20
3.067680
  0
VERTEX
  8
0
  6
CONTINUOUS
 10
6.946720
 20
3.026320
  0
VERTEX
  8
0
  6
CONTINUOUS
 10
6.944080
 20
2.528240
  0
VERTEX
  8
0
  6
CONTINUOUS
 10
6.574040
 20
2.536600
  0
VERTEX
  8
0
  6
CONTINUOUS
 10
6.123040
 20
1.764840
  0
VERTEX
  8
0
  6
CONTINUOUS
 10
6.116880
 20
1.253560
  0
SEQEND
  8
0
  0
ENDSEC
  0
EOF
