  0
SECTION
  2
HEADER
  9
$ACADVER
  1
AC1006
  9
$EXTMIN
 10
3.105520
 20
0.471240
  9
$EXTMAX
 10
7.654680
 20
8.440080
  9
$LTSCALE
 40
0.044000
  9
$PDMODE
 70
    35
  9
$PDSIZE
 40
0.035200
  0
ENDSEC
  0
SECTION
  2
TABLES
  0
TABLE
  2
LTYPE
 70
     9
  0
LTYPE
  2
CONTINUOUS
 70
    64
  3
Solid line
 72
    65
 73
     0
 40
0.000000
  0
LTYPE
  2
DASHED
 70
    64
  3
__ __ __ __ __ __ __ __ __ __ __ __ __ __ __
 72
    65
 73
     2
 40
0.000330
 49
0.000220
 49
-0.000110
  0
LTYPE
  2
HIDDEN
 70
    64
  3
 _ _ _ _ _ _ _ _ _ _ _ _ _ _ _ _ _ _ _ _ _ _
 72
    65
 73
     2
 40
0.000165
 49
0.000110
 49
-0.000055
  0
LTYPE
  2
CENTER
 70
    64
  3
____ _ ____ _ ____ _ ____ _ ____ _ ____ _ ____
 72
    65
 73
     4
 40
0.000880
 49
0.000550
 49
-0.000110
 49
0.000110
 49
-0.000110
  0
LTYPE
  2
PHANTOM
 70
    64
  3
_____ _ _ _____ _ _ _____ _ _ _____ _ _ ____
 72
    65
 73
     6
 40
0.001100
 49
0.000550
 49
-0.000110
 49
0.000110
 49
-0.000110
 49
0.000110
 49
-0.000110
  0
LTYPE
  2
DOT
 70
    64
  3
...............................................
 72
    65
 73
     2
 40
0.000110
 49
0.000000
 49
-0.000110
  0
LTYPE
  2
DASHDOT
 70
    64
  3
__ . __ . __ . __ . __ . __ . __ . __ . __ . __
 72
    65
 73
     4
 40
0.000440
 49
0.000220
 49
-0.000110
 49
0.000000
 49
-0.000110
  0
LTYPE
  2
BORDER
 70
    64
  3
__ __ . __ __ . __ __ . __ __ . __ __ . __ __
 72
    65
 73
     6
 40
0.000770
 49
0.000220
 49
-0.000110
 49
0.000220
 49
-0.000110
 49
0.000000
 49
-0.000110
  0
LTYPE
  2
DIVIDE
 70
    64
  3
__ . . __ . . __ . . __ . . __ . . __ . . __
 72
    65
 73
     6
 40
0.000550
 49
0.000220
 49
-0.000110
 49
0.000000
 49
-0.000110
 49
0.000000
 49
-0.000110
  0
LTYPE
  2
DOTDOT
 70
    64
  3
 . .  . .  . .  . .  . .  . . 
 72
    65
 73
     5
 40
0.000242
 49
-0.000110
 49
0.000000
 49
-0.000110
 49
0.000000
 49
-0.000110
  0
ENDTAB
  0
TABLE
  2
STYLE
 70
     2
  0
STYLE
 70
     0
  2
SN0
 40
0.000000
 41
0.000440
 50
0.000000
 71
     0
 42
0.000000
  3
ROMAND
  0
STYLE
 70
    68
  2
SV0
 40
0.000000
 41
0.000440
 50
0.000000
 71
     0
 42
0.000000
  3
ROMAND
  0
ENDTAB
  0
TABLE
  2
LAYER
 70
     3
  0
LAYER
  2
FOREGROUND
 70
    64
 62
     7
  6
CONTINUOUS
  0
LAYER
  2
BACKGROUND
 70
    65
 62
    -7
  6
CONTINUOUS
  0
LAYER
  2
0
 70
    64
 62
     7
  6
CONTINUOUS
  0
ENDTAB
  0
ENDSEC
  0
SECTION
  2
ENTITIES
  0
POLYLINE
  8
FOREGROUND
  6
CONTINUOUS
 66
     1
 40
0.000000
 41
0.000000
  0
VERTEX
  8
FOREGROUND
  6
CONTINUOUS
 10
0.000000
 20
8.911320
  0
VERTEX
  8
FOREGROUND
  6
CONTINUOUS
 10
8.499920
 20
8.911320
  0
VERTEX
  8
FOREGROUND
  6
CONTINUOUS
 10
8.499920
 20
-2.088680
  0
VERTEX
  8
FOREGROUND
  6
CONTINUOUS
 10
0.000000
 20
-2.088680
  0
VERTEX
  8
FOREGROUND
  6
CONTINUOUS
 10
0.000000
 20
8.911320
  0
SEQEND
  8
0
  0
POLYLINE
  8
FOREGROUND
  6
CONTINUOUS
 66
     1
 40
0.000000
 41
0.000000
  0
VERTEX
  8
FOREGROUND
  6
CONTINUOUS
 10
0.000000
 20
8.911320
  0
VERTEX
  8
FOREGROUND
  6
CONTINUOUS
 10
8.499920
 20
8.911320
  0
VERTEX
  8
FOREGROUND
  6
CONTINUOUS
 10
8.499920
 20
-2.088680
  0
VERTEX
  8
FOREGROUND
  6
CONTINUOUS
 10
0.000000
 20
-2.088680
  0
VERTEX
  8
FOREGROUND
  6
CONTINUOUS
 10
0.000000
 20
8.911320
  0
SEQEND
  8
0
  0
POLYLINE
  8
0
  6
CONTINUOUS
 66
     1
 40
0.014080
 41
0.014080
  0
VERTEX
  8
0
  6
CONTINUOUS
 10
3.325520
 20
3.841200
  0
VERTEX
  8
0
  6
CONTINUOUS
 10
3.424520
 20
3.842080
  0
VERTEX
  8
0
  6
CONTINUOUS
 10
3.522200
 20
3.847360
  0
VERTEX
  8
0
  6
CONTINUOUS
 10
3.618120
 20
3.857040
  0
VERTEX
  8
0
  6
CONTINUOUS
 10
3.712280
 20
3.870680
  0
VERTEX
  8
0
  6
CONTINUOUS
 10
3.805120
 20
3.888720
  0
VERTEX
  8
0
  6
CONTINUOUS
 10
3.895760
 20
3.910280
  0
VERTEX
  8
0
  6
CONTINUOUS
 10
3.985080
 20
3.935360
  0
VERTEX
  8
0
  6
CONTINUOUS
 10
4.072200
 20
3.964400
  0
VERTEX
  8
0
  6
CONTINUOUS
 10
4.157560
 20
3.996520
  0
VERTEX
  8
0
  6
CONTINUOUS
 10
4.241160
 20
4.031720
  0
VERTEX
  8
0
  6
CONTINUOUS
 10
4.362600
 20
4.090240
  0
VERTEX
  8
0
  6
CONTINUOUS
 10
4.440920
 20
4.132480
  0
VERTEX
  8
0
  6
CONTINUOUS
 10
4.554440
 20
4.201120
  0
VERTEX
  8
0
  6
CONTINUOUS
 10
4.662680
 20
4.275040
  0
VERTEX
  8
0
  6
CONTINUOUS
 10
4.766080
 20
4.353800
  0
VERTEX
  8
0
  6
CONTINUOUS
 10
4.864200
 20
4.436960
  0
VERTEX
  8
0
  6
CONTINUOUS
 10
4.956600
 20
4.523640
  0
VERTEX
  8
0
  6
CONTINUOUS
 10
5.043280
 20
4.613400
  0
VERTEX
  8
0
  6
CONTINUOUS
 10
5.123800
 20
4.705800
  0
VERTEX
  8
0
  6
CONTINUOUS
 10
5.198600
 20
4.800400
  0
VERTEX
  8
0
  6
CONTINUOUS
 10
5.266800
 20
4.896320
  0
VERTEX
  8
0
  6
CONTINUOUS
 10
5.328400
 20
4.993120
  0
VERTEX
  8
0
  6
CONTINUOUS
 10
5.383840
 20
5.090360
  0
VERTEX
  8
0
  6
CONTINUOUS
 10
5.432240
 20
5.187600
  0
VERTEX
  8
0
  6
CONTINUOUS
 10
5.473600
 20
5.284400
  0
VERTEX
  8
0
  6
CONTINUOUS
 10
5.552800
 20
5.481080
  0
VERTEX
  8
0
  6
CONTINUOUS
 10
5.641240
 20
5.684360
  0
VERTEX
  8
0
  6
CONTINUOUS
 10
5.706800
 20
5.822080
  0
VERTEX
  8
0
  6
CONTINUOUS
 10
5.778080
 20
5.961120
  0
VERTEX
  8
0
  6
CONTINUOUS
 10
5.856840
 20
6.099720
  0
VERTEX
  8
0
  6
CONTINUOUS
 10
5.943080
 20
6.237440
  0
VERTEX
  8
0
  6
CONTINUOUS
 10
5.989280
 20
6.306080
  0
VERTEX
  8
0
  6
CONTINUOUS
 10
6.063200
 20
6.407280
  0
VERTEX
  8
0
  6
CONTINUOUS
 10
6.142400
 20
6.507160
  0
VERTEX
  8
0
  6
CONTINUOUS
 10
6.227320
 20
6.604840
  0
VERTEX
  8
0
  6
CONTINUOUS
 10
6.318840
 20
6.700760
  0
VERTEX
  8
0
  6
CONTINUOUS
 10
6.416520
 20
6.793600
  0
VERTEX
  8
0
  6
CONTINUOUS
 10
6.520800
 20
6.883360
  0
VERTEX
  8
0
  6
CONTINUOUS
 10
6.632560
 20
6.969600
  0
VERTEX
  8
0
  6
CONTINUOUS
 10
6.751800
 20
7.052320
  0
VERTEX
  8
0
  6
CONTINUOUS
 10
6.835840
 20
7.105120
  0
VERTEX
  8
0
  6
CONTINUOUS
 10
6.923400
 20
7.156160
  0
VERTEX
  8
0
  6
CONTINUOUS
 10
7.014920
 20
7.204560
  0
VERTEX
  8
0
  6
CONTINUOUS
 10
7.109960
 20
7.251200
  0
VERTEX
  8
0
  6
CONTINUOUS
 10
7.208960
 20
7.295640
  0
VERTEX
  8
0
  6
CONTINUOUS
 10
7.208080
 20
8.431720
  0
VERTEX
  8
0
  6
CONTINUOUS
 10
6.608800
 20
8.382880
  0
VERTEX
  8
0
  6
CONTINUOUS
 10
3.526160
 20
4.547840
  0
VERTEX
  8
0
  6
CONTINUOUS
 10
3.325520
 20
3.841200
  0
SEQEND
  8
0
  0
SOLID
  8
0
 62
    15
 10
5.254480
 20
2.324520
 11
5.919320
 21
1.958440
 12
5.128640
 22
2.065800
 13
5.793480
 23
1.699720
  0
POLYLINE
  8
0
  6
CONTINUOUS
 66
     1
 40
0.000000
 41
0.000000
  0
VERTEX
  8
0
  6
CONTINUOUS
 10
5.254480
 20
2.324520
  0
VERTEX
  8
0
  6
CONTINUOUS
 10
5.919320
 20
1.958440
  0
VERTEX
  8
0
  6
CONTINUOUS
 10
5.793480
 20
1.699720
  0
VERTEX
  8
0
  6
CONTINUOUS
 10
5.128640
 20
2.065800
  0
VERTEX
  8
0
  6
CONTINUOUS
 10
5.254480
 20
2.324520
  0
SEQEND
  8
0
  0
SOLID
  8
0
 62
    15
 10
6.989400
 20
4.335760
 11
7.654240
 21
3.969680
 12
6.616280
 22
4.145240
 13
7.281120
 23
3.779160
  0
POLYLINE
  8
0
  6
CONTINUOUS
 66
     1
 40
0.000000
 41
0.000000
  0
VERTEX
  8
0
  6
CONTINUOUS
 10
6.989400
 20
4.335760
  0
VERTEX
  8
0
  6
CONTINUOUS
 10
7.654240
 20
3.969680
  0
VERTEX
  8
0
  6
CONTINUOUS
 10
7.281120
 20
3.779160
  0
VERTEX
  8
0
  6
CONTINUOUS
 10
6.616280
 20
4.145240
  0
VERTEX
  8
0
  6
CONTINUOUS
 10
6.989400
 20
4.335760
  0
SEQEND
  8
0
  0
SOLID
  8
0
 62
    15
 10
6.616280
 20
4.145240
 11
7.281120
 21
3.779160
 12
6.301240
 22
3.923480
 13
6.966080
 23
3.557400
  0
POLYLINE
  8
0
  6
CONTINUOUS
 66
     1
 40
0.000000
 41
0.000000
  0
VERTEX
  8
0
  6
CONTINUOUS
 10
6.616280
 20
4.145240
  0
VERTEX
  8
0
  6
CONTINUOUS
 10
7.281120
 20
3.779160
  0
VERTEX
  8
0
  6
CONTINUOUS
 10
6.966080
 20
3.557400
  0
VERTEX
  8
0
  6
CONTINUOUS
 10
6.301240
 20
3.923480
  0
VERTEX
  8
0
  6
CONTINUOUS
 10
6.616280
 20
4.145240
  0
SEQEND
  8
0
  0
SOLID
  8
0
 62
    15
 10
6.301240
 20
3.923480
 11
6.966080
 21
3.557400
 12
6.037680
 22
3.677080
 13
6.702520
 23
3.311000
  0
POLYLINE
  8
0
  6
CONTINUOUS
 66
     1
 40
0.000000
 41
0.000000
  0
VERTEX
  8
0
  6
CONTINUOUS
 10
6.301240
 20
3.923480
  0
VERTEX
  8
0
  6
CONTINUOUS
 10
6.966080
 20
3.557400
  0
VERTEX
  8
0
  6
CONTINUOUS
 10
6.702520
 20
3.311000
  0
VERTEX
  8
0
  6
CONTINUOUS
 10
6.037680
 20
3.677080
  0
VERTEX
  8
0
  6
CONTINUOUS
 10
6.301240
 20
3.923480
  0
SEQEND
  8
0
  0
SOLID
  8
0
 62
    15
 10
6.037680
 20
3.677080
 11
6.702520
 21
3.311000
 12
5.818560
 22
3.413520
 13
6.483400
 23
3.047440
  0
POLYLINE
  8
0
  6
CONTINUOUS
 66
     1
 40
0.000000
 41
0.000000
  0
VERTEX
  8
0
  6
CONTINUOUS
 10
6.037680
 20
3.677080
  0
VERTEX
  8
0
  6
CONTINUOUS
 10
6.702520
 20
3.311000
  0
VERTEX
  8
0
  6
CONTINUOUS
 10
6.483400
 20
3.047440
  0
VERTEX
  8
0
  6
CONTINUOUS
 10
5.818560
 20
3.413520
  0
VERTEX
  8
0
  6
CONTINUOUS
 10
6.037680
 20
3.677080
  0
SEQEND
  8
0
  0
SOLID
  8
0
 62
    15
 10
5.818560
 20
3.413520
 11
6.483400
 21
3.047440
 12
5.637280
 22
3.139840
 13
6.302120
 23
2.773760
  0
POLYLINE
  8
0
  6
CONTINUOUS
 66
     1
 40
0.000000
 41
0.000000
  0
VERTEX
  8
0
  6
CONTINUOUS
 10
5.818560
 20
3.413520
  0
VERTEX
  8
0
  6
CONTINUOUS
 10
6.483400
 20
3.047440
  0
VERTEX
  8
0
  6
CONTINUOUS
 10
6.302120
 20
2.773760
  0
VERTEX
  8
0
  6
CONTINUOUS
 10
5.637280
 20
3.139840
  0
VERTEX
  8
0
  6
CONTINUOUS
 10
5.818560
 20
3.413520
  0
SEQEND
  8
0
  0
SOLID
  8
0
 62
    15
 10
5.637280
 20
3.139840
 11
6.302120
 21
2.773760
 12
5.487240
 22
2.862200
 13
6.152080
 23
2.496120
  0
POLYLINE
  8
0
  6
CONTINUOUS
 66
     1
 40
0.000000
 41
0.000000
  0
VERTEX
  8
0
  6
CONTINUOUS
 10
5.637280
 20
3.139840
  0
VERTEX
  8
0
  6
CONTINUOUS
 10
6.302120
 20
2.773760
  0
VERTEX
  8
0
  6
CONTINUOUS
 10
6.152080
 20
2.496120
  0
VERTEX
  8
0
  6
CONTINUOUS
 10
5.487240
 20
2.862200
  0
VERTEX
  8
0
  6
CONTINUOUS
 10
5.637280
 20
3.139840
  0
SEQEND
  8
0
  0
SOLID
  8
0
 62
    15
 10
5.487240
 20
2.862200
 11
6.152080
 21
2.496120
 12
5.361840
 22
2.588080
 13
6.026680
 23
2.222000
  0
POLYLINE
  8
0
  6
CONTINUOUS
 66
     1
 40
0.000000
 41
0.000000
  0
VERTEX
  8
0
  6
CONTINUOUS
 10
5.487240
 20
2.862200
  0
VERTEX
  8
0
  6
CONTINUOUS
 10
6.152080
 20
2.496120
  0
VERTEX
  8
0
  6
CONTINUOUS
 10
6.026680
 20
2.222000
  0
VERTEX
  8
0
  6
CONTINUOUS
 10
5.361840
 20
2.588080
  0
VERTEX
  8
0
  6
CONTINUOUS
 10
5.487240
 20
2.862200
  0
SEQEND
  8
0
  0
SOLID
  8
0
 62
    15
 10
5.361840
 20
2.588080
 11
6.026680
 21
2.222000
 12
5.254480
 22
2.324520
 13
5.919320
 23
1.958440
  0
POLYLINE
  8
0
  6
CONTINUOUS
 66
     1
 40
0.000000
 41
0.000000
  0
VERTEX
  8
0
  6
CONTINUOUS
 10
5.361840
 20
2.588080
  0
VERTEX
  8
0
  6
CONTINUOUS
 10
6.026680
 20
2.222000
  0
VERTEX
  8
0
  6
CONTINUOUS
 10
5.919320
 20
1.958440
  0
VERTEX
  8
0
  6
CONTINUOUS
 10
5.254480
 20
2.324520
  0
VERTEX
  8
0
  6
CONTINUOUS
 10
5.361840
 20
2.588080
  0
SEQEND
  8
0
  0
SOLID
  8
0
 62
    15
 10
6.988520
 20
5.471840
 11
7.653360
 21
5.105760
 12
6.989400
 22
4.335760
 13
7.654240
 23
3.969680
  0
POLYLINE
  8
0
  6
CONTINUOUS
 66
     1
 40
0.000000
 41
0.000000
  0
VERTEX
  8
0
  6
CONTINUOUS
 10
6.988520
 20
5.471840
  0
VERTEX
  8
0
  6
CONTINUOUS
 10
7.653360
 20
5.105760
  0
VERTEX
  8
0
  6
CONTINUOUS
 10
7.654240
 20
3.969680
  0
VERTEX
  8
0
  6
CONTINUOUS
 10
6.989400
 20
4.335760
  0
VERTEX
  8
0
  6
CONTINUOUS
 10
6.988520
 20
5.471840
  0
SEQEND
  8
0
  0
SOLID
  8
0
 62
    15
 10
5.128640
 20
2.065800
 11
5.793480
 21
1.699720
 12
4.954840
 22
1.808840
 13
5.619680
 23
1.442760
  0
POLYLINE
  8
0
  6
CONTINUOUS
 66
     1
 40
0.000000
 41
0.000000
  0
VERTEX
  8
0
  6
CONTINUOUS
 10
5.128640
 20
2.065800
  0
VERTEX
  8
0
  6
CONTINUOUS
 10
5.793480
 20
1.699720
  0
VERTEX
  8
0
  6
CONTINUOUS
 10
5.619680
 20
1.442760
  0
VERTEX
  8
0
  6
CONTINUOUS
 10
4.954840
 20
1.808840
  0
VERTEX
  8
0
  6
CONTINUOUS
 10
5.128640
 20
2.065800
  0
SEQEND
  8
0
  0
SOLID
  8
0
 62
    15
 10
4.954840
 20
1.808840
 11
5.619680
 21
1.442760
 12
4.737040
 22
1.563760
 13
5.401880
 23
1.197680
  0
POLYLINE
  8
0
  6
CONTINUOUS
 66
     1
 40
0.000000
 41
0.000000
  0
VERTEX
  8
0
  6
CONTINUOUS
 10
4.954840
 20
1.808840
  0
VERTEX
  8
0
  6
CONTINUOUS
 10
5.619680
 20
1.442760
  0
VERTEX
  8
0
  6
CONTINUOUS
 10
5.401880
 20
1.197680
  0
VERTEX
  8
0
  6
CONTINUOUS
 10
4.737040
 20
1.563760
  0
VERTEX
  8
0
  6
CONTINUOUS
 10
4.954840
 20
1.808840
  0
SEQEND
  8
0
  0
SOLID
  8
0
 62
    15
 10
4.737040
 20
1.563760
 11
5.401880
 21
1.197680
 12
4.478320
 22
1.341120
 13
5.143160
 23
0.975040
  0
POLYLINE
  8
0
  6
CONTINUOUS
 66
     1
 40
0.000000
 41
0.000000
  0
VERTEX
  8
0
  6
CONTINUOUS
 10
4.737040
 20
1.563760
  0
VERTEX
  8
0
  6
CONTINUOUS
 10
5.401880
 20
1.197680
  0
VERTEX
  8
0
  6
CONTINUOUS
 10
5.143160
 20
0.975040
  0
VERTEX
  8
0
  6
CONTINUOUS
 10
4.478320
 20
1.341120
  0
VERTEX
  8
0
  6
CONTINUOUS
 10
4.737040
 20
1.563760
  0
SEQEND
  8
0
  0
SOLID
  8
0
 62
    15
 10
4.478320
 20
1.341120
 11
5.143160
 21
0.975040
 12
4.182640
 22
1.151480
 13
4.847480
 23
0.784960
  0
POLYLINE
  8
0
  6
CONTINUOUS
 66
     1
 40
0.000000
 41
0.000000
  0
VERTEX
  8
0
  6
CONTINUOUS
 10
4.478320
 20
1.341120
  0
VERTEX
  8
0
  6
CONTINUOUS
 10
5.143160
 20
0.975040
  0
VERTEX
  8
0
  6
CONTINUOUS
 10
4.847480
 20
0.784960
  0
VERTEX
  8
0
  6
CONTINUOUS
 10
4.182640
 20
1.151480
  0
VERTEX
  8
0
  6
CONTINUOUS
 10
4.478320
 20
1.341120
  0
SEQEND
  8
0
  0
SOLID
  8
0
 62
    15
 10
4.182640
 20
1.151480
 11
4.847480
 21
0.784960
 12
3.853080
 22
1.004520
 13
4.517920
 23
0.638440
  0
POLYLINE
  8
0
  6
CONTINUOUS
 66
     1
 40
0.000000
 41
0.000000
  0
VERTEX
  8
0
  6
CONTINUOUS
 10
4.182640
 20
1.151480
  0
VERTEX
  8
0
  6
CONTINUOUS
 10
4.847480
 20
0.784960
  0
VERTEX
  8
0
  6
CONTINUOUS
 10
4.517920
 20
0.638440
  0
VERTEX
  8
0
  6
CONTINUOUS
 10
3.853080
 20
1.004520
  0
VERTEX
  8
0
  6
CONTINUOUS
 10
4.182640
 20
1.151480
  0
SEQEND
  8
0
  0
SOLID
  8
0
 62
    15
 10
3.853080
 20
1.004520
 11
4.517920
 21
0.638440
 12
3.493160
 22
0.911240
 13
4.158000
 23
0.545160
  0
POLYLINE
  8
0
  6
CONTINUOUS
 66
     1
 40
0.000000
 41
0.000000
  0
VERTEX
  8
0
  6
CONTINUOUS
 10
3.853080
 20
1.004520
  0
VERTEX
  8
0
  6
CONTINUOUS
 10
4.517920
 20
0.638440
  0
VERTEX
  8
0
  6
CONTINUOUS
 10
4.158000
 20
0.545160
  0
VERTEX
  8
0
  6
CONTINUOUS
 10
3.493160
 20
0.911240
  0
VERTEX
  8
0
  6
CONTINUOUS
 10
3.853080
 20
1.004520
  0
SEQEND
  8
0
  0
SOLID
  8
0
 62
    15
 10
3.493160
 20
0.911240
 11
4.158000
 21
0.545160
 12
3.302640
 22
0.887480
 13
3.967480
 23
0.521400
  0
POLYLINE
  8
0
  6
CONTINUOUS
 66
     1
 40
0.000000
 41
0.000000
  0
VERTEX
  8
0
  6
CONTINUOUS
 10
3.493160
 20
0.911240
  0
VERTEX
  8
0
  6
CONTINUOUS
 10
4.158000
 20
0.545160
  0
VERTEX
  8
0
  6
CONTINUOUS
 10
3.967480
 20
0.521400
  0
VERTEX
  8
0
  6
CONTINUOUS
 10
3.302640
 20
0.887480
  0
VERTEX
  8
0
  6
CONTINUOUS
 10
3.493160
 20
0.911240
  0
SEQEND
  8
0
  0
SOLID
  8
0
 62
    15
 10
3.302640
 20
0.887480
 11
3.967480
 21
0.521400
 12
3.105960
 22
0.881320
 13
3.771240
 23
0.515240
  0
POLYLINE
  8
0
  6
CONTINUOUS
 66
     1
 40
0.000000
 41
0.000000
  0
VERTEX
  8
0
  6
CONTINUOUS
 10
3.302640
 20
0.887480
  0
VERTEX
  8
0
  6
CONTINUOUS
 10
3.967480
 20
0.521400
  0
VERTEX
  8
0
  6
CONTINUOUS
 10
3.771240
 20
0.515240
  0
VERTEX
  8
0
  6
CONTINUOUS
 10
3.105960
 20
0.881320
  0
VERTEX
  8
0
  6
CONTINUOUS
 10
3.302640
 20
0.887480
  0
SEQEND
  8
0
  0
POLYLINE
  8
0
  6
CONTINUOUS
 66
     1
 40
0.000000
 41
0.000000
  0
VERTEX
  8
0
  6
CONTINUOUS
 10
3.306600
 20
1.587960
  0
VERTEX
  8
0
  6
CONTINUOUS
 10
3.386240
 20
1.688280
  0
VERTEX
  8
0
  6
CONTINUOUS
 10
6.389240
 20
5.423000
  0
VERTEX
  8
0
  6
CONTINUOUS
 10
6.988520
 20
5.471840
  0
VERTEX
  8
0
  6
CONTINUOUS
 10
6.989400
 20
4.335760
  0
VERTEX
  8
0
  6
CONTINUOUS
 10
6.616280
 20
4.145240
  0
VERTEX
  8
0
  6
CONTINUOUS
 10
6.301240
 20
3.923480
  0
VERTEX
  8
0
  6
CONTINUOUS
 10
6.037680
 20
3.677080
  0
VERTEX
  8
0
  6
CONTINUOUS
 10
5.818560
 20
3.413520
  0
VERTEX
  8
0
  6
CONTINUOUS
 10
5.637280
 20
3.139840
  0
VERTEX
  8
0
  6
CONTINUOUS
 10
5.487240
 20
2.862200
  0
VERTEX
  8
0
  6
CONTINUOUS
 10
5.361840
 20
2.588080
  0
VERTEX
  8
0
  6
CONTINUOUS
 10
5.254480
 20
2.324520
  0
VERTEX
  8
0
  6
CONTINUOUS
 10
5.128640
 20
2.065800
  0
VERTEX
  8
0
  6
CONTINUOUS
 10
4.954840
 20
1.808840
  0
VERTEX
  8
0
  6
CONTINUOUS
 10
4.737040
 20
1.563760
  0
VERTEX
  8
0
  6
CONTINUOUS
 10
4.478320
 20
1.341120
  0
VERTEX
  8
0
  6
CONTINUOUS
 10
4.182640
 20
1.151480
  0
VERTEX
  8
0
  6
CONTINUOUS
 10
3.853080
 20
1.004520
  0
VERTEX
  8
0
  6
CONTINUOUS
 10
3.493160
 20
0.911240
  0
VERTEX
  8
0
  6
CONTINUOUS
 10
3.302640
 20
0.887480
  0
VERTEX
  8
0
  6
CONTINUOUS
 10
3.105960
 20
0.881320
  0
VERTEX
  8
0
  6
CONTINUOUS
 10
3.306600
 20
1.587960
  0
SEQEND
  8
0
  0
TEXT
  8
0
 10
5.946600
 20
0.706640
 40
0.138065
  1
BA  510
 41
1.000000
  7
SN0
 71
     0
 72
     5
 11
6.536294
 21
0.706640
  0
TEXT
  8
0
 10
5.860360
 20
0.515240
 40
0.138065
  1
1-1/8" x 6"
 41
1.000000
  7
SN0
 71
     0
 72
     5
 11
6.621384
 21
0.515240
  0
ENDSEC
  0
EOF
