  0
SECTION
  2
HEADER
  9
$ACADVER
  1
AC1006
  9
$EXTMIN
 10
3.663000
 20
0.494120
  9
$EXTMAX
 10
7.376600
 20
3.645400
  9
$LTSCALE
 40
0.044000
  9
$PDMODE
 70
    35
  9
$PDSIZE
 40
0.035200
  0
ENDSEC
  0
SECTION
  2
TABLES
  0
TABLE
  2
LTYPE
 70
     9
  0
LTYPE
  2
CONTINUOUS
 70
    64
  3
Solid line
 72
    65
 73
     0
 40
0.000000
  0
LTYPE
  2
DASHED
 70
    64
  3
__ __ __ __ __ __ __ __ __ __ __ __ __ __ __
 72
    65
 73
     2
 40
0.000330
 49
0.000220
 49
-0.000110
  0
LTYPE
  2
HIDDEN
 70
    64
  3
 _ _ _ _ _ _ _ _ _ _ _ _ _ _ _ _ _ _ _ _ _ _
 72
    65
 73
     2
 40
0.000165
 49
0.000110
 49
-0.000055
  0
LTYPE
  2
CENTER
 70
    64
  3
____ _ ____ _ ____ _ ____ _ ____ _ ____ _ ____
 72
    65
 73
     4
 40
0.000880
 49
0.000550
 49
-0.000110
 49
0.000110
 49
-0.000110
  0
LTYPE
  2
PHANTOM
 70
    64
  3
_____ _ _ _____ _ _ _____ _ _ _____ _ _ ____
 72
    65
 73
     6
 40
0.001100
 49
0.000550
 49
-0.000110
 49
0.000110
 49
-0.000110
 49
0.000110
 49
-0.000110
  0
LTYPE
  2
DOT
 70
    64
  3
...............................................
 72
    65
 73
     2
 40
0.000110
 49
0.000000
 49
-0.000110
  0
LTYPE
  2
DASHDOT
 70
    64
  3
__ . __ . __ . __ . __ . __ . __ . __ . __ . __
 72
    65
 73
     4
 40
0.000440
 49
0.000220
 49
-0.000110
 49
0.000000
 49
-0.000110
  0
LTYPE
  2
BORDER
 70
    64
  3
__ __ . __ __ . __ __ . __ __ . __ __ . __ __
 72
    65
 73
     6
 40
0.000770
 49
0.000220
 49
-0.000110
 49
0.000220
 49
-0.000110
 49
0.000000
 49
-0.000110
  0
LTYPE
  2
DIVIDE
 70
    64
  3
__ . . __ . . __ . . __ . . __ . . __ . . __
 72
    65
 73
     6
 40
0.000550
 49
0.000220
 49
-0.000110
 49
0.000000
 49
-0.000110
 49
0.000000
 49
-0.000110
  0
LTYPE
  2
DOTDOT
 70
    64
  3
 . .  . .  . .  . .  . .  . . 
 72
    65
 73
     5
 40
0.000242
 49
-0.000110
 49
0.000000
 49
-0.000110
 49
0.000000
 49
-0.000110
  0
ENDTAB
  0
TABLE
  2
STYLE
 70
     2
  0
STYLE
 70
     0
  2
SN0
 40
0.000000
 41
0.000440
 50
0.000000
 71
     0
 42
0.000000
  3
ROMAND
  0
STYLE
 70
    68
  2
SV0
 40
0.000000
 41
0.000440
 50
0.000000
 71
     0
 42
0.000000
  3
ROMAND
  0
ENDTAB
  0
TABLE
  2
LAYER
 70
     3
  0
LAYER
  2
FOREGROUND
 70
    64
 62
     7
  6
CONTINUOUS
  0
LAYER
  2
BACKGROUND
 70
    65
 62
    -7
  6
CONTINUOUS
  0
LAYER
  2
0
 70
    64
 62
     7
  6
CONTINUOUS
  0
ENDTAB
  0
ENDSEC
  0
SECTION
  2
ENTITIES
  0
POLYLINE
  8
FOREGROUND
  6
CONTINUOUS
 66
     1
 40
0.000000
 41
0.000000
  0
VERTEX
  8
FOREGROUND
  6
CONTINUOUS
 10
0.000000
 20
4.139520
  0
VERTEX
  8
FOREGROUND
  6
CONTINUOUS
 10
8.499920
 20
4.139520
  0
VERTEX
  8
FOREGROUND
  6
CONTINUOUS
 10
8.499920
 20
-6.860480
  0
VERTEX
  8
FOREGROUND
  6
CONTINUOUS
 10
0.000000
 20
-6.860480
  0
VERTEX
  8
FOREGROUND
  6
CONTINUOUS
 10
0.000000
 20
4.139520
  0
SEQEND
  8
0
  0
POLYLINE
  8
FOREGROUND
  6
CONTINUOUS
 66
     1
 40
0.000000
 41
0.000000
  0
VERTEX
  8
FOREGROUND
  6
CONTINUOUS
 10
0.000000
 20
4.139520
  0
VERTEX
  8
FOREGROUND
  6
CONTINUOUS
 10
8.499920
 20
4.139520
  0
VERTEX
  8
FOREGROUND
  6
CONTINUOUS
 10
8.499920
 20
-6.860480
  0
VERTEX
  8
FOREGROUND
  6
CONTINUOUS
 10
0.000000
 20
-6.860480
  0
VERTEX
  8
FOREGROUND
  6
CONTINUOUS
 10
0.000000
 20
4.139520
  0
SEQEND
  8
0
  0
POLYLINE
  8
0
  6
CONTINUOUS
 66
     1
 40
0.014080
 41
0.014080
  0
VERTEX
  8
0
  6
CONTINUOUS
 10
3.670920
 20
3.536720
  0
VERTEX
  8
0
  6
CONTINUOUS
 10
3.671360
 20
3.550800
  0
VERTEX
  8
0
  6
CONTINUOUS
 10
3.675320
 20
3.574120
  0
VERTEX
  8
0
  6
CONTINUOUS
 10
3.682800
 20
3.591720
  0
VERTEX
  8
0
  6
CONTINUOUS
 10
3.692920
 20
3.604480
  0
VERTEX
  8
0
  6
CONTINUOUS
 10
3.705680
 20
3.613280
  0
VERTEX
  8
0
  6
CONTINUOUS
 10
3.720200
 20
3.619000
  0
VERTEX
  8
0
  6
CONTINUOUS
 10
3.744400
 20
3.622520
  0
VERTEX
  8
0
  6
CONTINUOUS
 10
4.271080
 20
3.622520
  0
VERTEX
  8
0
  6
CONTINUOUS
 10
4.292200
 20
3.619440
  0
VERTEX
  8
0
  6
CONTINUOUS
 10
4.309360
 20
3.613280
  0
VERTEX
  8
0
  6
CONTINUOUS
 10
4.323440
 20
3.605360
  0
VERTEX
  8
0
  6
CONTINUOUS
 10
4.334000
 20
3.596120
  0
VERTEX
  8
0
  6
CONTINUOUS
 10
4.344120
 20
3.580280
  0
VERTEX
  8
0
  6
CONTINUOUS
 10
4.347640
 20
3.569280
  0
VERTEX
  8
0
  6
CONTINUOUS
 10
4.348960
 20
3.559160
  0
VERTEX
  8
0
  6
CONTINUOUS
 10
4.353800
 20
3.458840
  0
VERTEX
  8
0
  6
CONTINUOUS
 10
4.359520
 20
3.444760
  0
VERTEX
  8
0
  6
CONTINUOUS
 10
4.368760
 20
3.437280
  0
VERTEX
  8
0
  6
CONTINUOUS
 10
4.383720
 20
3.432880
  0
VERTEX
  8
0
  6
CONTINUOUS
 10
4.397360
 20
3.432000
  0
VERTEX
  8
0
  6
CONTINUOUS
 10
6.464040
 20
3.432440
  0
VERTEX
  8
0
  6
CONTINUOUS
 10
6.478560
 20
3.436400
  0
VERTEX
  8
0
  6
CONTINUOUS
 10
6.489560
 20
3.444760
  0
VERTEX
  8
0
  6
CONTINUOUS
 10
6.497920
 20
3.456200
  0
VERTEX
  8
0
  6
CONTINUOUS
 10
6.505400
 20
3.479960
  0
VERTEX
  8
0
  6
CONTINUOUS
 10
6.508040
 20
3.510760
  0
VERTEX
  8
0
  6
CONTINUOUS
 10
6.507600
 20
3.548160
  0
VERTEX
  8
0
  6
CONTINUOUS
 10
6.512000
 20
3.567080
  0
VERTEX
  8
0
  6
CONTINUOUS
 10
6.521680
 20
3.592160
  0
VERTEX
  8
0
  6
CONTINUOUS
 10
6.535320
 20
3.612840
  0
VERTEX
  8
0
  6
CONTINUOUS
 10
6.547200
 20
3.623400
  0
VERTEX
  8
0
  6
CONTINUOUS
 10
6.562600
 20
3.631320
  0
VERTEX
  8
0
  6
CONTINUOUS
 10
6.581960
 20
3.636160
  0
VERTEX
  8
0
  6
CONTINUOUS
 10
6.604840
 20
3.637920
  0
VERTEX
  8
0
  6
CONTINUOUS
 10
7.088840
 20
3.637480
  0
VERTEX
  8
0
  6
CONTINUOUS
 10
7.109520
 20
3.633960
  0
VERTEX
  8
0
  6
CONTINUOUS
 10
7.126680
 20
3.626920
  0
VERTEX
  8
0
  6
CONTINUOUS
 10
7.140320
 20
3.617240
  0
VERTEX
  8
0
  6
CONTINUOUS
 10
7.151320
 20
3.604920
  0
VERTEX
  8
0
  6
CONTINUOUS
 10
7.162320
 20
3.582480
  0
VERTEX
  8
0
  6
CONTINUOUS
 10
7.165840
 20
3.565760
  0
VERTEX
  8
0
  6
CONTINUOUS
 10
7.167160
 20
3.548160
  0
VERTEX
  8
0
  6
CONTINUOUS
 10
7.167160
 20
2.885520
  0
VERTEX
  8
0
  6
CONTINUOUS
 10
3.670480
 20
2.885520
  0
VERTEX
  8
0
  6
CONTINUOUS
 10
3.670920
 20
3.536720
  0
SEQEND
  8
0
  0
TEXT
  8
0
 10
5.331040
 20
0.728640
 40
0.138043
  1
BA  509
 41
1.000000
  7
SN0
 71
     0
 72
     5
 11
5.920760
 21
0.728640
  0
TEXT
  8
0
 10
5.175280
 20
0.537240
 40
0.138043
  1
3/4" x 3-1/2"
 41
1.000000
  7
SN0
 71
     0
 72
     5
 11
6.074714
 21
0.537240
  0
SOLID
  8
0
 62
    15
 10
6.680080
 20
1.517560
 11
6.675240
 21
2.261160
 12
6.693280
 22
1.523280
 13
6.688000
 23
2.267320
  0
POLYLINE
  8
0
  6
CONTINUOUS
 66
     1
 40
0.000000
 41
0.000000
  0
VERTEX
  8
0
  6
CONTINUOUS
 10
6.680080
 20
1.517560
  0
VERTEX
  8
0
  6
CONTINUOUS
 10
6.675240
 20
2.261160
  0
VERTEX
  8
0
  6
CONTINUOUS
 10
6.688000
 20
2.267320
  0
VERTEX
  8
0
  6
CONTINUOUS
 10
6.693280
 20
1.523280
  0
VERTEX
  8
0
  6
CONTINUOUS
 10
6.680080
 20
1.517560
  0
SEQEND
  8
0
  0
SOLID
  8
0
 62
    15
 10
3.879480
 20
0.968880
 11
3.874200
 21
1.712480
 12
3.879480
 22
1.620080
 13
3.874200
 23
2.363680
  0
POLYLINE
  8
0
  6
CONTINUOUS
 66
     1
 40
0.000000
 41
0.000000
  0
VERTEX
  8
0
  6
CONTINUOUS
 10
3.879480
 20
0.968880
  0
VERTEX
  8
0
  6
CONTINUOUS
 10
3.874200
 20
1.712480
  0
VERTEX
  8
0
  6
CONTINUOUS
 10
3.874200
 20
2.363680
  0
VERTEX
  8
0
  6
CONTINUOUS
 10
3.879480
 20
1.620080
  0
VERTEX
  8
0
  6
CONTINUOUS
 10
3.879480
 20
0.968880
  0
SEQEND
  8
0
  0
SOLID
  8
0
 62
    15
 10
3.887400
 20
1.666720
 11
3.882560
 21
2.410320
 12
3.896640
 22
1.682120
 13
3.891360
 23
2.425720
  0
POLYLINE
  8
0
  6
CONTINUOUS
 66
     1
 40
0.000000
 41
0.000000
  0
VERTEX
  8
0
  6
CONTINUOUS
 10
3.887400
 20
1.666720
  0
VERTEX
  8
0
  6
CONTINUOUS
 10
3.882560
 20
2.410320
  0
VERTEX
  8
0
  6
CONTINUOUS
 10
3.891360
 20
2.425720
  0
VERTEX
  8
0
  6
CONTINUOUS
 10
3.896640
 20
1.682120
  0
VERTEX
  8
0
  6
CONTINUOUS
 10
3.887400
 20
1.666720
  0
SEQEND
  8
0
  0
SOLID
  8
0
 62
    15
 10
3.896640
 20
1.682120
 11
3.891360
 21
2.425720
 12
3.908080
 22
1.692680
 13
3.902800
 23
2.436280
  0
POLYLINE
  8
0
  6
CONTINUOUS
 66
     1
 40
0.000000
 41
0.000000
  0
VERTEX
  8
0
  6
CONTINUOUS
 10
3.896640
 20
1.682120
  0
VERTEX
  8
0
  6
CONTINUOUS
 10
3.891360
 20
2.425720
  0
VERTEX
  8
0
  6
CONTINUOUS
 10
3.902800
 20
2.436280
  0
VERTEX
  8
0
  6
CONTINUOUS
 10
3.908080
 20
1.692680
  0
VERTEX
  8
0
  6
CONTINUOUS
 10
3.896640
 20
1.682120
  0
SEQEND
  8
0
  0
SOLID
  8
0
 62
    15
 10
3.908080
 20
1.692680
 11
3.902800
 21
2.436280
 12
3.936680
 22
1.703680
 13
3.931840
 23
2.447720
  0
POLYLINE
  8
0
  6
CONTINUOUS
 66
     1
 40
0.000000
 41
0.000000
  0
VERTEX
  8
0
  6
CONTINUOUS
 10
3.908080
 20
1.692680
  0
VERTEX
  8
0
  6
CONTINUOUS
 10
3.902800
 20
2.436280
  0
VERTEX
  8
0
  6
CONTINUOUS
 10
3.931840
 20
2.447720
  0
VERTEX
  8
0
  6
CONTINUOUS
 10
3.936680
 20
1.703680
  0
VERTEX
  8
0
  6
CONTINUOUS
 10
3.908080
 20
1.692680
  0
SEQEND
  8
0
  0
SOLID
  8
0
 62
    15
 10
3.936680
 20
1.703680
 11
3.931840
 21
2.447720
 12
3.969680
 22
1.706320
 13
3.964840
 23
2.449920
  0
POLYLINE
  8
0
  6
CONTINUOUS
 66
     1
 40
0.000000
 41
0.000000
  0
VERTEX
  8
0
  6
CONTINUOUS
 10
3.936680
 20
1.703680
  0
VERTEX
  8
0
  6
CONTINUOUS
 10
3.931840
 20
2.447720
  0
VERTEX
  8
0
  6
CONTINUOUS
 10
3.964840
 20
2.449920
  0
VERTEX
  8
0
  6
CONTINUOUS
 10
3.969680
 20
1.706320
  0
VERTEX
  8
0
  6
CONTINUOUS
 10
3.936680
 20
1.703680
  0
SEQEND
  8
0
  0
SOLID
  8
0
 62
    15
 10
3.969680
 20
1.706320
 11
3.964840
 21
2.449920
 12
4.467760
 22
1.706320
 13
4.462480
 23
2.449920
  0
POLYLINE
  8
0
  6
CONTINUOUS
 66
     1
 40
0.000000
 41
0.000000
  0
VERTEX
  8
0
  6
CONTINUOUS
 10
3.969680
 20
1.706320
  0
VERTEX
  8
0
  6
CONTINUOUS
 10
3.964840
 20
2.449920
  0
VERTEX
  8
0
  6
CONTINUOUS
 10
4.462480
 20
2.449920
  0
VERTEX
  8
0
  6
CONTINUOUS
 10
4.467760
 20
1.706320
  0
VERTEX
  8
0
  6
CONTINUOUS
 10
3.969680
 20
1.706320
  0
SEQEND
  8
0
  0
SOLID
  8
0
 62
    15
 10
4.467760
 20
1.706320
 11
4.462480
 21
2.449920
 12
4.491080
 22
1.704560
 13
4.485800
 23
2.448160
  0
POLYLINE
  8
0
  6
CONTINUOUS
 66
     1
 40
0.000000
 41
0.000000
  0
VERTEX
  8
0
  6
CONTINUOUS
 10
4.467760
 20
1.706320
  0
VERTEX
  8
0
  6
CONTINUOUS
 10
4.462480
 20
2.449920
  0
VERTEX
  8
0
  6
CONTINUOUS
 10
4.485800
 20
2.448160
  0
VERTEX
  8
0
  6
CONTINUOUS
 10
4.491080
 20
1.704560
  0
VERTEX
  8
0
  6
CONTINUOUS
 10
4.467760
 20
1.706320
  0
SEQEND
  8
0
  0
SOLID
  8
0
 62
    15
 10
4.491080
 20
1.704560
 11
4.485800
 21
2.448160
 12
4.510000
 22
1.700160
 13
4.505160
 23
2.443760
  0
POLYLINE
  8
0
  6
CONTINUOUS
 66
     1
 40
0.000000
 41
0.000000
  0
VERTEX
  8
0
  6
CONTINUOUS
 10
4.491080
 20
1.704560
  0
VERTEX
  8
0
  6
CONTINUOUS
 10
4.485800
 20
2.448160
  0
VERTEX
  8
0
  6
CONTINUOUS
 10
4.505160
 20
2.443760
  0
VERTEX
  8
0
  6
CONTINUOUS
 10
4.510000
 20
1.700160
  0
VERTEX
  8
0
  6
CONTINUOUS
 10
4.491080
 20
1.704560
  0
SEQEND
  8
0
  0
SOLID
  8
0
 62
    15
 10
4.510000
 20
1.700160
 11
4.505160
 21
2.443760
 12
4.525840
 22
1.693120
 13
4.520560
 23
2.436720
  0
POLYLINE
  8
0
  6
CONTINUOUS
 66
     1
 40
0.000000
 41
0.000000
  0
VERTEX
  8
0
  6
CONTINUOUS
 10
4.510000
 20
1.700160
  0
VERTEX
  8
0
  6
CONTINUOUS
 10
4.505160
 20
2.443760
  0
VERTEX
  8
0
  6
CONTINUOUS
 10
4.520560
 20
2.436720
  0
VERTEX
  8
0
  6
CONTINUOUS
 10
4.525840
 20
1.693120
  0
VERTEX
  8
0
  6
CONTINUOUS
 10
4.510000
 20
1.700160
  0
SEQEND
  8
0
  0
SOLID
  8
0
 62
    15
 10
4.525840
 20
1.693120
 11
4.520560
 21
2.436720
 12
4.537720
 22
1.684320
 13
4.532880
 23
2.427920
  0
POLYLINE
  8
0
  6
CONTINUOUS
 66
     1
 40
0.000000
 41
0.000000
  0
VERTEX
  8
0
  6
CONTINUOUS
 10
4.525840
 20
1.693120
  0
VERTEX
  8
0
  6
CONTINUOUS
 10
4.520560
 20
2.436720
  0
VERTEX
  8
0
  6
CONTINUOUS
 10
4.532880
 20
2.427920
  0
VERTEX
  8
0
  6
CONTINUOUS
 10
4.537720
 20
1.684320
  0
VERTEX
  8
0
  6
CONTINUOUS
 10
4.525840
 20
1.693120
  0
SEQEND
  8
0
  0
SOLID
  8
0
 62
    15
 10
4.537720
 20
1.684320
 11
4.532880
 21
2.427920
 12
4.553120
 22
1.663640
 13
4.547840
 23
2.407240
  0
POLYLINE
  8
0
  6
CONTINUOUS
 66
     1
 40
0.000000
 41
0.000000
  0
VERTEX
  8
0
  6
CONTINUOUS
 10
4.537720
 20
1.684320
  0
VERTEX
  8
0
  6
CONTINUOUS
 10
4.532880
 20
2.427920
  0
VERTEX
  8
0
  6
CONTINUOUS
 10
4.547840
 20
2.407240
  0
VERTEX
  8
0
  6
CONTINUOUS
 10
4.553120
 20
1.663640
  0
VERTEX
  8
0
  6
CONTINUOUS
 10
4.537720
 20
1.684320
  0
SEQEND
  8
0
  0
SOLID
  8
0
 62
    15
 10
4.553120
 20
1.663640
 11
4.547840
 21
2.407240
 12
4.557520
 22
1.642520
 13
4.552680
 23
2.386120
  0
POLYLINE
  8
0
  6
CONTINUOUS
 66
     1
 40
0.000000
 41
0.000000
  0
VERTEX
  8
0
  6
CONTINUOUS
 10
4.553120
 20
1.663640
  0
VERTEX
  8
0
  6
CONTINUOUS
 10
4.547840
 20
2.407240
  0
VERTEX
  8
0
  6
CONTINUOUS
 10
4.552680
 20
2.386120
  0
VERTEX
  8
0
  6
CONTINUOUS
 10
4.557520
 20
1.642520
  0
VERTEX
  8
0
  6
CONTINUOUS
 10
4.553120
 20
1.663640
  0
SEQEND
  8
0
  0
SOLID
  8
0
 62
    15
 10
4.557520
 20
1.642520
 11
4.552680
 21
2.386120
 12
4.561480
 22
1.560240
 13
4.556200
 23
2.303840
  0
POLYLINE
  8
0
  6
CONTINUOUS
 66
     1
 40
0.000000
 41
0.000000
  0
VERTEX
  8
0
  6
CONTINUOUS
 10
4.557520
 20
1.642520
  0
VERTEX
  8
0
  6
CONTINUOUS
 10
4.552680
 20
2.386120
  0
VERTEX
  8
0
  6
CONTINUOUS
 10
4.556200
 20
2.303840
  0
VERTEX
  8
0
  6
CONTINUOUS
 10
4.561480
 20
1.560240
  0
VERTEX
  8
0
  6
CONTINUOUS
 10
4.557520
 20
1.642520
  0
SEQEND
  8
0
  0
SOLID
  8
0
 62
    15
 10
4.561480
 20
1.560240
 11
4.556200
 21
2.303840
 12
4.562360
 22
1.542200
 13
4.557520
 23
2.285800
  0
POLYLINE
  8
0
  6
CONTINUOUS
 66
     1
 40
0.000000
 41
0.000000
  0
VERTEX
  8
0
  6
CONTINUOUS
 10
4.561480
 20
1.560240
  0
VERTEX
  8
0
  6
CONTINUOUS
 10
4.556200
 20
2.303840
  0
VERTEX
  8
0
  6
CONTINUOUS
 10
4.557520
 20
2.285800
  0
VERTEX
  8
0
  6
CONTINUOUS
 10
4.562360
 20
1.542200
  0
VERTEX
  8
0
  6
CONTINUOUS
 10
4.561480
 20
1.560240
  0
SEQEND
  8
0
  0
SOLID
  8
0
 62
    15
 10
4.562360
 20
1.542200
 11
4.557520
 21
2.285800
 12
4.568520
 22
1.528120
 13
4.563240
 23
2.271720
  0
POLYLINE
  8
0
  6
CONTINUOUS
 66
     1
 40
0.000000
 41
0.000000
  0
VERTEX
  8
0
  6
CONTINUOUS
 10
4.562360
 20
1.542200
  0
VERTEX
  8
0
  6
CONTINUOUS
 10
4.557520
 20
2.285800
  0
VERTEX
  8
0
  6
CONTINUOUS
 10
4.563240
 20
2.271720
  0
VERTEX
  8
0
  6
CONTINUOUS
 10
4.568520
 20
1.528120
  0
VERTEX
  8
0
  6
CONTINUOUS
 10
4.562360
 20
1.542200
  0
SEQEND
  8
0
  0
SOLID
  8
0
 62
    15
 10
4.568520
 20
1.528120
 11
4.563240
 21
2.271720
 12
4.581720
 22
1.518440
 13
4.576880
 23
2.262480
  0
POLYLINE
  8
0
  6
CONTINUOUS
 66
     1
 40
0.000000
 41
0.000000
  0
VERTEX
  8
0
  6
CONTINUOUS
 10
4.568520
 20
1.528120
  0
VERTEX
  8
0
  6
CONTINUOUS
 10
4.563240
 20
2.271720
  0
VERTEX
  8
0
  6
CONTINUOUS
 10
4.576880
 20
2.262480
  0
VERTEX
  8
0
  6
CONTINUOUS
 10
4.581720
 20
1.518440
  0
VERTEX
  8
0
  6
CONTINUOUS
 10
4.568520
 20
1.528120
  0
SEQEND
  8
0
  0
SOLID
  8
0
 62
    15
 10
4.581720
 20
1.518440
 11
4.576880
 21
2.262480
 12
4.592280
 22
1.516240
 13
4.587440
 23
2.259840
  0
POLYLINE
  8
0
  6
CONTINUOUS
 66
     1
 40
0.000000
 41
0.000000
  0
VERTEX
  8
0
  6
CONTINUOUS
 10
4.581720
 20
1.518440
  0
VERTEX
  8
0
  6
CONTINUOUS
 10
4.576880
 20
2.262480
  0
VERTEX
  8
0
  6
CONTINUOUS
 10
4.587440
 20
2.259840
  0
VERTEX
  8
0
  6
CONTINUOUS
 10
4.592280
 20
1.516240
  0
VERTEX
  8
0
  6
CONTINUOUS
 10
4.581720
 20
1.518440
  0
SEQEND
  8
0
  0
SOLID
  8
0
 62
    15
 10
4.592280
 20
1.516240
 11
4.587440
 21
2.259840
 12
4.606360
 22
1.515360
 13
4.601080
 23
2.258960
  0
POLYLINE
  8
0
  6
CONTINUOUS
 66
     1
 40
0.000000
 41
0.000000
  0
VERTEX
  8
0
  6
CONTINUOUS
 10
4.592280
 20
1.516240
  0
VERTEX
  8
0
  6
CONTINUOUS
 10
4.587440
 20
2.259840
  0
VERTEX
  8
0
  6
CONTINUOUS
 10
4.601080
 20
2.258960
  0
VERTEX
  8
0
  6
CONTINUOUS
 10
4.606360
 20
1.515360
  0
VERTEX
  8
0
  6
CONTINUOUS
 10
4.592280
 20
1.516240
  0
SEQEND
  8
0
  0
SOLID
  8
0
 62
    15
 10
4.606360
 20
1.515360
 11
4.601080
 21
2.258960
 12
6.663800
 22
1.515360
 13
6.658960
 23
2.258960
  0
POLYLINE
  8
0
  6
CONTINUOUS
 66
     1
 40
0.000000
 41
0.000000
  0
VERTEX
  8
0
  6
CONTINUOUS
 10
4.606360
 20
1.515360
  0
VERTEX
  8
0
  6
CONTINUOUS
 10
4.601080
 20
2.258960
  0
VERTEX
  8
0
  6
CONTINUOUS
 10
6.658960
 20
2.258960
  0
VERTEX
  8
0
  6
CONTINUOUS
 10
6.663800
 20
1.515360
  0
VERTEX
  8
0
  6
CONTINUOUS
 10
4.606360
 20
1.515360
  0
SEQEND
  8
0
  0
SOLID
  8
0
 62
    15
 10
6.663800
 20
1.515360
 11
6.658960
 21
2.258960
 12
6.680080
 22
1.517560
 13
6.675240
 23
2.261160
  0
POLYLINE
  8
0
  6
CONTINUOUS
 66
     1
 40
0.000000
 41
0.000000
  0
VERTEX
  8
0
  6
CONTINUOUS
 10
6.663800
 20
1.515360
  0
VERTEX
  8
0
  6
CONTINUOUS
 10
6.658960
 20
2.258960
  0
VERTEX
  8
0
  6
CONTINUOUS
 10
6.675240
 20
2.261160
  0
VERTEX
  8
0
  6
CONTINUOUS
 10
6.680080
 20
1.517560
  0
VERTEX
  8
0
  6
CONTINUOUS
 10
6.663800
 20
1.515360
  0
SEQEND
  8
0
  0
SOLID
  8
0
 62
    15
 10
3.879480
 20
1.620080
 11
3.874200
 21
2.363680
 12
3.879920
 22
1.620080
 13
3.875080
 23
2.363680
  0
POLYLINE
  8
0
  6
CONTINUOUS
 66
     1
 40
0.000000
 41
0.000000
  0
VERTEX
  8
0
  6
CONTINUOUS
 10
3.879480
 20
1.620080
  0
VERTEX
  8
0
  6
CONTINUOUS
 10
3.874200
 20
2.363680
  0
VERTEX
  8
0
  6
CONTINUOUS
 10
3.875080
 20
2.363680
  0
VERTEX
  8
0
  6
CONTINUOUS
 10
3.879920
 20
1.620080
  0
VERTEX
  8
0
  6
CONTINUOUS
 10
3.879480
 20
1.620080
  0
SEQEND
  8
0
  0
SOLID
  8
0
 62
    15
 10
6.693280
 20
1.523280
 11
6.688000
 21
2.267320
 12
6.702960
 22
1.533400
 13
6.697680
 23
2.277000
  0
POLYLINE
  8
0
  6
CONTINUOUS
 66
     1
 40
0.000000
 41
0.000000
  0
VERTEX
  8
0
  6
CONTINUOUS
 10
6.693280
 20
1.523280
  0
VERTEX
  8
0
  6
CONTINUOUS
 10
6.688000
 20
2.267320
  0
VERTEX
  8
0
  6
CONTINUOUS
 10
6.697680
 20
2.277000
  0
VERTEX
  8
0
  6
CONTINUOUS
 10
6.702960
 20
1.533400
  0
VERTEX
  8
0
  6
CONTINUOUS
 10
6.693280
 20
1.523280
  0
SEQEND
  8
0
  0
SOLID
  8
0
 62
    15
 10
6.702960
 20
1.533400
 11
6.697680
 21
2.277000
 12
6.709560
 22
1.546600
 13
6.704720
 23
2.290200
  0
POLYLINE
  8
0
  6
CONTINUOUS
 66
     1
 40
0.000000
 41
0.000000
  0
VERTEX
  8
0
  6
CONTINUOUS
 10
6.702960
 20
1.533400
  0
VERTEX
  8
0
  6
CONTINUOUS
 10
6.697680
 20
2.277000
  0
VERTEX
  8
0
  6
CONTINUOUS
 10
6.704720
 20
2.290200
  0
VERTEX
  8
0
  6
CONTINUOUS
 10
6.709560
 20
1.546600
  0
VERTEX
  8
0
  6
CONTINUOUS
 10
6.702960
 20
1.533400
  0
SEQEND
  8
0
  0
SOLID
  8
0
 62
    15
 10
6.709560
 20
1.546600
 11
6.704720
 21
2.290200
 12
6.713960
 22
1.563320
 13
6.709120
 23
2.306920
  0
POLYLINE
  8
0
  6
CONTINUOUS
 66
     1
 40
0.000000
 41
0.000000
  0
VERTEX
  8
0
  6
CONTINUOUS
 10
6.709560
 20
1.546600
  0
VERTEX
  8
0
  6
CONTINUOUS
 10
6.704720
 20
2.290200
  0
VERTEX
  8
0
  6
CONTINUOUS
 10
6.709120
 20
2.306920
  0
VERTEX
  8
0
  6
CONTINUOUS
 10
6.713960
 20
1.563320
  0
VERTEX
  8
0
  6
CONTINUOUS
 10
6.709560
 20
1.546600
  0
SEQEND
  8
0
  0
SOLID
  8
0
 62
    15
 10
6.713960
 20
1.563320
 11
6.709120
 21
2.306920
 12
6.716600
 22
1.583120
 13
6.711320
 23
2.326720
  0
POLYLINE
  8
0
  6
CONTINUOUS
 66
     1
 40
0.000000
 41
0.000000
  0
VERTEX
  8
0
  6
CONTINUOUS
 10
6.713960
 20
1.563320
  0
VERTEX
  8
0
  6
CONTINUOUS
 10
6.709120
 20
2.306920
  0
VERTEX
  8
0
  6
CONTINUOUS
 10
6.711320
 20
2.326720
  0
VERTEX
  8
0
  6
CONTINUOUS
 10
6.716600
 20
1.583120
  0
VERTEX
  8
0
  6
CONTINUOUS
 10
6.713960
 20
1.563320
  0
SEQEND
  8
0
  0
SOLID
  8
0
 62
    15
 10
6.716600
 20
1.583120
 11
6.711320
 21
2.326720
 12
6.716160
 22
1.631520
 13
6.711320
 23
2.375120
  0
POLYLINE
  8
0
  6
CONTINUOUS
 66
     1
 40
0.000000
 41
0.000000
  0
VERTEX
  8
0
  6
CONTINUOUS
 10
6.716600
 20
1.583120
  0
VERTEX
  8
0
  6
CONTINUOUS
 10
6.711320
 20
2.326720
  0
VERTEX
  8
0
  6
CONTINUOUS
 10
6.711320
 20
2.375120
  0
VERTEX
  8
0
  6
CONTINUOUS
 10
6.716160
 20
1.631520
  0
VERTEX
  8
0
  6
CONTINUOUS
 10
6.716600
 20
1.583120
  0
SEQEND
  8
0
  0
SOLID
  8
0
 62
    15
 10
6.716160
 20
1.631520
 11
6.711320
 21
2.375120
 12
6.726720
 22
1.667600
 13
6.721880
 23
2.411200
  0
POLYLINE
  8
0
  6
CONTINUOUS
 66
     1
 40
0.000000
 41
0.000000
  0
VERTEX
  8
0
  6
CONTINUOUS
 10
6.716160
 20
1.631520
  0
VERTEX
  8
0
  6
CONTINUOUS
 10
6.711320
 20
2.375120
  0
VERTEX
  8
0
  6
CONTINUOUS
 10
6.721880
 20
2.411200
  0
VERTEX
  8
0
  6
CONTINUOUS
 10
6.726720
 20
1.667600
  0
VERTEX
  8
0
  6
CONTINUOUS
 10
6.716160
 20
1.631520
  0
SEQEND
  8
0
  0
SOLID
  8
0
 62
    15
 10
6.726720
 20
1.667600
 11
6.721880
 21
2.411200
 12
6.743880
 22
1.695760
 13
6.739040
 23
2.439800
  0
POLYLINE
  8
0
  6
CONTINUOUS
 66
     1
 40
0.000000
 41
0.000000
  0
VERTEX
  8
0
  6
CONTINUOUS
 10
6.726720
 20
1.667600
  0
VERTEX
  8
0
  6
CONTINUOUS
 10
6.721880
 20
2.411200
  0
VERTEX
  8
0
  6
CONTINUOUS
 10
6.739040
 20
2.439800
  0
VERTEX
  8
0
  6
CONTINUOUS
 10
6.743880
 20
1.695760
  0
VERTEX
  8
0
  6
CONTINUOUS
 10
6.726720
 20
1.667600
  0
SEQEND
  8
0
  0
SOLID
  8
0
 62
    15
 10
6.743880
 20
1.695760
 11
6.739040
 21
2.439800
 12
6.756200
 22
1.706760
 13
6.751360
 23
2.450360
  0
POLYLINE
  8
0
  6
CONTINUOUS
 66
     1
 40
0.000000
 41
0.000000
  0
VERTEX
  8
0
  6
CONTINUOUS
 10
6.743880
 20
1.695760
  0
VERTEX
  8
0
  6
CONTINUOUS
 10
6.739040
 20
2.439800
  0
VERTEX
  8
0
  6
CONTINUOUS
 10
6.751360
 20
2.450360
  0
VERTEX
  8
0
  6
CONTINUOUS
 10
6.756200
 20
1.706760
  0
VERTEX
  8
0
  6
CONTINUOUS
 10
6.743880
 20
1.695760
  0
SEQEND
  8
0
  0
SOLID
  8
0
 62
    15
 10
6.756200
 20
1.706760
 11
6.751360
 21
2.450360
 12
6.771600
 22
1.714680
 13
6.766760
 23
2.458280
  0
POLYLINE
  8
0
  6
CONTINUOUS
 66
     1
 40
0.000000
 41
0.000000
  0
VERTEX
  8
0
  6
CONTINUOUS
 10
6.756200
 20
1.706760
  0
VERTEX
  8
0
  6
CONTINUOUS
 10
6.751360
 20
2.450360
  0
VERTEX
  8
0
  6
CONTINUOUS
 10
6.766760
 20
2.458280
  0
VERTEX
  8
0
  6
CONTINUOUS
 10
6.771600
 20
1.714680
  0
VERTEX
  8
0
  6
CONTINUOUS
 10
6.756200
 20
1.706760
  0
SEQEND
  8
0
  0
SOLID
  8
0
 62
    15
 10
6.771600
 20
1.714680
 11
6.766760
 21
2.458280
 12
6.790520
 22
1.719520
 13
6.785680
 23
2.463120
  0
POLYLINE
  8
0
  6
CONTINUOUS
 66
     1
 40
0.000000
 41
0.000000
  0
VERTEX
  8
0
  6
CONTINUOUS
 10
6.771600
 20
1.714680
  0
VERTEX
  8
0
  6
CONTINUOUS
 10
6.766760
 20
2.458280
  0
VERTEX
  8
0
  6
CONTINUOUS
 10
6.785680
 20
2.463120
  0
VERTEX
  8
0
  6
CONTINUOUS
 10
6.790520
 20
1.719520
  0
VERTEX
  8
0
  6
CONTINUOUS
 10
6.771600
 20
1.714680
  0
SEQEND
  8
0
  0
SOLID
  8
0
 62
    15
 10
6.790520
 20
1.719520
 11
6.785680
 21
2.463120
 12
6.813840
 22
1.721280
 13
6.808560
 23
2.464880
  0
POLYLINE
  8
0
  6
CONTINUOUS
 66
     1
 40
0.000000
 41
0.000000
  0
VERTEX
  8
0
  6
CONTINUOUS
 10
6.790520
 20
1.719520
  0
VERTEX
  8
0
  6
CONTINUOUS
 10
6.785680
 20
2.463120
  0
VERTEX
  8
0
  6
CONTINUOUS
 10
6.808560
 20
2.464880
  0
VERTEX
  8
0
  6
CONTINUOUS
 10
6.813840
 20
1.721280
  0
VERTEX
  8
0
  6
CONTINUOUS
 10
6.790520
 20
1.719520
  0
SEQEND
  8
0
  0
SOLID
  8
0
 62
    15
 10
6.813840
 20
1.721280
 11
6.808560
 21
2.464880
 12
7.286400
 22
1.721280
 13
7.281120
 23
2.464880
  0
POLYLINE
  8
0
  6
CONTINUOUS
 66
     1
 40
0.000000
 41
0.000000
  0
VERTEX
  8
0
  6
CONTINUOUS
 10
6.813840
 20
1.721280
  0
VERTEX
  8
0
  6
CONTINUOUS
 10
6.808560
 20
2.464880
  0
VERTEX
  8
0
  6
CONTINUOUS
 10
7.281120
 20
2.464880
  0
VERTEX
  8
0
  6
CONTINUOUS
 10
7.286400
 20
1.721280
  0
VERTEX
  8
0
  6
CONTINUOUS
 10
6.813840
 20
1.721280
  0
SEQEND
  8
0
  0
SOLID
  8
0
 62
    15
 10
7.286400
 20
1.721280
 11
7.281120
 21
2.464880
 12
7.308400
 22
1.719520
 13
7.303560
 23
2.463120
  0
POLYLINE
  8
0
  6
CONTINUOUS
 66
     1
 40
0.000000
 41
0.000000
  0
VERTEX
  8
0
  6
CONTINUOUS
 10
7.286400
 20
1.721280
  0
VERTEX
  8
0
  6
CONTINUOUS
 10
7.281120
 20
2.464880
  0
VERTEX
  8
0
  6
CONTINUOUS
 10
7.303560
 20
2.463120
  0
VERTEX
  8
0
  6
CONTINUOUS
 10
7.308400
 20
1.719520
  0
VERTEX
  8
0
  6
CONTINUOUS
 10
7.286400
 20
1.721280
  0
SEQEND
  8
0
  0
SOLID
  8
0
 62
    15
 10
7.308400
 20
1.719520
 11
7.303560
 21
2.463120
 12
7.327320
 22
1.714240
 13
7.322040
 23
2.457840
  0
POLYLINE
  8
0
  6
CONTINUOUS
 66
     1
 40
0.000000
 41
0.000000
  0
VERTEX
  8
0
  6
CONTINUOUS
 10
7.308400
 20
1.719520
  0
VERTEX
  8
0
  6
CONTINUOUS
 10
7.303560
 20
2.463120
  0
VERTEX
  8
0
  6
CONTINUOUS
 10
7.322040
 20
2.457840
  0
VERTEX
  8
0
  6
CONTINUOUS
 10
7.327320
 20
1.714240
  0
VERTEX
  8
0
  6
CONTINUOUS
 10
7.308400
 20
1.719520
  0
SEQEND
  8
0
  0
SOLID
  8
0
 62
    15
 10
7.327320
 20
1.714240
 11
7.322040
 21
2.457840
 12
7.342720
 22
1.705880
 13
7.337440
 23
2.449480
  0
POLYLINE
  8
0
  6
CONTINUOUS
 66
     1
 40
0.000000
 41
0.000000
  0
VERTEX
  8
0
  6
CONTINUOUS
 10
7.327320
 20
1.714240
  0
VERTEX
  8
0
  6
CONTINUOUS
 10
7.322040
 20
2.457840
  0
VERTEX
  8
0
  6
CONTINUOUS
 10
7.337440
 20
2.449480
  0
VERTEX
  8
0
  6
CONTINUOUS
 10
7.342720
 20
1.705880
  0
VERTEX
  8
0
  6
CONTINUOUS
 10
7.327320
 20
1.714240
  0
SEQEND
  8
0
  0
SOLID
  8
0
 62
    15
 10
7.342720
 20
1.705880
 11
7.337440
 21
2.449480
 12
7.355040
 22
1.694440
 13
7.350200
 23
2.438040
  0
POLYLINE
  8
0
  6
CONTINUOUS
 66
     1
 40
0.000000
 41
0.000000
  0
VERTEX
  8
0
  6
CONTINUOUS
 10
7.342720
 20
1.705880
  0
VERTEX
  8
0
  6
CONTINUOUS
 10
7.337440
 20
2.449480
  0
VERTEX
  8
0
  6
CONTINUOUS
 10
7.350200
 20
2.438040
  0
VERTEX
  8
0
  6
CONTINUOUS
 10
7.355040
 20
1.694440
  0
VERTEX
  8
0
  6
CONTINUOUS
 10
7.342720
 20
1.705880
  0
SEQEND
  8
0
  0
SOLID
  8
0
 62
    15
 10
7.370880
 20
1.665840
 11
7.366040
 21
2.409440
 12
7.376160
 22
1.631520
 13
7.371320
 23
2.375120
  0
POLYLINE
  8
0
  6
CONTINUOUS
 66
     1
 40
0.000000
 41
0.000000
  0
VERTEX
  8
0
  6
CONTINUOUS
 10
7.370880
 20
1.665840
  0
VERTEX
  8
0
  6
CONTINUOUS
 10
7.366040
 20
2.409440
  0
VERTEX
  8
0
  6
CONTINUOUS
 10
7.371320
 20
2.375120
  0
VERTEX
  8
0
  6
CONTINUOUS
 10
7.376160
 20
1.631520
  0
VERTEX
  8
0
  6
CONTINUOUS
 10
7.370880
 20
1.665840
  0
SEQEND
  8
0
  0
SOLID
  8
0
 62
    15
 10
7.355040
 20
1.694440
 11
7.350200
 21
2.438040
 12
7.370880
 22
1.665840
 13
7.366040
 23
2.409440
  0
POLYLINE
  8
0
  6
CONTINUOUS
 66
     1
 40
0.000000
 41
0.000000
  0
VERTEX
  8
0
  6
CONTINUOUS
 10
7.355040
 20
1.694440
  0
VERTEX
  8
0
  6
CONTINUOUS
 10
7.350200
 20
2.438040
  0
VERTEX
  8
0
  6
CONTINUOUS
 10
7.366040
 20
2.409440
  0
VERTEX
  8
0
  6
CONTINUOUS
 10
7.370880
 20
1.665840
  0
VERTEX
  8
0
  6
CONTINUOUS
 10
7.355040
 20
1.694440
  0
SEQEND
  8
0
  0
SOLID
  8
0
 62
    15
 10
3.879920
 20
1.620080
 11
3.875080
 21
2.363680
 12
3.881680
 22
1.646480
 13
3.876840
 23
2.390080
  0
POLYLINE
  8
0
  6
CONTINUOUS
 66
     1
 40
0.000000
 41
0.000000
  0
VERTEX
  8
0
  6
CONTINUOUS
 10
3.879920
 20
1.620080
  0
VERTEX
  8
0
  6
CONTINUOUS
 10
3.875080
 20
2.363680
  0
VERTEX
  8
0
  6
CONTINUOUS
 10
3.876840
 20
2.390080
  0
VERTEX
  8
0
  6
CONTINUOUS
 10
3.881680
 20
1.646480
  0
VERTEX
  8
0
  6
CONTINUOUS
 10
3.879920
 20
1.620080
  0
SEQEND
  8
0
  0
SOLID
  8
0
 62
    15
 10
3.881680
 20
1.646480
 11
3.876840
 21
2.390080
 12
3.887400
 22
1.666720
 13
3.882560
 23
2.410320
  0
POLYLINE
  8
0
  6
CONTINUOUS
 66
     1
 40
0.000000
 41
0.000000
  0
VERTEX
  8
0
  6
CONTINUOUS
 10
3.881680
 20
1.646480
  0
VERTEX
  8
0
  6
CONTINUOUS
 10
3.876840
 20
2.390080
  0
VERTEX
  8
0
  6
CONTINUOUS
 10
3.882560
 20
2.410320
  0
VERTEX
  8
0
  6
CONTINUOUS
 10
3.887400
 20
1.666720
  0
VERTEX
  8
0
  6
CONTINUOUS
 10
3.881680
 20
1.646480
  0
SEQEND
  8
0
  0
POLYLINE
  8
0
  6
CONTINUOUS
 66
     1
 40
0.000000
 41
0.000000
  0
VERTEX
  8
0
  6
CONTINUOUS
 10
3.879920
 20
1.620080
  0
VERTEX
  8
0
  6
CONTINUOUS
 10
3.881680
 20
1.646480
  0
VERTEX
  8
0
  6
CONTINUOUS
 10
3.887400
 20
1.666720
  0
VERTEX
  8
0
  6
CONTINUOUS
 10
3.896640
 20
1.682120
  0
VERTEX
  8
0
  6
CONTINUOUS
 10
3.908080
 20
1.692680
  0
VERTEX
  8
0
  6
CONTINUOUS
 10
3.936680
 20
1.703680
  0
VERTEX
  8
0
  6
CONTINUOUS
 10
3.969680
 20
1.706320
  0
VERTEX
  8
0
  6
CONTINUOUS
 10
4.467760
 20
1.706320
  0
VERTEX
  8
0
  6
CONTINUOUS
 10
4.491080
 20
1.704560
  0
VERTEX
  8
0
  6
CONTINUOUS
 10
4.510000
 20
1.700160
  0
VERTEX
  8
0
  6
CONTINUOUS
 10
4.525840
 20
1.693120
  0
VERTEX
  8
0
  6
CONTINUOUS
 10
4.537720
 20
1.684320
  0
VERTEX
  8
0
  6
CONTINUOUS
 10
4.553120
 20
1.663640
  0
VERTEX
  8
0
  6
CONTINUOUS
 10
4.557520
 20
1.642520
  0
VERTEX
  8
0
  6
CONTINUOUS
 10
4.561480
 20
1.560240
  0
VERTEX
  8
0
  6
CONTINUOUS
 10
4.562360
 20
1.542200
  0
VERTEX
  8
0
  6
CONTINUOUS
 10
4.568520
 20
1.528120
  0
VERTEX
  8
0
  6
CONTINUOUS
 10
4.581720
 20
1.518440
  0
VERTEX
  8
0
  6
CONTINUOUS
 10
4.592280
 20
1.516240
  0
VERTEX
  8
0
  6
CONTINUOUS
 10
4.606360
 20
1.515360
  0
VERTEX
  8
0
  6
CONTINUOUS
 10
6.663800
 20
1.515360
  0
VERTEX
  8
0
  6
CONTINUOUS
 10
6.680080
 20
1.517560
  0
VERTEX
  8
0
  6
CONTINUOUS
 10
6.693280
 20
1.523280
  0
VERTEX
  8
0
  6
CONTINUOUS
 10
6.702960
 20
1.533400
  0
VERTEX
  8
0
  6
CONTINUOUS
 10
6.709560
 20
1.546600
  0
VERTEX
  8
0
  6
CONTINUOUS
 10
6.713960
 20
1.563320
  0
VERTEX
  8
0
  6
CONTINUOUS
 10
6.716600
 20
1.583120
  0
VERTEX
  8
0
  6
CONTINUOUS
 10
6.716160
 20
1.631520
  0
VERTEX
  8
0
  6
CONTINUOUS
 10
6.726720
 20
1.667600
  0
VERTEX
  8
0
  6
CONTINUOUS
 10
6.743880
 20
1.695760
  0
VERTEX
  8
0
  6
CONTINUOUS
 10
6.756200
 20
1.706760
  0
VERTEX
  8
0
  6
CONTINUOUS
 10
6.771600
 20
1.714680
  0
VERTEX
  8
0
  6
CONTINUOUS
 10
6.790520
 20
1.719520
  0
VERTEX
  8
0
  6
CONTINUOUS
 10
6.813840
 20
1.721280
  0
VERTEX
  8
0
  6
CONTINUOUS
 10
7.286400
 20
1.721280
  0
VERTEX
  8
0
  6
CONTINUOUS
 10
7.308400
 20
1.719520
  0
VERTEX
  8
0
  6
CONTINUOUS
 10
7.327320
 20
1.714240
  0
VERTEX
  8
0
  6
CONTINUOUS
 10
7.342720
 20
1.705880
  0
VERTEX
  8
0
  6
CONTINUOUS
 10
7.355040
 20
1.694440
  0
VERTEX
  8
0
  6
CONTINUOUS
 10
7.370880
 20
1.665840
  0
VERTEX
  8
0
  6
CONTINUOUS
 10
7.376160
 20
1.631520
  0
VERTEX
  8
0
  6
CONTINUOUS
 10
7.376160
 20
0.968880
  0
VERTEX
  8
0
  6
CONTINUOUS
 10
3.879480
 20
0.968880
  0
VERTEX
  8
0
  6
CONTINUOUS
 10
3.879480
 20
1.620080
  0
VERTEX
  8
0
  6
CONTINUOUS
 10
3.879920
 20
1.620080
  0
SEQEND
  8
0
  0
ENDSEC
  0
EOF
