  0
SECTION
  2
HEADER
  9
$ACADVER
  1
AC1006
  9
$EXTMIN
 10
2.827440
 20
0.516120
  9
$EXTMAX
 10
7.083120
 20
4.302320
  9
$LTSCALE
 40
0.044000
  9
$PDMODE
 70
    35
  9
$PDSIZE
 40
0.035200
  0
ENDSEC
  0
SECTION
  2
TABLES
  0
TABLE
  2
LTYPE
 70
     9
  0
LTYPE
  2
CONTINUOUS
 70
    64
  3
Solid line
 72
    65
 73
     0
 40
0.000000
  0
LTYPE
  2
DASHED
 70
    64
  3
__ __ __ __ __ __ __ __ __ __ __ __ __ __ __
 72
    65
 73
     2
 40
0.000330
 49
0.000220
 49
-0.000110
  0
LTYPE
  2
HIDDEN
 70
    64
  3
 _ _ _ _ _ _ _ _ _ _ _ _ _ _ _ _ _ _ _ _ _ _
 72
    65
 73
     2
 40
0.000165
 49
0.000110
 49
-0.000055
  0
LTYPE
  2
CENTER
 70
    64
  3
____ _ ____ _ ____ _ ____ _ ____ _ ____ _ ____
 72
    65
 73
     4
 40
0.000880
 49
0.000550
 49
-0.000110
 49
0.000110
 49
-0.000110
  0
LTYPE
  2
PHANTOM
 70
    64
  3
_____ _ _ _____ _ _ _____ _ _ _____ _ _ ____
 72
    65
 73
     6
 40
0.001100
 49
0.000550
 49
-0.000110
 49
0.000110
 49
-0.000110
 49
0.000110
 49
-0.000110
  0
LTYPE
  2
DOT
 70
    64
  3
...............................................
 72
    65
 73
     2
 40
0.000110
 49
0.000000
 49
-0.000110
  0
LTYPE
  2
DASHDOT
 70
    64
  3
__ . __ . __ . __ . __ . __ . __ . __ . __ . __
 72
    65
 73
     4
 40
0.000440
 49
0.000220
 49
-0.000110
 49
0.000000
 49
-0.000110
  0
LTYPE
  2
BORDER
 70
    64
  3
__ __ . __ __ . __ __ . __ __ . __ __ . __ __
 72
    65
 73
     6
 40
0.000770
 49
0.000220
 49
-0.000110
 49
0.000220
 49
-0.000110
 49
0.000000
 49
-0.000110
  0
LTYPE
  2
DIVIDE
 70
    64
  3
__ . . __ . . __ . . __ . . __ . . __ . . __
 72
    65
 73
     6
 40
0.000550
 49
0.000220
 49
-0.000110
 49
0.000000
 49
-0.000110
 49
0.000000
 49
-0.000110
  0
LTYPE
  2
DOTDOT
 70
    64
  3
 . .  . .  . .  . .  . .  . . 
 72
    65
 73
     5
 40
0.000242
 49
-0.000110
 49
0.000000
 49
-0.000110
 49
0.000000
 49
-0.000110
  0
ENDTAB
  0
TABLE
  2
STYLE
 70
     2
  0
STYLE
 70
     0
  2
SN0
 40
0.000000
 41
0.000440
 50
0.000000
 71
     0
 42
0.000000
  3
ROMAND
  0
STYLE
 70
    68
  2
SV0
 40
0.000000
 41
0.000440
 50
0.000000
 71
     0
 42
0.000000
  3
ROMAND
  0
ENDTAB
  0
TABLE
  2
LAYER
 70
     3
  0
LAYER
  2
FOREGROUND
 70
    64
 62
     7
  6
CONTINUOUS
  0
LAYER
  2
BACKGROUND
 70
    65
 62
    -7
  6
CONTINUOUS
  0
LAYER
  2
0
 70
    64
 62
     7
  6
CONTINUOUS
  0
ENDTAB
  0
ENDSEC
  0
SECTION
  2
ENTITIES
  0
POLYLINE
  8
FOREGROUND
  6
CONTINUOUS
 66
     1
 40
0.000000
 41
0.000000
  0
VERTEX
  8
FOREGROUND
  6
CONTINUOUS
 10
0.000000
 20
4.818440
  0
VERTEX
  8
FOREGROUND
  6
CONTINUOUS
 10
8.499920
 20
4.818440
  0
VERTEX
  8
FOREGROUND
  6
CONTINUOUS
 10
8.499920
 20
-6.181560
  0
VERTEX
  8
FOREGROUND
  6
CONTINUOUS
 10
0.000000
 20
-6.181560
  0
VERTEX
  8
FOREGROUND
  6
CONTINUOUS
 10
0.000000
 20
4.818440
  0
SEQEND
  8
0
  0
POLYLINE
  8
FOREGROUND
  6
CONTINUOUS
 66
     1
 40
0.000000
 41
0.000000
  0
VERTEX
  8
FOREGROUND
  6
CONTINUOUS
 10
0.000000
 20
4.818440
  0
VERTEX
  8
FOREGROUND
  6
CONTINUOUS
 10
8.499920
 20
4.818440
  0
VERTEX
  8
FOREGROUND
  6
CONTINUOUS
 10
8.499920
 20
-6.181560
  0
VERTEX
  8
FOREGROUND
  6
CONTINUOUS
 10
0.000000
 20
-6.181560
  0
VERTEX
  8
FOREGROUND
  6
CONTINUOUS
 10
0.000000
 20
4.818440
  0
SEQEND
  8
0
  0
POLYLINE
  8
0
  6
CONTINUOUS
 66
     1
 40
0.014080
 41
0.014080
  0
VERTEX
  8
0
  6
CONTINUOUS
 10
7.074760
 20
3.907200
  0
VERTEX
  8
0
  6
CONTINUOUS
 10
7.052320
 20
3.906320
  0
VERTEX
  8
0
  6
CONTINUOUS
 10
7.030320
 20
3.902800
  0
VERTEX
  8
0
  6
CONTINUOUS
 10
7.008760
 20
3.897520
  0
VERTEX
  8
0
  6
CONTINUOUS
 10
6.966520
 20
3.881680
  0
VERTEX
  8
0
  6
CONTINUOUS
 10
6.945840
 20
3.871120
  0
VERTEX
  8
0
  6
CONTINUOUS
 10
6.906240
 20
3.844720
  0
VERTEX
  8
0
  6
CONTINUOUS
 10
6.867960
 20
3.812160
  0
VERTEX
  8
0
  6
CONTINUOUS
 10
6.832320
 20
3.774320
  0
VERTEX
  8
0
  6
CONTINUOUS
 10
6.798880
 20
3.732080
  0
VERTEX
  8
0
  6
CONTINUOUS
 10
6.767640
 20
3.685880
  0
VERTEX
  8
0
  6
CONTINUOUS
 10
6.739480
 20
3.636600
  0
VERTEX
  8
0
  6
CONTINUOUS
 10
6.714400
 20
3.584680
  0
VERTEX
  8
0
  6
CONTINUOUS
 10
6.683160
 20
3.503280
  0
VERTEX
  8
0
  6
CONTINUOUS
 10
6.666440
 20
3.448280
  0
VERTEX
  8
0
  6
CONTINUOUS
 10
6.653680
 20
3.392840
  0
VERTEX
  8
0
  6
CONTINUOUS
 10
6.644880
 20
3.337840
  0
VERTEX
  8
0
  6
CONTINUOUS
 10
6.640480
 20
3.284160
  0
VERTEX
  8
0
  6
CONTINUOUS
 10
6.640040
 20
3.258200
  0
VERTEX
  8
0
  6
CONTINUOUS
 10
6.474600
 20
3.239720
  0
VERTEX
  8
0
  6
CONTINUOUS
 10
6.474600
 20
2.247960
  0
VERTEX
  8
0
  6
CONTINUOUS
 10
6.382640
 20
2.235640
  0
VERTEX
  8
0
  6
CONTINUOUS
 10
6.381320
 20
2.157320
  0
VERTEX
  8
0
  6
CONTINUOUS
 10
6.377360
 20
2.083400
  0
VERTEX
  8
0
  6
CONTINUOUS
 10
6.366800
 20
1.982200
  0
VERTEX
  8
0
  6
CONTINUOUS
 10
6.350960
 20
1.890680
  0
VERTEX
  8
0
  6
CONTINUOUS
 10
6.338200
 20
1.834800
  0
VERTEX
  8
0
  6
CONTINUOUS
 10
6.315320
 20
1.759120
  0
VERTEX
  8
0
  6
CONTINUOUS
 10
6.288920
 20
1.691800
  0
VERTEX
  8
0
  6
CONTINUOUS
 10
6.259440
 20
1.632840
  0
VERTEX
  8
0
  6
CONTINUOUS
 10
6.227320
 20
1.581360
  0
VERTEX
  8
0
  6
CONTINUOUS
 10
6.193440
 20
1.537360
  0
VERTEX
  8
0
  6
CONTINUOUS
 10
6.158240
 20
1.499520
  0
VERTEX
  8
0
  6
CONTINUOUS
 10
6.134040
 20
1.477960
  0
VERTEX
  8
0
  6
CONTINUOUS
 10
6.085200
 20
1.441880
  0
VERTEX
  8
0
  6
CONTINUOUS
 10
6.036800
 20
1.415040
  0
VERTEX
  8
0
  6
CONTINUOUS
 10
5.990160
 20
1.396120
  0
VERTEX
  8
0
  6
CONTINUOUS
 10
5.946160
 20
1.383360
  0
VERTEX
  8
0
  6
CONTINUOUS
 10
5.906560
 20
1.375880
  0
VERTEX
  8
0
  6
CONTINUOUS
 10
5.857720
 20
1.371480
  0
VERTEX
  8
0
  6
CONTINUOUS
 10
5.825600
 20
1.372360
  0
VERTEX
  8
0
  6
CONTINUOUS
 10
5.825600
 20
4.249960
  0
VERTEX
  8
0
  6
CONTINUOUS
 10
7.076080
 20
4.249960
  0
VERTEX
  8
0
  6
CONTINUOUS
 10
7.076080
 20
3.907200
  0
VERTEX
  8
0
  6
CONTINUOUS
 10
7.074760
 20
3.907200
  0
SEQEND
  8
0
  0
SOLID
  8
0
 62
    15
 10
3.379640
 20
1.758680
 11
4.012360
 21
2.135320
 12
3.364240
 22
1.625360
 13
3.996960
 23
2.002000
  0
POLYLINE
  8
0
  6
CONTINUOUS
 66
     1
 40
0.000000
 41
0.000000
  0
VERTEX
  8
0
  6
CONTINUOUS
 10
3.379640
 20
1.758680
  0
VERTEX
  8
0
  6
CONTINUOUS
 10
4.012360
 20
2.135320
  0
VERTEX
  8
0
  6
CONTINUOUS
 10
3.996960
 20
2.002000
  0
VERTEX
  8
0
  6
CONTINUOUS
 10
3.364240
 20
1.625360
  0
VERTEX
  8
0
  6
CONTINUOUS
 10
3.379640
 20
1.758680
  0
SEQEND
  8
0
  0
SOLID
  8
0
 62
    15
 10
3.908520
 20
3.519560
 11
4.540800
 21
3.896200
 12
3.870240
 22
3.487000
 13
4.502960
 23
3.863640
  0
POLYLINE
  8
0
  6
CONTINUOUS
 66
     1
 40
0.000000
 41
0.000000
  0
VERTEX
  8
0
  6
CONTINUOUS
 10
3.908520
 20
3.519560
  0
VERTEX
  8
0
  6
CONTINUOUS
 10
4.540800
 20
3.896200
  0
VERTEX
  8
0
  6
CONTINUOUS
 10
4.502960
 20
3.863640
  0
VERTEX
  8
0
  6
CONTINUOUS
 10
3.870240
 20
3.487000
  0
VERTEX
  8
0
  6
CONTINUOUS
 10
3.908520
 20
3.519560
  0
SEQEND
  8
0
  0
SOLID
  8
0
 62
    15
 10
3.870240
 20
3.487000
 11
4.502960
 21
3.863640
 12
3.834600
 22
3.449600
 13
4.467320
 23
3.825800
  0
POLYLINE
  8
0
  6
CONTINUOUS
 66
     1
 40
0.000000
 41
0.000000
  0
VERTEX
  8
0
  6
CONTINUOUS
 10
3.870240
 20
3.487000
  0
VERTEX
  8
0
  6
CONTINUOUS
 10
4.502960
 20
3.863640
  0
VERTEX
  8
0
  6
CONTINUOUS
 10
4.467320
 20
3.825800
  0
VERTEX
  8
0
  6
CONTINUOUS
 10
3.834600
 20
3.449600
  0
VERTEX
  8
0
  6
CONTINUOUS
 10
3.870240
 20
3.487000
  0
SEQEND
  8
0
  0
SOLID
  8
0
 62
    15
 10
3.834600
 20
3.449600
 11
4.467320
 21
3.825800
 12
3.769920
 22
3.361160
 13
4.402640
 23
3.737360
  0
POLYLINE
  8
0
  6
CONTINUOUS
 66
     1
 40
0.000000
 41
0.000000
  0
VERTEX
  8
0
  6
CONTINUOUS
 10
3.834600
 20
3.449600
  0
VERTEX
  8
0
  6
CONTINUOUS
 10
4.467320
 20
3.825800
  0
VERTEX
  8
0
  6
CONTINUOUS
 10
4.402640
 20
3.737360
  0
VERTEX
  8
0
  6
CONTINUOUS
 10
3.769920
 20
3.361160
  0
VERTEX
  8
0
  6
CONTINUOUS
 10
3.834600
 20
3.449600
  0
SEQEND
  8
0
  0
SOLID
  8
0
 62
    15
 10
3.769920
 20
3.361160
 11
4.402640
 21
3.737360
 12
3.716680
 22
3.259520
 13
4.349400
 23
3.636160
  0
POLYLINE
  8
0
  6
CONTINUOUS
 66
     1
 40
0.000000
 41
0.000000
  0
VERTEX
  8
0
  6
CONTINUOUS
 10
3.769920
 20
3.361160
  0
VERTEX
  8
0
  6
CONTINUOUS
 10
4.402640
 20
3.737360
  0
VERTEX
  8
0
  6
CONTINUOUS
 10
4.349400
 20
3.636160
  0
VERTEX
  8
0
  6
CONTINUOUS
 10
3.716680
 20
3.259520
  0
VERTEX
  8
0
  6
CONTINUOUS
 10
3.769920
 20
3.361160
  0
SEQEND
  8
0
  0
SOLID
  8
0
 62
    15
 10
3.716680
 20
3.259520
 11
4.349400
 21
3.636160
 12
3.676640
 22
3.150840
 13
4.309360
 23
3.527480
  0
POLYLINE
  8
0
  6
CONTINUOUS
 66
     1
 40
0.000000
 41
0.000000
  0
VERTEX
  8
0
  6
CONTINUOUS
 10
3.716680
 20
3.259520
  0
VERTEX
  8
0
  6
CONTINUOUS
 10
4.349400
 20
3.636160
  0
VERTEX
  8
0
  6
CONTINUOUS
 10
4.309360
 20
3.527480
  0
VERTEX
  8
0
  6
CONTINUOUS
 10
3.676640
 20
3.150840
  0
VERTEX
  8
0
  6
CONTINUOUS
 10
3.716680
 20
3.259520
  0
SEQEND
  8
0
  0
SOLID
  8
0
 62
    15
 10
3.676640
 20
3.150840
 11
4.309360
 21
3.527480
 12
3.651120
 22
3.040400
 13
4.283840
 23
3.416600
  0
POLYLINE
  8
0
  6
CONTINUOUS
 66
     1
 40
0.000000
 41
0.000000
  0
VERTEX
  8
0
  6
CONTINUOUS
 10
3.676640
 20
3.150840
  0
VERTEX
  8
0
  6
CONTINUOUS
 10
4.309360
 20
3.527480
  0
VERTEX
  8
0
  6
CONTINUOUS
 10
4.283840
 20
3.416600
  0
VERTEX
  8
0
  6
CONTINUOUS
 10
3.651120
 20
3.040400
  0
VERTEX
  8
0
  6
CONTINUOUS
 10
3.676640
 20
3.150840
  0
SEQEND
  8
0
  0
SOLID
  8
0
 62
    15
 10
3.384920
 20
1.910920
 11
4.017640
 21
2.287120
 12
3.379640
 22
1.758680
 13
4.012360
 23
2.135320
  0
POLYLINE
  8
0
  6
CONTINUOUS
 66
     1
 40
0.000000
 41
0.000000
  0
VERTEX
  8
0
  6
CONTINUOUS
 10
3.384920
 20
1.910920
  0
VERTEX
  8
0
  6
CONTINUOUS
 10
4.017640
 20
2.287120
  0
VERTEX
  8
0
  6
CONTINUOUS
 10
4.012360
 20
2.135320
  0
VERTEX
  8
0
  6
CONTINUOUS
 10
3.379640
 20
1.758680
  0
VERTEX
  8
0
  6
CONTINUOUS
 10
3.384920
 20
1.910920
  0
SEQEND
  8
0
  0
SOLID
  8
0
 62
    15
 10
3.476880
 20
2.915000
 11
4.109600
 21
3.291200
 12
3.476880
 22
1.922800
 13
4.109600
 23
2.299440
  0
POLYLINE
  8
0
  6
CONTINUOUS
 66
     1
 40
0.000000
 41
0.000000
  0
VERTEX
  8
0
  6
CONTINUOUS
 10
3.476880
 20
2.915000
  0
VERTEX
  8
0
  6
CONTINUOUS
 10
4.109600
 20
3.291200
  0
VERTEX
  8
0
  6
CONTINUOUS
 10
4.109600
 20
2.299440
  0
VERTEX
  8
0
  6
CONTINUOUS
 10
3.476880
 20
1.922800
  0
VERTEX
  8
0
  6
CONTINUOUS
 10
3.476880
 20
2.915000
  0
SEQEND
  8
0
  0
SOLID
  8
0
 62
    15
 10
3.651120
 20
3.040400
 11
4.283840
 21
3.416600
 12
3.642320
 22
2.933040
 13
4.275040
 23
3.309680
  0
POLYLINE
  8
0
  6
CONTINUOUS
 66
     1
 40
0.000000
 41
0.000000
  0
VERTEX
  8
0
  6
CONTINUOUS
 10
3.651120
 20
3.040400
  0
VERTEX
  8
0
  6
CONTINUOUS
 10
4.283840
 20
3.416600
  0
VERTEX
  8
0
  6
CONTINUOUS
 10
4.275040
 20
3.309680
  0
VERTEX
  8
0
  6
CONTINUOUS
 10
3.642320
 20
2.933040
  0
VERTEX
  8
0
  6
CONTINUOUS
 10
3.651120
 20
3.040400
  0
SEQEND
  8
0
  0
SOLID
  8
0
 62
    15
 10
3.948120
 20
3.545960
 11
4.580840
 21
3.922160
 12
3.908520
 22
3.519560
 13
4.540800
 23
3.896200
  0
POLYLINE
  8
0
  6
CONTINUOUS
 66
     1
 40
0.000000
 41
0.000000
  0
VERTEX
  8
0
  6
CONTINUOUS
 10
3.948120
 20
3.545960
  0
VERTEX
  8
0
  6
CONTINUOUS
 10
4.580840
 20
3.922160
  0
VERTEX
  8
0
  6
CONTINUOUS
 10
4.540800
 20
3.896200
  0
VERTEX
  8
0
  6
CONTINUOUS
 10
3.908520
 20
3.519560
  0
VERTEX
  8
0
  6
CONTINUOUS
 10
3.948120
 20
3.545960
  0
SEQEND
  8
0
  0
SOLID
  8
0
 62
    15
 10
3.364240
 20
1.625360
 11
3.996960
 21
2.002000
 12
3.340480
 22
1.510080
 13
3.973200
 23
1.886280
  0
POLYLINE
  8
0
  6
CONTINUOUS
 66
     1
 40
0.000000
 41
0.000000
  0
VERTEX
  8
0
  6
CONTINUOUS
 10
3.364240
 20
1.625360
  0
VERTEX
  8
0
  6
CONTINUOUS
 10
3.996960
 20
2.002000
  0
VERTEX
  8
0
  6
CONTINUOUS
 10
3.973200
 20
1.886280
  0
VERTEX
  8
0
  6
CONTINUOUS
 10
3.340480
 20
1.510080
  0
VERTEX
  8
0
  6
CONTINUOUS
 10
3.364240
 20
1.625360
  0
SEQEND
  8
0
  0
SOLID
  8
0
 62
    15
 10
3.340480
 20
1.510080
 11
3.973200
 21
1.886280
 12
3.309240
 22
1.410640
 13
3.941960
 23
1.787280
  0
POLYLINE
  8
0
  6
CONTINUOUS
 66
     1
 40
0.000000
 41
0.000000
  0
VERTEX
  8
0
  6
CONTINUOUS
 10
3.340480
 20
1.510080
  0
VERTEX
  8
0
  6
CONTINUOUS
 10
3.973200
 20
1.886280
  0
VERTEX
  8
0
  6
CONTINUOUS
 10
3.941960
 20
1.787280
  0
VERTEX
  8
0
  6
CONTINUOUS
 10
3.309240
 20
1.410640
  0
VERTEX
  8
0
  6
CONTINUOUS
 10
3.340480
 20
1.510080
  0
SEQEND
  8
0
  0
SOLID
  8
0
 62
    15
 10
3.309240
 20
1.410640
 11
3.941960
 21
1.787280
 12
3.271840
 22
1.326600
 13
3.904560
 23
1.703240
  0
POLYLINE
  8
0
  6
CONTINUOUS
 66
     1
 40
0.000000
 41
0.000000
  0
VERTEX
  8
0
  6
CONTINUOUS
 10
3.309240
 20
1.410640
  0
VERTEX
  8
0
  6
CONTINUOUS
 10
3.941960
 20
1.787280
  0
VERTEX
  8
0
  6
CONTINUOUS
 10
3.904560
 20
1.703240
  0
VERTEX
  8
0
  6
CONTINUOUS
 10
3.271840
 20
1.326600
  0
VERTEX
  8
0
  6
CONTINUOUS
 10
3.309240
 20
1.410640
  0
SEQEND
  8
0
  0
SOLID
  8
0
 62
    15
 10
3.271840
 20
1.326600
 11
3.904560
 21
1.703240
 12
3.229600
 22
1.256640
 13
3.862320
 23
1.632840
  0
POLYLINE
  8
0
  6
CONTINUOUS
 66
     1
 40
0.000000
 41
0.000000
  0
VERTEX
  8
0
  6
CONTINUOUS
 10
3.271840
 20
1.326600
  0
VERTEX
  8
0
  6
CONTINUOUS
 10
3.904560
 20
1.703240
  0
VERTEX
  8
0
  6
CONTINUOUS
 10
3.862320
 20
1.632840
  0
VERTEX
  8
0
  6
CONTINUOUS
 10
3.229600
 20
1.256640
  0
VERTEX
  8
0
  6
CONTINUOUS
 10
3.271840
 20
1.326600
  0
SEQEND
  8
0
  0
SOLID
  8
0
 62
    15
 10
3.229600
 20
1.256640
 11
3.862320
 21
1.632840
 12
3.184280
 22
1.199000
 13
3.816560
 23
1.575640
  0
POLYLINE
  8
0
  6
CONTINUOUS
 66
     1
 40
0.000000
 41
0.000000
  0
VERTEX
  8
0
  6
CONTINUOUS
 10
3.229600
 20
1.256640
  0
VERTEX
  8
0
  6
CONTINUOUS
 10
3.862320
 20
1.632840
  0
VERTEX
  8
0
  6
CONTINUOUS
 10
3.816560
 20
1.575640
  0
VERTEX
  8
0
  6
CONTINUOUS
 10
3.184280
 20
1.199000
  0
VERTEX
  8
0
  6
CONTINUOUS
 10
3.229600
 20
1.256640
  0
SEQEND
  8
0
  0
SOLID
  8
0
 62
    15
 10
3.136320
 20
1.153240
 11
3.769040
 21
1.529440
 12
3.087480
 22
1.117160
 13
3.720200
 23
1.493800
  0
POLYLINE
  8
0
  6
CONTINUOUS
 66
     1
 40
0.000000
 41
0.000000
  0
VERTEX
  8
0
  6
CONTINUOUS
 10
3.136320
 20
1.153240
  0
VERTEX
  8
0
  6
CONTINUOUS
 10
3.769040
 20
1.529440
  0
VERTEX
  8
0
  6
CONTINUOUS
 10
3.720200
 20
1.493800
  0
VERTEX
  8
0
  6
CONTINUOUS
 10
3.087480
 20
1.117160
  0
VERTEX
  8
0
  6
CONTINUOUS
 10
3.136320
 20
1.153240
  0
SEQEND
  8
0
  0
SOLID
  8
0
 62
    15
 10
3.184280
 20
1.199000
 11
3.816560
 21
1.575640
 12
3.136320
 22
1.153240
 13
3.769040
 23
1.529440
  0
POLYLINE
  8
0
  6
CONTINUOUS
 66
     1
 40
0.000000
 41
0.000000
  0
VERTEX
  8
0
  6
CONTINUOUS
 10
3.184280
 20
1.199000
  0
VERTEX
  8
0
  6
CONTINUOUS
 10
3.816560
 20
1.575640
  0
VERTEX
  8
0
  6
CONTINUOUS
 10
3.769040
 20
1.529440
  0
VERTEX
  8
0
  6
CONTINUOUS
 10
3.136320
 20
1.153240
  0
VERTEX
  8
0
  6
CONTINUOUS
 10
3.184280
 20
1.199000
  0
SEQEND
  8
0
  0
SOLID
  8
0
 62
    15
 10
2.827880
 20
3.925240
 11
3.460600
 21
4.301440
 12
4.078360
 22
3.925240
 13
4.711080
 23
4.301440
  0
POLYLINE
  8
0
  6
CONTINUOUS
 66
     1
 40
0.000000
 41
0.000000
  0
VERTEX
  8
0
  6
CONTINUOUS
 10
2.827880
 20
3.925240
  0
VERTEX
  8
0
  6
CONTINUOUS
 10
3.460600
 20
4.301440
  0
VERTEX
  8
0
  6
CONTINUOUS
 10
4.711080
 20
4.301440
  0
VERTEX
  8
0
  6
CONTINUOUS
 10
4.078360
 20
3.925240
  0
VERTEX
  8
0
  6
CONTINUOUS
 10
2.827880
 20
3.925240
  0
SEQEND
  8
0
  0
SOLID
  8
0
 62
    15
 10
4.078360
 20
3.925240
 11
4.711080
 21
4.301440
 12
4.078360
 22
3.582040
 13
4.711080
 23
3.958680
  0
POLYLINE
  8
0
  6
CONTINUOUS
 66
     1
 40
0.000000
 41
0.000000
  0
VERTEX
  8
0
  6
CONTINUOUS
 10
4.078360
 20
3.925240
  0
VERTEX
  8
0
  6
CONTINUOUS
 10
4.711080
 20
4.301440
  0
VERTEX
  8
0
  6
CONTINUOUS
 10
4.711080
 20
3.958680
  0
VERTEX
  8
0
  6
CONTINUOUS
 10
4.078360
 20
3.582040
  0
VERTEX
  8
0
  6
CONTINUOUS
 10
4.078360
 20
3.925240
  0
SEQEND
  8
0
  0
POLYLINE
  8
0
  6
CONTINUOUS
 66
     1
 40
0.000000
 41
0.000000
  0
VERTEX
  8
0
  6
CONTINUOUS
 10
4.077040
 20
3.582040
  0
VERTEX
  8
0
  6
CONTINUOUS
 10
4.032600
 20
3.578080
  0
VERTEX
  8
0
  6
CONTINUOUS
 10
3.989920
 20
3.565760
  0
VERTEX
  8
0
  6
CONTINUOUS
 10
3.948120
 20
3.545960
  0
VERTEX
  8
0
  6
CONTINUOUS
 10
3.908520
 20
3.519560
  0
VERTEX
  8
0
  6
CONTINUOUS
 10
3.870240
 20
3.487000
  0
VERTEX
  8
0
  6
CONTINUOUS
 10
3.834600
 20
3.449600
  0
VERTEX
  8
0
  6
CONTINUOUS
 10
3.769920
 20
3.361160
  0
VERTEX
  8
0
  6
CONTINUOUS
 10
3.716680
 20
3.259520
  0
VERTEX
  8
0
  6
CONTINUOUS
 10
3.676640
 20
3.150840
  0
VERTEX
  8
0
  6
CONTINUOUS
 10
3.651120
 20
3.040400
  0
VERTEX
  8
0
  6
CONTINUOUS
 10
3.642320
 20
2.933040
  0
VERTEX
  8
0
  6
CONTINUOUS
 10
3.476880
 20
2.915000
  0
VERTEX
  8
0
  6
CONTINUOUS
 10
3.476880
 20
1.922800
  0
VERTEX
  8
0
  6
CONTINUOUS
 10
3.384920
 20
1.910920
  0
VERTEX
  8
0
  6
CONTINUOUS
 10
3.379640
 20
1.758680
  0
VERTEX
  8
0
  6
CONTINUOUS
 10
3.364240
 20
1.625360
  0
VERTEX
  8
0
  6
CONTINUOUS
 10
3.340480
 20
1.510080
  0
VERTEX
  8
0
  6
CONTINUOUS
 10
3.309240
 20
1.410640
  0
VERTEX
  8
0
  6
CONTINUOUS
 10
3.271840
 20
1.326600
  0
VERTEX
  8
0
  6
CONTINUOUS
 10
3.229600
 20
1.256640
  0
VERTEX
  8
0
  6
CONTINUOUS
 10
3.184280
 20
1.199000
  0
VERTEX
  8
0
  6
CONTINUOUS
 10
3.136320
 20
1.153240
  0
VERTEX
  8
0
  6
CONTINUOUS
 10
3.087480
 20
1.117160
  0
VERTEX
  8
0
  6
CONTINUOUS
 10
3.039080
 20
1.090320
  0
VERTEX
  8
0
  6
CONTINUOUS
 10
2.992440
 20
1.070960
  0
VERTEX
  8
0
  6
CONTINUOUS
 10
2.948440
 20
1.058200
  0
VERTEX
  8
0
  6
CONTINUOUS
 10
2.908840
 20
1.050720
  0
VERTEX
  8
0
  6
CONTINUOUS
 10
2.874520
 20
1.047200
  0
VERTEX
  8
0
  6
CONTINUOUS
 10
2.847240
 20
1.046760
  0
VERTEX
  8
0
  6
CONTINUOUS
 10
2.827880
 20
1.047200
  0
VERTEX
  8
0
  6
CONTINUOUS
 10
2.827880
 20
3.925240
  0
VERTEX
  8
0
  6
CONTINUOUS
 10
4.078360
 20
3.925240
  0
VERTEX
  8
0
  6
CONTINUOUS
 10
4.078360
 20
3.582040
  0
VERTEX
  8
0
  6
CONTINUOUS
 10
4.077040
 20
3.582040
  0
SEQEND
  8
0
  0
TEXT
  8
0
 10
3.474680
 20
0.751080
 40
0.138102
  1
BA  508
 41
1.000000
  7
SN0
 71
     0
 72
     5
 11
4.064304
 21
0.751080
  0
TEXT
  8
0
 10
3.245000
 20
0.559680
 40
0.138102
  1
1-1/4" x 2-7/8"
 41
1.000000
  7
SN0
 71
     0
 72
     5
 11
4.291259
 21
0.559680
  0
ENDSEC
  0
EOF
