  0
SECTION
  2
HEADER
  9
$ACADVER
  1
AC1006
  9
$EXTMIN
 10
4.675440
 20
0.730400
  9
$EXTMAX
 10
7.687680
 20
3.701720
  9
$LTSCALE
 40
0.044000
  9
$PDMODE
 70
    35
  9
$PDSIZE
 40
0.035200
  0
ENDSEC
  0
SECTION
  2
TABLES
  0
TABLE
  2
LTYPE
 70
     9
  0
LTYPE
  2
CONTINUOUS
 70
    64
  3
Solid line
 72
    65
 73
     0
 40
0.000000
  0
LTYPE
  2
DASHED
 70
    64
  3
__ __ __ __ __ __ __ __ __ __ __ __ __ __ __
 72
    65
 73
     2
 40
0.000330
 49
0.000220
 49
-0.000110
  0
LTYPE
  2
HIDDEN
 70
    64
  3
 _ _ _ _ _ _ _ _ _ _ _ _ _ _ _ _ _ _ _ _ _ _
 72
    65
 73
     2
 40
0.000165
 49
0.000110
 49
-0.000055
  0
LTYPE
  2
CENTER
 70
    64
  3
____ _ ____ _ ____ _ ____ _ ____ _ ____ _ ____
 72
    65
 73
     4
 40
0.000880
 49
0.000550
 49
-0.000110
 49
0.000110
 49
-0.000110
  0
LTYPE
  2
PHANTOM
 70
    64
  3
_____ _ _ _____ _ _ _____ _ _ _____ _ _ ____
 72
    65
 73
     6
 40
0.001100
 49
0.000550
 49
-0.000110
 49
0.000110
 49
-0.000110
 49
0.000110
 49
-0.000110
  0
LTYPE
  2
DOT
 70
    64
  3
...............................................
 72
    65
 73
     2
 40
0.000110
 49
0.000000
 49
-0.000110
  0
LTYPE
  2
DASHDOT
 70
    64
  3
__ . __ . __ . __ . __ . __ . __ . __ . __ . __
 72
    65
 73
     4
 40
0.000440
 49
0.000220
 49
-0.000110
 49
0.000000
 49
-0.000110
  0
LTYPE
  2
BORDER
 70
    64
  3
__ __ . __ __ . __ __ . __ __ . __ __ . __ __
 72
    65
 73
     6
 40
0.000770
 49
0.000220
 49
-0.000110
 49
0.000220
 49
-0.000110
 49
0.000000
 49
-0.000110
  0
LTYPE
  2
DIVIDE
 70
    64
  3
__ . . __ . . __ . . __ . . __ . . __ . . __
 72
    65
 73
     6
 40
0.000550
 49
0.000220
 49
-0.000110
 49
0.000000
 49
-0.000110
 49
0.000000
 49
-0.000110
  0
LTYPE
  2
DOTDOT
 70
    64
  3
 . .  . .  . .  . .  . .  . . 
 72
    65
 73
     5
 40
0.000242
 49
-0.000110
 49
0.000000
 49
-0.000110
 49
0.000000
 49
-0.000110
  0
ENDTAB
  0
TABLE
  2
STYLE
 70
     2
  0
STYLE
 70
     0
  2
SN0
 40
0.000000
 41
0.000440
 50
0.000000
 71
     0
 42
0.000000
  3
ROMAND
  0
STYLE
 70
    68
  2
SV0
 40
0.000000
 41
0.000440
 50
0.000000
 71
     0
 42
0.000000
  3
ROMAND
  0
ENDTAB
  0
TABLE
  2
LAYER
 70
     3
  0
LAYER
  2
FOREGROUND
 70
    64
 62
     7
  6
CONTINUOUS
  0
LAYER
  2
BACKGROUND
 70
    65
 62
    -7
  6
CONTINUOUS
  0
LAYER
  2
0
 70
    64
 62
     7
  6
CONTINUOUS
  0
ENDTAB
  0
ENDSEC
  0
SECTION
  2
ENTITIES
  0
POLYLINE
  8
FOREGROUND
  6
CONTINUOUS
 66
     1
 40
0.000000
 41
0.000000
  0
VERTEX
  8
FOREGROUND
  6
CONTINUOUS
 10
0.000000
 20
4.432120
  0
VERTEX
  8
FOREGROUND
  6
CONTINUOUS
 10
8.499920
 20
4.432120
  0
VERTEX
  8
FOREGROUND
  6
CONTINUOUS
 10
8.499920
 20
-6.567880
  0
VERTEX
  8
FOREGROUND
  6
CONTINUOUS
 10
0.000000
 20
-6.567880
  0
VERTEX
  8
FOREGROUND
  6
CONTINUOUS
 10
0.000000
 20
4.432120
  0
SEQEND
  8
0
  0
POLYLINE
  8
FOREGROUND
  6
CONTINUOUS
 66
     1
 40
0.000000
 41
0.000000
  0
VERTEX
  8
FOREGROUND
  6
CONTINUOUS
 10
0.000000
 20
4.432120
  0
VERTEX
  8
FOREGROUND
  6
CONTINUOUS
 10
8.499920
 20
4.432120
  0
VERTEX
  8
FOREGROUND
  6
CONTINUOUS
 10
8.499920
 20
-6.567880
  0
VERTEX
  8
FOREGROUND
  6
CONTINUOUS
 10
0.000000
 20
-6.567880
  0
VERTEX
  8
FOREGROUND
  6
CONTINUOUS
 10
0.000000
 20
4.432120
  0
SEQEND
  8
0
  0
POLYLINE
  8
0
  6
CONTINUOUS
 66
     1
 40
0.014080
 41
0.014080
  0
VERTEX
  8
0
  6
CONTINUOUS
 10
6.662480
 20
2.825680
  0
VERTEX
  8
0
  6
CONTINUOUS
 10
6.662480
 20
2.918960
  0
VERTEX
  8
0
  6
CONTINUOUS
 10
6.662480
 20
3.061080
  0
VERTEX
  8
0
  6
CONTINUOUS
 10
6.509360
 20
3.105520
  0
VERTEX
  8
0
  6
CONTINUOUS
 10
6.509360
 20
3.234000
  0
VERTEX
  8
0
  6
CONTINUOUS
 10
6.662480
 20
3.269640
  0
VERTEX
  8
0
  6
CONTINUOUS
 10
6.662480
 20
3.404720
  0
VERTEX
  8
0
  6
CONTINUOUS
 10
6.509360
 20
3.451360
  0
VERTEX
  8
0
  6
CONTINUOUS
 10
6.509360
 20
3.693360
  0
VERTEX
  8
0
  6
CONTINUOUS
 10
7.260000
 20
3.693360
  0
VERTEX
  8
0
  6
CONTINUOUS
 10
7.260000
 20
2.825240
  0
VERTEX
  8
0
  6
CONTINUOUS
 10
6.662480
 20
2.825240
  0
VERTEX
  8
0
  6
CONTINUOUS
 10
6.662480
 20
2.825680
  0
SEQEND
  8
0
  0
POLYLINE
  8
0
  6
CONTINUOUS
 66
     1
 40
0.014080
 41
0.014080
  0
VERTEX
  8
0
  6
CONTINUOUS
 10
6.318840
 20
2.826560
  0
VERTEX
  8
0
  6
CONTINUOUS
 10
6.318840
 20
2.919400
  0
VERTEX
  8
0
  6
CONTINUOUS
 10
6.318840
 20
3.061520
  0
VERTEX
  8
0
  6
CONTINUOUS
 10
6.165720
 20
3.105960
  0
VERTEX
  8
0
  6
CONTINUOUS
 10
6.165720
 20
3.234880
  0
VERTEX
  8
0
  6
CONTINUOUS
 10
6.318840
 20
3.270080
  0
VERTEX
  8
0
  6
CONTINUOUS
 10
6.318840
 20
3.405600
  0
VERTEX
  8
0
  6
CONTINUOUS
 10
6.165720
 20
3.452240
  0
VERTEX
  8
0
  6
CONTINUOUS
 10
6.165720
 20
3.694240
  0
VERTEX
  8
0
  6
CONTINUOUS
 10
5.412880
 20
3.694240
  0
VERTEX
  8
0
  6
CONTINUOUS
 10
5.412880
 20
2.825240
  0
VERTEX
  8
0
  6
CONTINUOUS
 10
6.318840
 20
2.825240
  0
VERTEX
  8
0
  6
CONTINUOUS
 10
6.318840
 20
2.826560
  0
SEQEND
  8
0
  0
SOLID
  8
0
 62
     7
 10
5.429160
 20
2.058320
 11
6.070680
 21
2.423520
 12
5.429160
 22
1.816760
 13
6.070680
 23
2.181520
  0
POLYLINE
  8
0
  6
CONTINUOUS
 66
     1
 40
0.000000
 41
0.000000
  0
VERTEX
  8
0
  6
CONTINUOUS
 10
5.429160
 20
2.058320
  0
VERTEX
  8
0
  6
CONTINUOUS
 10
6.070680
 20
2.423520
  0
VERTEX
  8
0
  6
CONTINUOUS
 10
6.070680
 20
2.181520
  0
VERTEX
  8
0
  6
CONTINUOUS
 10
5.429160
 20
1.816760
  0
VERTEX
  8
0
  6
CONTINUOUS
 10
5.429160
 20
2.058320
  0
SEQEND
  8
0
  0
SOLID
  8
0
 62
     7
 10
5.429160
 20
1.816760
 11
6.070680
 21
2.181520
 12
5.582280
 22
1.770120
 13
6.223800
 23
2.134880
  0
POLYLINE
  8
0
  6
CONTINUOUS
 66
     1
 40
0.000000
 41
0.000000
  0
VERTEX
  8
0
  6
CONTINUOUS
 10
5.429160
 20
1.816760
  0
VERTEX
  8
0
  6
CONTINUOUS
 10
6.070680
 20
2.181520
  0
VERTEX
  8
0
  6
CONTINUOUS
 10
6.223800
 20
2.134880
  0
VERTEX
  8
0
  6
CONTINUOUS
 10
5.582280
 20
1.770120
  0
VERTEX
  8
0
  6
CONTINUOUS
 10
5.429160
 20
1.816760
  0
SEQEND
  8
0
  0
SOLID
  8
0
 62
     7
 10
5.429160
 20
1.598960
 11
6.070680
 21
1.964160
 12
5.429160
 22
1.470480
 13
6.070680
 23
1.835240
  0
POLYLINE
  8
0
  6
CONTINUOUS
 66
     1
 40
0.000000
 41
0.000000
  0
VERTEX
  8
0
  6
CONTINUOUS
 10
5.429160
 20
1.598960
  0
VERTEX
  8
0
  6
CONTINUOUS
 10
6.070680
 20
1.964160
  0
VERTEX
  8
0
  6
CONTINUOUS
 10
6.070680
 20
1.835240
  0
VERTEX
  8
0
  6
CONTINUOUS
 10
5.429160
 20
1.470480
  0
VERTEX
  8
0
  6
CONTINUOUS
 10
5.429160
 20
1.598960
  0
SEQEND
  8
0
  0
SOLID
  8
0
 62
     7
 10
5.582280
 20
1.770120
 11
6.223800
 21
2.134880
 12
5.582280
 22
1.634600
 13
6.223800
 23
1.999800
  0
POLYLINE
  8
0
  6
CONTINUOUS
 66
     1
 40
0.000000
 41
0.000000
  0
VERTEX
  8
0
  6
CONTINUOUS
 10
5.582280
 20
1.770120
  0
VERTEX
  8
0
  6
CONTINUOUS
 10
6.223800
 20
2.134880
  0
VERTEX
  8
0
  6
CONTINUOUS
 10
6.223800
 20
1.999800
  0
VERTEX
  8
0
  6
CONTINUOUS
 10
5.582280
 20
1.634600
  0
VERTEX
  8
0
  6
CONTINUOUS
 10
5.582280
 20
1.770120
  0
SEQEND
  8
0
  0
SOLID
  8
0
 62
     7
 10
5.429160
 20
1.470480
 11
6.070680
 21
1.835240
 12
5.582280
 22
1.426040
 13
6.223800
 23
1.790800
  0
POLYLINE
  8
0
  6
CONTINUOUS
 66
     1
 40
0.000000
 41
0.000000
  0
VERTEX
  8
0
  6
CONTINUOUS
 10
5.429160
 20
1.470480
  0
VERTEX
  8
0
  6
CONTINUOUS
 10
6.070680
 20
1.835240
  0
VERTEX
  8
0
  6
CONTINUOUS
 10
6.223800
 20
1.790800
  0
VERTEX
  8
0
  6
CONTINUOUS
 10
5.582280
 20
1.426040
  0
VERTEX
  8
0
  6
CONTINUOUS
 10
5.429160
 20
1.470480
  0
SEQEND
  8
0
  0
SOLID
  8
0
 62
     7
 10
5.582280
 20
1.426040
 11
6.223800
 21
1.790800
 12
5.582280
 22
1.191080
 13
6.223800
 23
1.555840
  0
POLYLINE
  8
0
  6
CONTINUOUS
 66
     1
 40
0.000000
 41
0.000000
  0
VERTEX
  8
0
  6
CONTINUOUS
 10
5.582280
 20
1.426040
  0
VERTEX
  8
0
  6
CONTINUOUS
 10
6.223800
 20
1.790800
  0
VERTEX
  8
0
  6
CONTINUOUS
 10
6.223800
 20
1.555840
  0
VERTEX
  8
0
  6
CONTINUOUS
 10
5.582280
 20
1.191080
  0
VERTEX
  8
0
  6
CONTINUOUS
 10
5.582280
 20
1.426040
  0
SEQEND
  8
0
  0
SOLID
  8
0
 62
     7
 10
5.582280
 20
1.191080
 11
6.223800
 21
1.555840
 12
5.582280
 22
1.189760
 13
6.223800
 23
1.554960
  0
POLYLINE
  8
0
  6
CONTINUOUS
 66
     1
 40
0.000000
 41
0.000000
  0
VERTEX
  8
0
  6
CONTINUOUS
 10
5.582280
 20
1.191080
  0
VERTEX
  8
0
  6
CONTINUOUS
 10
6.223800
 20
1.555840
  0
VERTEX
  8
0
  6
CONTINUOUS
 10
6.223800
 20
1.554960
  0
VERTEX
  8
0
  6
CONTINUOUS
 10
5.582280
 20
1.189760
  0
VERTEX
  8
0
  6
CONTINUOUS
 10
5.582280
 20
1.191080
  0
SEQEND
  8
0
  0
SOLID
  8
0
 62
    15
 10
4.676320
 20
2.058320
 11
5.317400
 21
2.423520
 12
5.429160
 22
2.058320
 13
6.070680
 23
2.423520
  0
POLYLINE
  8
0
  6
CONTINUOUS
 66
     1
 40
0.000000
 41
0.000000
  0
VERTEX
  8
0
  6
CONTINUOUS
 10
4.676320
 20
2.058320
  0
VERTEX
  8
0
  6
CONTINUOUS
 10
5.317400
 20
2.423520
  0
VERTEX
  8
0
  6
CONTINUOUS
 10
6.070680
 20
2.423520
  0
VERTEX
  8
0
  6
CONTINUOUS
 10
5.429160
 20
2.058320
  0
VERTEX
  8
0
  6
CONTINUOUS
 10
4.676320
 20
2.058320
  0
SEQEND
  8
0
  0
POLYLINE
  8
0
  6
CONTINUOUS
 66
     1
 40
0.000000
 41
0.000000
  0
VERTEX
  8
0
  6
CONTINUOUS
 10
5.582280
 20
1.189760
  0
VERTEX
  8
0
  6
CONTINUOUS
 10
4.676320
 20
1.189760
  0
VERTEX
  8
0
  6
CONTINUOUS
 10
4.676320
 20
2.058320
  0
VERTEX
  8
0
  6
CONTINUOUS
 10
5.429160
 20
2.058320
  0
VERTEX
  8
0
  6
CONTINUOUS
 10
5.429160
 20
1.816760
  0
VERTEX
  8
0
  6
CONTINUOUS
 10
5.582280
 20
1.770120
  0
VERTEX
  8
0
  6
CONTINUOUS
 10
5.582280
 20
1.634600
  0
VERTEX
  8
0
  6
CONTINUOUS
 10
5.429160
 20
1.598960
  0
VERTEX
  8
0
  6
CONTINUOUS
 10
5.429160
 20
1.470480
  0
VERTEX
  8
0
  6
CONTINUOUS
 10
5.582280
 20
1.426040
  0
VERTEX
  8
0
  6
CONTINUOUS
 10
5.582280
 20
1.191080
  0
VERTEX
  8
0
  6
CONTINUOUS
 10
5.582280
 20
1.189760
  0
SEQEND
  8
0
  0
SOLID
  8
0
 62
    15
 10
6.291560
 20
2.057880
 11
6.937040
 21
2.423080
 12
7.042200
 22
2.057880
 13
7.687680
 23
2.423080
  0
POLYLINE
  8
0
  6
CONTINUOUS
 66
     1
 40
0.000000
 41
0.000000
  0
VERTEX
  8
0
  6
CONTINUOUS
 10
6.291560
 20
2.057880
  0
VERTEX
  8
0
  6
CONTINUOUS
 10
6.937040
 20
2.423080
  0
VERTEX
  8
0
  6
CONTINUOUS
 10
7.687680
 20
2.423080
  0
VERTEX
  8
0
  6
CONTINUOUS
 10
7.042200
 20
2.057880
  0
VERTEX
  8
0
  6
CONTINUOUS
 10
6.291560
 20
2.057880
  0
SEQEND
  8
0
  0
SOLID
  8
0
 62
    15
 10
6.291560
 20
1.598520
 11
6.937040
 21
1.963720
 12
6.444680
 22
1.634160
 13
7.090160
 23
1.999360
  0
POLYLINE
  8
0
  6
CONTINUOUS
 66
     1
 40
0.000000
 41
0.000000
  0
VERTEX
  8
0
  6
CONTINUOUS
 10
6.291560
 20
1.598520
  0
VERTEX
  8
0
  6
CONTINUOUS
 10
6.937040
 20
1.963720
  0
VERTEX
  8
0
  6
CONTINUOUS
 10
7.090160
 20
1.999360
  0
VERTEX
  8
0
  6
CONTINUOUS
 10
6.444680
 20
1.634160
  0
VERTEX
  8
0
  6
CONTINUOUS
 10
6.291560
 20
1.598520
  0
SEQEND
  8
0
  0
SOLID
  8
0
 62
     7
 10
7.042200
 20
2.057880
 11
7.687680
 21
2.423080
 12
7.042200
 22
1.189760
 13
7.687680
 23
1.554960
  0
POLYLINE
  8
0
  6
CONTINUOUS
 66
     1
 40
0.000000
 41
0.000000
  0
VERTEX
  8
0
  6
CONTINUOUS
 10
7.042200
 20
2.057880
  0
VERTEX
  8
0
  6
CONTINUOUS
 10
7.687680
 20
2.423080
  0
VERTEX
  8
0
  6
CONTINUOUS
 10
7.687680
 20
1.554960
  0
VERTEX
  8
0
  6
CONTINUOUS
 10
7.042200
 20
1.189760
  0
VERTEX
  8
0
  6
CONTINUOUS
 10
7.042200
 20
2.057880
  0
SEQEND
  8
0
  0
POLYLINE
  8
0
  6
CONTINUOUS
 66
     1
 40
0.000000
 41
0.000000
  0
VERTEX
  8
0
  6
CONTINUOUS
 10
6.444680
 20
1.190200
  0
VERTEX
  8
0
  6
CONTINUOUS
 10
6.444680
 20
1.425600
  0
VERTEX
  8
0
  6
CONTINUOUS
 10
6.291560
 20
1.469600
  0
VERTEX
  8
0
  6
CONTINUOUS
 10
6.291560
 20
1.598520
  0
VERTEX
  8
0
  6
CONTINUOUS
 10
6.444680
 20
1.634160
  0
VERTEX
  8
0
  6
CONTINUOUS
 10
6.444680
 20
1.769240
  0
VERTEX
  8
0
  6
CONTINUOUS
 10
6.291560
 20
1.815880
  0
VERTEX
  8
0
  6
CONTINUOUS
 10
6.291560
 20
2.057880
  0
VERTEX
  8
0
  6
CONTINUOUS
 10
7.042200
 20
2.057880
  0
VERTEX
  8
0
  6
CONTINUOUS
 10
7.042200
 20
1.189760
  0
VERTEX
  8
0
  6
CONTINUOUS
 10
6.444680
 20
1.189760
  0
VERTEX
  8
0
  6
CONTINUOUS
 10
6.444680
 20
1.190200
  0
SEQEND
  8
0
  0
TEXT
  8
0
 10
5.887640
 20
0.964920
 40
0.138066
  1
BA  507
 41
1.000000
  7
SN0
 71
     0
 72
     5
 11
6.478190
 21
0.964920
  0
TEXT
  8
0
 10
5.641680
 20
0.773520
 40
0.138066
  1
3/4" Glue Joint
 41
1.000000
  7
SN0
 71
     0
 72
     5
 11
6.723827
 21
0.773520
  0
ENDSEC
  0
EOF
