  0
SECTION
  2
HEADER
  9
$ACADVER
  1
AC1006
  9
$EXTMIN
 10
3.159640
 20
0.507320
  9
$EXTMAX
 10
7.509480
 20
6.692400
  9
$LTSCALE
 40
0.044000
  9
$PDMODE
 70
    35
  9
$PDSIZE
 40
0.035200
  0
ENDSEC
  0
SECTION
  2
TABLES
  0
TABLE
  2
LTYPE
 70
     9
  0
LTYPE
  2
CONTINUOUS
 70
    64
  3
Solid line
 72
    65
 73
     0
 40
0.000000
  0
LTYPE
  2
DASHED
 70
    64
  3
__ __ __ __ __ __ __ __ __ __ __ __ __ __ __
 72
    65
 73
     2
 40
0.000330
 49
0.000220
 49
-0.000110
  0
LTYPE
  2
HIDDEN
 70
    64
  3
 _ _ _ _ _ _ _ _ _ _ _ _ _ _ _ _ _ _ _ _ _ _
 72
    65
 73
     2
 40
0.000165
 49
0.000110
 49
-0.000055
  0
LTYPE
  2
CENTER
 70
    64
  3
____ _ ____ _ ____ _ ____ _ ____ _ ____ _ ____
 72
    65
 73
     4
 40
0.000880
 49
0.000550
 49
-0.000110
 49
0.000110
 49
-0.000110
  0
LTYPE
  2
PHANTOM
 70
    64
  3
_____ _ _ _____ _ _ _____ _ _ _____ _ _ ____
 72
    65
 73
     6
 40
0.001100
 49
0.000550
 49
-0.000110
 49
0.000110
 49
-0.000110
 49
0.000110
 49
-0.000110
  0
LTYPE
  2
DOT
 70
    64
  3
...............................................
 72
    65
 73
     2
 40
0.000110
 49
0.000000
 49
-0.000110
  0
LTYPE
  2
DASHDOT
 70
    64
  3
__ . __ . __ . __ . __ . __ . __ . __ . __ . __
 72
    65
 73
     4
 40
0.000440
 49
0.000220
 49
-0.000110
 49
0.000000
 49
-0.000110
  0
LTYPE
  2
BORDER
 70
    64
  3
__ __ . __ __ . __ __ . __ __ . __ __ . __ __
 72
    65
 73
     6
 40
0.000770
 49
0.000220
 49
-0.000110
 49
0.000220
 49
-0.000110
 49
0.000000
 49
-0.000110
  0
LTYPE
  2
DIVIDE
 70
    64
  3
__ . . __ . . __ . . __ . . __ . . __ . . __
 72
    65
 73
     6
 40
0.000550
 49
0.000220
 49
-0.000110
 49
0.000000
 49
-0.000110
 49
0.000000
 49
-0.000110
  0
LTYPE
  2
DOTDOT
 70
    64
  3
 . .  . .  . .  . .  . .  . . 
 72
    65
 73
     5
 40
0.000242
 49
-0.000110
 49
0.000000
 49
-0.000110
 49
0.000000
 49
-0.000110
  0
ENDTAB
  0
TABLE
  2
STYLE
 70
     2
  0
STYLE
 70
     0
  2
SN0
 40
0.000000
 41
0.000440
 50
0.000000
 71
     0
 42
0.000000
  3
ROMAND
  0
STYLE
 70
    68
  2
SV0
 40
0.000000
 41
0.000440
 50
0.000000
 71
     0
 42
0.000000
  3
ROMAND
  0
ENDTAB
  0
TABLE
  2
LAYER
 70
     3
  0
LAYER
  2
FOREGROUND
 70
    64
 62
     7
  6
CONTINUOUS
  0
LAYER
  2
BACKGROUND
 70
    65
 62
    -7
  6
CONTINUOUS
  0
LAYER
  2
0
 70
    64
 62
     7
  6
CONTINUOUS
  0
ENDTAB
  0
ENDSEC
  0
SECTION
  2
ENTITIES
  0
POLYLINE
  8
FOREGROUND
  6
CONTINUOUS
 66
     1
 40
0.000000
 41
0.000000
  0
VERTEX
  8
FOREGROUND
  6
CONTINUOUS
 10
0.000000
 20
7.199720
  0
VERTEX
  8
FOREGROUND
  6
CONTINUOUS
 10
8.499920
 20
7.199720
  0
VERTEX
  8
FOREGROUND
  6
CONTINUOUS
 10
8.499920
 20
-3.800280
  0
VERTEX
  8
FOREGROUND
  6
CONTINUOUS
 10
0.000000
 20
-3.800280
  0
VERTEX
  8
FOREGROUND
  6
CONTINUOUS
 10
0.000000
 20
7.199720
  0
SEQEND
  8
0
  0
POLYLINE
  8
FOREGROUND
  6
CONTINUOUS
 66
     1
 40
0.000000
 41
0.000000
  0
VERTEX
  8
FOREGROUND
  6
CONTINUOUS
 10
0.000000
 20
7.199720
  0
VERTEX
  8
FOREGROUND
  6
CONTINUOUS
 10
8.499920
 20
7.199720
  0
VERTEX
  8
FOREGROUND
  6
CONTINUOUS
 10
8.499920
 20
-3.800280
  0
VERTEX
  8
FOREGROUND
  6
CONTINUOUS
 10
0.000000
 20
-3.800280
  0
VERTEX
  8
FOREGROUND
  6
CONTINUOUS
 10
0.000000
 20
7.199720
  0
SEQEND
  8
0
  0
POLYLINE
  8
0
  6
CONTINUOUS
 66
     1
 40
0.014080
 41
0.014080
  0
VERTEX
  8
0
  6
CONTINUOUS
 10
7.278480
 20
6.185960
  0
VERTEX
  8
0
  6
CONTINUOUS
 10
7.197960
 20
6.184640
  0
VERTEX
  8
0
  6
CONTINUOUS
 10
7.118760
 20
6.187720
  0
VERTEX
  8
0
  6
CONTINUOUS
 10
7.041760
 20
6.196080
  0
VERTEX
  8
0
  6
CONTINUOUS
 10
6.966520
 20
6.211480
  0
VERTEX
  8
0
  6
CONTINUOUS
 10
6.929560
 20
6.222480
  0
VERTEX
  8
0
  6
CONTINUOUS
 10
6.875000
 20
6.243160
  0
VERTEX
  8
0
  6
CONTINUOUS
 10
6.821320
 20
6.269560
  0
VERTEX
  8
0
  6
CONTINUOUS
 10
6.768080
 20
6.302560
  0
VERTEX
  8
0
  6
CONTINUOUS
 10
6.716600
 20
6.342600
  0
VERTEX
  8
0
  6
CONTINUOUS
 10
6.647520
 20
6.404200
  0
VERTEX
  8
0
  6
CONTINUOUS
 10
6.611000
 20
6.431040
  0
VERTEX
  8
0
  6
CONTINUOUS
 10
6.555120
 20
6.465360
  0
VERTEX
  8
0
  6
CONTINUOUS
 10
6.498800
 20
6.492640
  0
VERTEX
  8
0
  6
CONTINUOUS
 10
6.443800
 20
6.513760
  0
VERTEX
  8
0
  6
CONTINUOUS
 10
6.375160
 20
6.533120
  0
VERTEX
  8
0
  6
CONTINUOUS
 10
6.316200
 20
6.545440
  0
VERTEX
  8
0
  6
CONTINUOUS
 10
6.248440
 20
6.553800
  0
VERTEX
  8
0
  6
CONTINUOUS
 10
6.236560
 20
6.554240
  0
VERTEX
  8
0
  6
CONTINUOUS
 10
6.236560
 20
6.684920
  0
VERTEX
  8
0
  6
CONTINUOUS
 10
3.167120
 20
6.684920
  0
VERTEX
  8
0
  6
CONTINUOUS
 10
3.167120
 20
5.932080
  0
VERTEX
  8
0
  6
CONTINUOUS
 10
7.278040
 20
5.932080
  0
VERTEX
  8
0
  6
CONTINUOUS
 10
7.278480
 20
6.185960
  0
SEQEND
  8
0
  0
SOLID
  8
0
 62
    15
 10
6.660280
 20
4.412320
 11
7.299600
 21
4.786320
 12
6.692400
 22
4.337960
 13
7.331280
 23
4.711520
  0
POLYLINE
  8
0
  6
CONTINUOUS
 66
     1
 40
0.000000
 41
0.000000
  0
VERTEX
  8
0
  6
CONTINUOUS
 10
6.660280
 20
4.412320
  0
VERTEX
  8
0
  6
CONTINUOUS
 10
7.299600
 20
4.786320
  0
VERTEX
  8
0
  6
CONTINUOUS
 10
7.331280
 20
4.711520
  0
VERTEX
  8
0
  6
CONTINUOUS
 10
6.692400
 20
4.337960
  0
VERTEX
  8
0
  6
CONTINUOUS
 10
6.660280
 20
4.412320
  0
SEQEND
  8
0
  0
SOLID
  8
0
 62
    15
 10
6.369880
 20
5.074080
 11
7.009200
 21
5.447640
 12
6.372960
 22
4.994880
 13
7.011840
 23
5.368880
  0
POLYLINE
  8
0
  6
CONTINUOUS
 66
     1
 40
0.000000
 41
0.000000
  0
VERTEX
  8
0
  6
CONTINUOUS
 10
6.369880
 20
5.074080
  0
VERTEX
  8
0
  6
CONTINUOUS
 10
7.009200
 20
5.447640
  0
VERTEX
  8
0
  6
CONTINUOUS
 10
7.011840
 20
5.368880
  0
VERTEX
  8
0
  6
CONTINUOUS
 10
6.372960
 20
4.994880
  0
VERTEX
  8
0
  6
CONTINUOUS
 10
6.369880
 20
5.074080
  0
SEQEND
  8
0
  0
SOLID
  8
0
 62
    15
 10
6.372960
 20
4.994880
 11
7.011840
 21
5.368880
 12
6.381320
 22
4.917880
 13
7.020640
 23
5.291880
  0
POLYLINE
  8
0
  6
CONTINUOUS
 66
     1
 40
0.000000
 41
0.000000
  0
VERTEX
  8
0
  6
CONTINUOUS
 10
6.372960
 20
4.994880
  0
VERTEX
  8
0
  6
CONTINUOUS
 10
7.011840
 20
5.368880
  0
VERTEX
  8
0
  6
CONTINUOUS
 10
7.020640
 20
5.291880
  0
VERTEX
  8
0
  6
CONTINUOUS
 10
6.381320
 20
4.917880
  0
VERTEX
  8
0
  6
CONTINUOUS
 10
6.372960
 20
4.994880
  0
SEQEND
  8
0
  0
SOLID
  8
0
 62
    15
 10
6.381320
 20
4.917880
 11
7.020640
 21
5.291880
 12
6.396720
 22
4.842640
 13
7.036040
 23
5.216640
  0
POLYLINE
  8
0
  6
CONTINUOUS
 66
     1
 40
0.000000
 41
0.000000
  0
VERTEX
  8
0
  6
CONTINUOUS
 10
6.381320
 20
4.917880
  0
VERTEX
  8
0
  6
CONTINUOUS
 10
7.020640
 20
5.291880
  0
VERTEX
  8
0
  6
CONTINUOUS
 10
7.036040
 20
5.216640
  0
VERTEX
  8
0
  6
CONTINUOUS
 10
6.396720
 20
4.842640
  0
VERTEX
  8
0
  6
CONTINUOUS
 10
6.381320
 20
4.917880
  0
SEQEND
  8
0
  0
SOLID
  8
0
 62
    15
 10
6.396720
 20
4.842640
 11
7.036040
 21
5.216640
 12
6.420920
 22
4.769160
 13
7.059800
 23
5.143160
  0
POLYLINE
  8
0
  6
CONTINUOUS
 66
     1
 40
0.000000
 41
0.000000
  0
VERTEX
  8
0
  6
CONTINUOUS
 10
6.396720
 20
4.842640
  0
VERTEX
  8
0
  6
CONTINUOUS
 10
7.036040
 20
5.216640
  0
VERTEX
  8
0
  6
CONTINUOUS
 10
7.059800
 20
5.143160
  0
VERTEX
  8
0
  6
CONTINUOUS
 10
6.420920
 20
4.769160
  0
VERTEX
  8
0
  6
CONTINUOUS
 10
6.396720
 20
4.842640
  0
SEQEND
  8
0
  0
SOLID
  8
0
 62
    15
 10
6.420920
 20
4.769160
 11
7.059800
 21
5.143160
 12
6.454800
 22
4.697440
 13
7.093680
 23
5.071000
  0
POLYLINE
  8
0
  6
CONTINUOUS
 66
     1
 40
0.000000
 41
0.000000
  0
VERTEX
  8
0
  6
CONTINUOUS
 10
6.420920
 20
4.769160
  0
VERTEX
  8
0
  6
CONTINUOUS
 10
7.059800
 20
5.143160
  0
VERTEX
  8
0
  6
CONTINUOUS
 10
7.093680
 20
5.071000
  0
VERTEX
  8
0
  6
CONTINUOUS
 10
6.454800
 20
4.697440
  0
VERTEX
  8
0
  6
CONTINUOUS
 10
6.420920
 20
4.769160
  0
SEQEND
  8
0
  0
SOLID
  8
0
 62
    15
 10
6.454800
 20
4.697440
 11
7.093680
 21
5.071000
 12
6.500120
 22
4.627040
 13
7.139440
 23
5.000600
  0
POLYLINE
  8
0
  6
CONTINUOUS
 66
     1
 40
0.000000
 41
0.000000
  0
VERTEX
  8
0
  6
CONTINUOUS
 10
6.454800
 20
4.697440
  0
VERTEX
  8
0
  6
CONTINUOUS
 10
7.093680
 20
5.071000
  0
VERTEX
  8
0
  6
CONTINUOUS
 10
7.139440
 20
5.000600
  0
VERTEX
  8
0
  6
CONTINUOUS
 10
6.500120
 20
4.627040
  0
VERTEX
  8
0
  6
CONTINUOUS
 10
6.454800
 20
4.697440
  0
SEQEND
  8
0
  0
SOLID
  8
0
 62
    15
 10
6.500120
 20
4.627040
 11
7.139440
 21
5.000600
 12
6.558640
 22
4.558400
 13
7.197520
 23
4.931960
  0
POLYLINE
  8
0
  6
CONTINUOUS
 66
     1
 40
0.000000
 41
0.000000
  0
VERTEX
  8
0
  6
CONTINUOUS
 10
6.500120
 20
4.627040
  0
VERTEX
  8
0
  6
CONTINUOUS
 10
7.139440
 20
5.000600
  0
VERTEX
  8
0
  6
CONTINUOUS
 10
7.197520
 20
4.931960
  0
VERTEX
  8
0
  6
CONTINUOUS
 10
6.558640
 20
4.558400
  0
VERTEX
  8
0
  6
CONTINUOUS
 10
6.500120
 20
4.627040
  0
SEQEND
  8
0
  0
SOLID
  8
0
 62
    15
 10
6.558640
 20
4.558400
 11
7.197520
 21
4.931960
 12
6.589000
 22
4.523640
 13
7.228320
 23
4.897200
  0
POLYLINE
  8
0
  6
CONTINUOUS
 66
     1
 40
0.000000
 41
0.000000
  0
VERTEX
  8
0
  6
CONTINUOUS
 10
6.558640
 20
4.558400
  0
VERTEX
  8
0
  6
CONTINUOUS
 10
7.197520
 20
4.931960
  0
VERTEX
  8
0
  6
CONTINUOUS
 10
7.228320
 20
4.897200
  0
VERTEX
  8
0
  6
CONTINUOUS
 10
6.589000
 20
4.523640
  0
VERTEX
  8
0
  6
CONTINUOUS
 10
6.558640
 20
4.558400
  0
SEQEND
  8
0
  0
SOLID
  8
0
 62
    15
 10
6.589000
 20
4.523640
 11
7.228320
 21
4.897200
 12
6.616280
 22
4.487120
 13
7.255600
 23
4.861120
  0
POLYLINE
  8
0
  6
CONTINUOUS
 66
     1
 40
0.000000
 41
0.000000
  0
VERTEX
  8
0
  6
CONTINUOUS
 10
6.589000
 20
4.523640
  0
VERTEX
  8
0
  6
CONTINUOUS
 10
7.228320
 20
4.897200
  0
VERTEX
  8
0
  6
CONTINUOUS
 10
7.255600
 20
4.861120
  0
VERTEX
  8
0
  6
CONTINUOUS
 10
6.616280
 20
4.487120
  0
VERTEX
  8
0
  6
CONTINUOUS
 10
6.589000
 20
4.523640
  0
SEQEND
  8
0
  0
SOLID
  8
0
 62
    15
 10
6.616280
 20
4.487120
 11
7.255600
 21
4.861120
 12
6.660280
 22
4.412320
 13
7.299600
 23
4.786320
  0
POLYLINE
  8
0
  6
CONTINUOUS
 66
     1
 40
0.000000
 41
0.000000
  0
VERTEX
  8
0
  6
CONTINUOUS
 10
6.616280
 20
4.487120
  0
VERTEX
  8
0
  6
CONTINUOUS
 10
7.255600
 20
4.861120
  0
VERTEX
  8
0
  6
CONTINUOUS
 10
7.299600
 20
4.786320
  0
VERTEX
  8
0
  6
CONTINUOUS
 10
6.660280
 20
4.412320
  0
VERTEX
  8
0
  6
CONTINUOUS
 10
6.616280
 20
4.487120
  0
SEQEND
  8
0
  0
SOLID
  8
0
 62
    15
 10
6.116880
 20
5.154160
 11
6.756200
 21
5.528160
 12
6.370760
 22
5.154160
 13
7.010080
 23
5.528160
  0
POLYLINE
  8
0
  6
CONTINUOUS
 66
     1
 40
0.000000
 41
0.000000
  0
VERTEX
  8
0
  6
CONTINUOUS
 10
6.116880
 20
5.154160
  0
VERTEX
  8
0
  6
CONTINUOUS
 10
6.756200
 20
5.528160
  0
VERTEX
  8
0
  6
CONTINUOUS
 10
7.010080
 20
5.528160
  0
VERTEX
  8
0
  6
CONTINUOUS
 10
6.370760
 20
5.154160
  0
VERTEX
  8
0
  6
CONTINUOUS
 10
6.116880
 20
5.154160
  0
SEQEND
  8
0
  0
SOLID
  8
0
 62
    15
 10
6.692400
 20
4.337960
 11
7.331280
 21
4.711520
 12
6.714400
 22
4.267560
 13
7.353280
 23
4.641560
  0
POLYLINE
  8
0
  6
CONTINUOUS
 66
     1
 40
0.000000
 41
0.000000
  0
VERTEX
  8
0
  6
CONTINUOUS
 10
6.692400
 20
4.337960
  0
VERTEX
  8
0
  6
CONTINUOUS
 10
7.331280
 20
4.711520
  0
VERTEX
  8
0
  6
CONTINUOUS
 10
7.353280
 20
4.641560
  0
VERTEX
  8
0
  6
CONTINUOUS
 10
6.714400
 20
4.267560
  0
VERTEX
  8
0
  6
CONTINUOUS
 10
6.692400
 20
4.337960
  0
SEQEND
  8
0
  0
SOLID
  8
0
 62
    15
 10
6.714400
 20
4.267560
 11
7.353280
 21
4.641560
 12
6.728040
 22
4.205960
 13
7.367360
 23
4.579960
  0
POLYLINE
  8
0
  6
CONTINUOUS
 66
     1
 40
0.000000
 41
0.000000
  0
VERTEX
  8
0
  6
CONTINUOUS
 10
6.714400
 20
4.267560
  0
VERTEX
  8
0
  6
CONTINUOUS
 10
7.353280
 20
4.641560
  0
VERTEX
  8
0
  6
CONTINUOUS
 10
7.367360
 20
4.579960
  0
VERTEX
  8
0
  6
CONTINUOUS
 10
6.728040
 20
4.205960
  0
VERTEX
  8
0
  6
CONTINUOUS
 10
6.714400
 20
4.267560
  0
SEQEND
  8
0
  0
SOLID
  8
0
 62
    15
 10
6.728040
 20
4.205960
 11
7.367360
 21
4.579960
 12
6.732440
 22
4.179560
 13
7.371760
 23
4.553560
  0
POLYLINE
  8
0
  6
CONTINUOUS
 66
     1
 40
0.000000
 41
0.000000
  0
VERTEX
  8
0
  6
CONTINUOUS
 10
6.728040
 20
4.205960
  0
VERTEX
  8
0
  6
CONTINUOUS
 10
7.367360
 20
4.579960
  0
VERTEX
  8
0
  6
CONTINUOUS
 10
7.371760
 20
4.553560
  0
VERTEX
  8
0
  6
CONTINUOUS
 10
6.732440
 20
4.179560
  0
VERTEX
  8
0
  6
CONTINUOUS
 10
6.728040
 20
4.205960
  0
SEQEND
  8
0
  0
SOLID
  8
0
 62
    15
 10
6.732440
 20
4.179560
 11
7.371760
 21
4.553560
 12
6.735520
 22
4.157120
 13
7.374840
 23
4.530680
  0
POLYLINE
  8
0
  6
CONTINUOUS
 66
     1
 40
0.000000
 41
0.000000
  0
VERTEX
  8
0
  6
CONTINUOUS
 10
6.732440
 20
4.179560
  0
VERTEX
  8
0
  6
CONTINUOUS
 10
7.371760
 20
4.553560
  0
VERTEX
  8
0
  6
CONTINUOUS
 10
7.374840
 20
4.530680
  0
VERTEX
  8
0
  6
CONTINUOUS
 10
6.735520
 20
4.157120
  0
VERTEX
  8
0
  6
CONTINUOUS
 10
6.732440
 20
4.179560
  0
SEQEND
  8
0
  0
SOLID
  8
0
 62
    15
 10
6.735520
 20
4.157120
 11
7.374840
 21
4.530680
 12
6.737720
 22
4.138200
 13
7.376600
 23
4.512200
  0
POLYLINE
  8
0
  6
CONTINUOUS
 66
     1
 40
0.000000
 41
0.000000
  0
VERTEX
  8
0
  6
CONTINUOUS
 10
6.735520
 20
4.157120
  0
VERTEX
  8
0
  6
CONTINUOUS
 10
7.374840
 20
4.530680
  0
VERTEX
  8
0
  6
CONTINUOUS
 10
7.376600
 20
4.512200
  0
VERTEX
  8
0
  6
CONTINUOUS
 10
6.737720
 20
4.138200
  0
VERTEX
  8
0
  6
CONTINUOUS
 10
6.735520
 20
4.157120
  0
SEQEND
  8
0
  0
SOLID
  8
0
 62
    15
 10
6.737720
 20
4.138200
 11
7.376600
 21
4.512200
 12
6.738600
 22
4.124560
 13
7.377920
 23
4.498120
  0
POLYLINE
  8
0
  6
CONTINUOUS
 66
     1
 40
0.000000
 41
0.000000
  0
VERTEX
  8
0
  6
CONTINUOUS
 10
6.737720
 20
4.138200
  0
VERTEX
  8
0
  6
CONTINUOUS
 10
7.376600
 20
4.512200
  0
VERTEX
  8
0
  6
CONTINUOUS
 10
7.377920
 20
4.498120
  0
VERTEX
  8
0
  6
CONTINUOUS
 10
6.738600
 20
4.124560
  0
VERTEX
  8
0
  6
CONTINUOUS
 10
6.737720
 20
4.138200
  0
SEQEND
  8
0
  0
SOLID
  8
0
 62
    15
 10
6.738600
 20
4.124560
 11
7.377920
 21
4.498120
 12
6.739480
 22
4.112680
 13
7.378800
 23
4.486680
  0
POLYLINE
  8
0
  6
CONTINUOUS
 66
     1
 40
0.000000
 41
0.000000
  0
VERTEX
  8
0
  6
CONTINUOUS
 10
6.738600
 20
4.124560
  0
VERTEX
  8
0
  6
CONTINUOUS
 10
7.377920
 20
4.498120
  0
VERTEX
  8
0
  6
CONTINUOUS
 10
7.378800
 20
4.486680
  0
VERTEX
  8
0
  6
CONTINUOUS
 10
6.739480
 20
4.112680
  0
VERTEX
  8
0
  6
CONTINUOUS
 10
6.738600
 20
4.124560
  0
SEQEND
  8
0
  0
SOLID
  8
0
 62
    15
 10
6.739480
 20
4.112680
 11
7.378800
 21
4.486680
 12
6.870160
 22
4.112680
 13
7.509040
 23
4.486680
  0
POLYLINE
  8
0
  6
CONTINUOUS
 66
     1
 40
0.000000
 41
0.000000
  0
VERTEX
  8
0
  6
CONTINUOUS
 10
6.739480
 20
4.112680
  0
VERTEX
  8
0
  6
CONTINUOUS
 10
7.378800
 20
4.486680
  0
VERTEX
  8
0
  6
CONTINUOUS
 10
7.509040
 20
4.486680
  0
VERTEX
  8
0
  6
CONTINUOUS
 10
6.870160
 20
4.112680
  0
VERTEX
  8
0
  6
CONTINUOUS
 10
6.739480
 20
4.112680
  0
SEQEND
  8
0
  0
SOLID
  8
0
 62
    15
 10
6.870160
 20
4.112680
 11
7.509040
 21
4.486680
 12
6.870160
 22
1.043240
 13
7.509040
 23
1.416800
  0
POLYLINE
  8
0
  6
CONTINUOUS
 66
     1
 40
0.000000
 41
0.000000
  0
VERTEX
  8
0
  6
CONTINUOUS
 10
6.870160
 20
4.112680
  0
VERTEX
  8
0
  6
CONTINUOUS
 10
7.509040
 20
4.486680
  0
VERTEX
  8
0
  6
CONTINUOUS
 10
7.509040
 20
1.416800
  0
VERTEX
  8
0
  6
CONTINUOUS
 10
6.870160
 20
1.043240
  0
VERTEX
  8
0
  6
CONTINUOUS
 10
6.870160
 20
4.112680
  0
SEQEND
  8
0
  0
SOLID
  8
0
 62
    15
 10
6.370760
 20
5.154600
 11
7.010080
 21
5.528600
 12
6.369880
 22
5.074080
 13
7.009200
 23
5.447640
  0
POLYLINE
  8
0
  6
CONTINUOUS
 66
     1
 40
0.000000
 41
0.000000
  0
VERTEX
  8
0
  6
CONTINUOUS
 10
6.370760
 20
5.154600
  0
VERTEX
  8
0
  6
CONTINUOUS
 10
7.010080
 20
5.528600
  0
VERTEX
  8
0
  6
CONTINUOUS
 10
7.009200
 20
5.447640
  0
VERTEX
  8
0
  6
CONTINUOUS
 10
6.369880
 20
5.074080
  0
VERTEX
  8
0
  6
CONTINUOUS
 10
6.370760
 20
5.154600
  0
SEQEND
  8
0
  0
POLYLINE
  8
0
  6
CONTINUOUS
 66
     1
 40
0.000000
 41
0.000000
  0
VERTEX
  8
0
  6
CONTINUOUS
 10
6.370760
 20
5.154600
  0
VERTEX
  8
0
  6
CONTINUOUS
 10
6.369880
 20
5.074080
  0
VERTEX
  8
0
  6
CONTINUOUS
 10
6.372960
 20
4.994880
  0
VERTEX
  8
0
  6
CONTINUOUS
 10
6.381320
 20
4.917880
  0
VERTEX
  8
0
  6
CONTINUOUS
 10
6.396720
 20
4.842640
  0
VERTEX
  8
0
  6
CONTINUOUS
 10
6.420920
 20
4.769160
  0
VERTEX
  8
0
  6
CONTINUOUS
 10
6.454800
 20
4.697440
  0
VERTEX
  8
0
  6
CONTINUOUS
 10
6.500120
 20
4.627040
  0
VERTEX
  8
0
  6
CONTINUOUS
 10
6.558640
 20
4.558400
  0
VERTEX
  8
0
  6
CONTINUOUS
 10
6.589000
 20
4.523640
  0
VERTEX
  8
0
  6
CONTINUOUS
 10
6.616280
 20
4.487120
  0
VERTEX
  8
0
  6
CONTINUOUS
 10
6.660280
 20
4.412320
  0
VERTEX
  8
0
  6
CONTINUOUS
 10
6.692400
 20
4.337960
  0
VERTEX
  8
0
  6
CONTINUOUS
 10
6.714400
 20
4.267560
  0
VERTEX
  8
0
  6
CONTINUOUS
 10
6.728040
 20
4.205960
  0
VERTEX
  8
0
  6
CONTINUOUS
 10
6.732440
 20
4.179560
  0
VERTEX
  8
0
  6
CONTINUOUS
 10
6.735520
 20
4.157120
  0
VERTEX
  8
0
  6
CONTINUOUS
 10
6.737720
 20
4.138200
  0
VERTEX
  8
0
  6
CONTINUOUS
 10
6.738600
 20
4.124560
  0
VERTEX
  8
0
  6
CONTINUOUS
 10
6.739480
 20
4.112680
  0
VERTEX
  8
0
  6
CONTINUOUS
 10
6.870160
 20
4.112680
  0
VERTEX
  8
0
  6
CONTINUOUS
 10
6.870160
 20
1.043240
  0
VERTEX
  8
0
  6
CONTINUOUS
 10
6.116880
 20
1.043240
  0
VERTEX
  8
0
  6
CONTINUOUS
 10
6.116880
 20
5.154160
  0
VERTEX
  8
0
  6
CONTINUOUS
 10
6.370760
 20
5.154160
  0
VERTEX
  8
0
  6
CONTINUOUS
 10
6.370760
 20
5.154600
  0
SEQEND
  8
0
  0
TEXT
  8
0
 10
6.517720
 20
0.743600
 40
0.138061
  1
BA  506
 41
1.000000
  7
SN0
 71
     0
 72
     5
 11
7.107467
 21
0.743600
  0
TEXT
  8
0
 10
6.504960
 20
0.551760
 40
0.138061
  1
3/4" x 4"
 41
1.000000
  7
SN0
 71
     0
 72
     5
 11
7.119448
 21
0.551760
  0
ENDSEC
  0
EOF
