  0
SECTION
  2
HEADER
  9
$ACADVER
  1
AC1006
  9
$EXTMIN
 10
2.960320
 20
0.540760
  9
$EXTMAX
 10
6.855640
 20
2.687520
  9
$LTSCALE
 40
0.044000
  9
$PDMODE
 70
    35
  9
$PDSIZE
 40
0.035200
  0
ENDSEC
  0
SECTION
  2
TABLES
  0
TABLE
  2
LTYPE
 70
     9
  0
LTYPE
  2
CONTINUOUS
 70
    64
  3
Solid line
 72
    65
 73
     0
 40
0.000000
  0
LTYPE
  2
DASHED
 70
    64
  3
__ __ __ __ __ __ __ __ __ __ __ __ __ __ __
 72
    65
 73
     2
 40
0.000330
 49
0.000220
 49
-0.000110
  0
LTYPE
  2
HIDDEN
 70
    64
  3
 _ _ _ _ _ _ _ _ _ _ _ _ _ _ _ _ _ _ _ _ _ _
 72
    65
 73
     2
 40
0.000165
 49
0.000110
 49
-0.000055
  0
LTYPE
  2
CENTER
 70
    64
  3
____ _ ____ _ ____ _ ____ _ ____ _ ____ _ ____
 72
    65
 73
     4
 40
0.000880
 49
0.000550
 49
-0.000110
 49
0.000110
 49
-0.000110
  0
LTYPE
  2
PHANTOM
 70
    64
  3
_____ _ _ _____ _ _ _____ _ _ _____ _ _ ____
 72
    65
 73
     6
 40
0.001100
 49
0.000550
 49
-0.000110
 49
0.000110
 49
-0.000110
 49
0.000110
 49
-0.000110
  0
LTYPE
  2
DOT
 70
    64
  3
...............................................
 72
    65
 73
     2
 40
0.000110
 49
0.000000
 49
-0.000110
  0
LTYPE
  2
DASHDOT
 70
    64
  3
__ . __ . __ . __ . __ . __ . __ . __ . __ . __
 72
    65
 73
     4
 40
0.000440
 49
0.000220
 49
-0.000110
 49
0.000000
 49
-0.000110
  0
LTYPE
  2
BORDER
 70
    64
  3
__ __ . __ __ . __ __ . __ __ . __ __ . __ __
 72
    65
 73
     6
 40
0.000770
 49
0.000220
 49
-0.000110
 49
0.000220
 49
-0.000110
 49
0.000000
 49
-0.000110
  0
LTYPE
  2
DIVIDE
 70
    64
  3
__ . . __ . . __ . . __ . . __ . . __ . . __
 72
    65
 73
     6
 40
0.000550
 49
0.000220
 49
-0.000110
 49
0.000000
 49
-0.000110
 49
0.000000
 49
-0.000110
  0
LTYPE
  2
DOTDOT
 70
    64
  3
 . .  . .  . .  . .  . .  . . 
 72
    65
 73
     5
 40
0.000242
 49
-0.000110
 49
0.000000
 49
-0.000110
 49
0.000000
 49
-0.000110
  0
ENDTAB
  0
TABLE
  2
STYLE
 70
     2
  0
STYLE
 70
     0
  2
SN0
 40
0.000000
 41
0.000440
 50
0.000000
 71
     0
 42
0.000000
  3
ROMAND
  0
STYLE
 70
    68
  2
SV0
 40
0.000000
 41
0.000440
 50
0.000000
 71
     0
 42
0.000000
  3
ROMAND
  0
ENDTAB
  0
TABLE
  2
LAYER
 70
     3
  0
LAYER
  2
FOREGROUND
 70
    64
 62
     7
  6
CONTINUOUS
  0
LAYER
  2
BACKGROUND
 70
    65
 62
    -7
  6
CONTINUOUS
  0
LAYER
  2
0
 70
    64
 62
     7
  6
CONTINUOUS
  0
ENDTAB
  0
ENDSEC
  0
SECTION
  2
ENTITIES
  0
POLYLINE
  8
FOREGROUND
  6
CONTINUOUS
 66
     1
 40
0.000000
 41
0.000000
  0
VERTEX
  8
FOREGROUND
  6
CONTINUOUS
 10
0.000000
 20
3.228280
  0
VERTEX
  8
FOREGROUND
  6
CONTINUOUS
 10
8.499920
 20
3.228280
  0
VERTEX
  8
FOREGROUND
  6
CONTINUOUS
 10
8.499920
 20
-7.771720
  0
VERTEX
  8
FOREGROUND
  6
CONTINUOUS
 10
0.000000
 20
-7.771720
  0
VERTEX
  8
FOREGROUND
  6
CONTINUOUS
 10
0.000000
 20
3.228280
  0
SEQEND
  8
0
  0
POLYLINE
  8
FOREGROUND
  6
CONTINUOUS
 66
     1
 40
0.000000
 41
0.000000
  0
VERTEX
  8
FOREGROUND
  6
CONTINUOUS
 10
0.000000
 20
3.228280
  0
VERTEX
  8
FOREGROUND
  6
CONTINUOUS
 10
8.499920
 20
3.228280
  0
VERTEX
  8
FOREGROUND
  6
CONTINUOUS
 10
8.499920
 20
-7.771720
  0
VERTEX
  8
FOREGROUND
  6
CONTINUOUS
 10
0.000000
 20
-7.771720
  0
VERTEX
  8
FOREGROUND
  6
CONTINUOUS
 10
0.000000
 20
3.228280
  0
SEQEND
  8
0
  0
POLYLINE
  8
0
  6
CONTINUOUS
 66
     1
 40
0.014080
 41
0.014080
  0
VERTEX
  8
0
  6
CONTINUOUS
 10
3.814360
 20
2.514600
  0
VERTEX
  8
0
  6
CONTINUOUS
 10
3.814800
 20
2.527360
  0
VERTEX
  8
0
  6
CONTINUOUS
 10
3.820080
 20
2.552000
  0
VERTEX
  8
0
  6
CONTINUOUS
 10
3.829320
 20
2.574000
  0
VERTEX
  8
0
  6
CONTINUOUS
 10
3.842960
 20
2.594240
  0
VERTEX
  8
0
  6
CONTINUOUS
 10
3.859680
 20
2.610960
  0
VERTEX
  8
0
  6
CONTINUOUS
 10
3.879920
 20
2.624600
  0
VERTEX
  8
0
  6
CONTINUOUS
 10
3.901920
 20
2.633840
  0
VERTEX
  8
0
  6
CONTINUOUS
 10
3.926560
 20
2.639120
  0
VERTEX
  8
0
  6
CONTINUOUS
 10
3.952080
 20
2.639120
  0
VERTEX
  8
0
  6
CONTINUOUS
 10
3.976720
 20
2.633840
  0
VERTEX
  8
0
  6
CONTINUOUS
 10
3.998720
 20
2.624600
  0
VERTEX
  8
0
  6
CONTINUOUS
 10
4.018960
 20
2.610960
  0
VERTEX
  8
0
  6
CONTINUOUS
 10
4.035680
 20
2.594240
  0
VERTEX
  8
0
  6
CONTINUOUS
 10
4.049320
 20
2.574000
  0
VERTEX
  8
0
  6
CONTINUOUS
 10
4.058560
 20
2.552000
  0
VERTEX
  8
0
  6
CONTINUOUS
 10
4.063840
 20
2.527360
  0
VERTEX
  8
0
  6
CONTINUOUS
 10
4.064280
 20
2.514600
  0
VERTEX
  8
0
  6
CONTINUOUS
 10
4.067800
 20
2.514600
  0
VERTEX
  8
0
  6
CONTINUOUS
 10
4.068240
 20
2.527360
  0
VERTEX
  8
0
  6
CONTINUOUS
 10
4.073520
 20
2.552000
  0
VERTEX
  8
0
  6
CONTINUOUS
 10
4.082760
 20
2.574000
  0
VERTEX
  8
0
  6
CONTINUOUS
 10
4.096400
 20
2.594240
  0
VERTEX
  8
0
  6
CONTINUOUS
 10
4.113120
 20
2.610960
  0
VERTEX
  8
0
  6
CONTINUOUS
 10
4.133360
 20
2.624600
  0
VERTEX
  8
0
  6
CONTINUOUS
 10
4.155360
 20
2.633840
  0
VERTEX
  8
0
  6
CONTINUOUS
 10
4.180000
 20
2.639120
  0
VERTEX
  8
0
  6
CONTINUOUS
 10
4.205520
 20
2.639120
  0
VERTEX
  8
0
  6
CONTINUOUS
 10
4.230160
 20
2.633840
  0
VERTEX
  8
0
  6
CONTINUOUS
 10
4.252160
 20
2.624600
  0
VERTEX
  8
0
  6
CONTINUOUS
 10
4.272400
 20
2.610960
  0
VERTEX
  8
0
  6
CONTINUOUS
 10
4.289120
 20
2.594240
  0
VERTEX
  8
0
  6
CONTINUOUS
 10
4.302760
 20
2.574000
  0
VERTEX
  8
0
  6
CONTINUOUS
 10
4.312000
 20
2.552000
  0
VERTEX
  8
0
  6
CONTINUOUS
 10
4.317280
 20
2.527360
  0
VERTEX
  8
0
  6
CONTINUOUS
 10
4.317720
 20
2.514600
  0
VERTEX
  8
0
  6
CONTINUOUS
 10
4.319040
 20
2.514600
  0
VERTEX
  8
0
  6
CONTINUOUS
 10
4.319480
 20
2.527360
  0
VERTEX
  8
0
  6
CONTINUOUS
 10
4.324760
 20
2.552000
  0
VERTEX
  8
0
  6
CONTINUOUS
 10
4.334000
 20
2.574000
  0
VERTEX
  8
0
  6
CONTINUOUS
 10
4.347640
 20
2.594240
  0
VERTEX
  8
0
  6
CONTINUOUS
 10
4.364360
 20
2.610960
  0
VERTEX
  8
0
  6
CONTINUOUS
 10
4.384600
 20
2.624600
  0
VERTEX
  8
0
  6
CONTINUOUS
 10
4.406600
 20
2.633840
  0
VERTEX
  8
0
  6
CONTINUOUS
 10
4.431240
 20
2.639120
  0
VERTEX
  8
0
  6
CONTINUOUS
 10
4.456760
 20
2.639120
  0
VERTEX
  8
0
  6
CONTINUOUS
 10
4.481400
 20
2.633840
  0
VERTEX
  8
0
  6
CONTINUOUS
 10
4.503400
 20
2.624600
  0
VERTEX
  8
0
  6
CONTINUOUS
 10
4.523640
 20
2.610960
  0
VERTEX
  8
0
  6
CONTINUOUS
 10
4.540360
 20
2.594240
  0
VERTEX
  8
0
  6
CONTINUOUS
 10
4.554000
 20
2.574000
  0
VERTEX
  8
0
  6
CONTINUOUS
 10
4.563240
 20
2.552000
  0
VERTEX
  8
0
  6
CONTINUOUS
 10
4.568520
 20
2.527360
  0
VERTEX
  8
0
  6
CONTINUOUS
 10
4.568960
 20
2.514600
  0
VERTEX
  8
0
  6
CONTINUOUS
 10
4.575120
 20
2.514600
  0
VERTEX
  8
0
  6
CONTINUOUS
 10
4.575560
 20
2.527360
  0
VERTEX
  8
0
  6
CONTINUOUS
 10
4.580840
 20
2.552000
  0
VERTEX
  8
0
  6
CONTINUOUS
 10
4.590080
 20
2.574000
  0
VERTEX
  8
0
  6
CONTINUOUS
 10
4.603720
 20
2.594240
  0
VERTEX
  8
0
  6
CONTINUOUS
 10
4.620440
 20
2.610960
  0
VERTEX
  8
0
  6
CONTINUOUS
 10
4.640680
 20
2.624600
  0
VERTEX
  8
0
  6
CONTINUOUS
 10
4.662680
 20
2.633840
  0
VERTEX
  8
0
  6
CONTINUOUS
 10
4.687320
 20
2.639120
  0
VERTEX
  8
0
  6
CONTINUOUS
 10
4.712840
 20
2.639120
  0
VERTEX
  8
0
  6
CONTINUOUS
 10
4.737040
 20
2.633840
  0
VERTEX
  8
0
  6
CONTINUOUS
 10
4.759480
 20
2.624600
  0
VERTEX
  8
0
  6
CONTINUOUS
 10
4.779280
 20
2.610960
  0
VERTEX
  8
0
  6
CONTINUOUS
 10
4.796440
 20
2.594240
  0
VERTEX
  8
0
  6
CONTINUOUS
 10
4.810080
 20
2.574000
  0
VERTEX
  8
0
  6
CONTINUOUS
 10
4.819320
 20
2.552000
  0
VERTEX
  8
0
  6
CONTINUOUS
 10
4.824600
 20
2.527360
  0
VERTEX
  8
0
  6
CONTINUOUS
 10
4.825040
 20
2.514600
  0
VERTEX
  8
0
  6
CONTINUOUS
 10
4.831200
 20
2.514600
  0
VERTEX
  8
0
  6
CONTINUOUS
 10
4.831640
 20
2.527360
  0
VERTEX
  8
0
  6
CONTINUOUS
 10
4.836920
 20
2.552000
  0
VERTEX
  8
0
  6
CONTINUOUS
 10
4.846160
 20
2.574000
  0
VERTEX
  8
0
  6
CONTINUOUS
 10
4.859800
 20
2.594240
  0
VERTEX
  8
0
  6
CONTINUOUS
 10
4.876520
 20
2.610960
  0
VERTEX
  8
0
  6
CONTINUOUS
 10
4.896760
 20
2.624600
  0
VERTEX
  8
0
  6
CONTINUOUS
 10
4.918760
 20
2.633840
  0
VERTEX
  8
0
  6
CONTINUOUS
 10
4.943400
 20
2.639120
  0
VERTEX
  8
0
  6
CONTINUOUS
 10
4.968920
 20
2.639120
  0
VERTEX
  8
0
  6
CONTINUOUS
 10
4.993120
 20
2.633840
  0
VERTEX
  8
0
  6
CONTINUOUS
 10
5.015560
 20
2.624600
  0
VERTEX
  8
0
  6
CONTINUOUS
 10
5.035360
 20
2.610960
  0
VERTEX
  8
0
  6
CONTINUOUS
 10
5.052520
 20
2.594240
  0
VERTEX
  8
0
  6
CONTINUOUS
 10
5.066160
 20
2.574000
  0
VERTEX
  8
0
  6
CONTINUOUS
 10
5.075400
 20
2.552000
  0
VERTEX
  8
0
  6
CONTINUOUS
 10
5.080680
 20
2.527360
  0
VERTEX
  8
0
  6
CONTINUOUS
 10
5.081120
 20
2.514600
  0
VERTEX
  8
0
  6
CONTINUOUS
 10
5.084200
 20
2.514600
  0
VERTEX
  8
0
  6
CONTINUOUS
 10
5.084640
 20
2.527360
  0
VERTEX
  8
0
  6
CONTINUOUS
 10
5.089920
 20
2.552000
  0
VERTEX
  8
0
  6
CONTINUOUS
 10
5.099160
 20
2.574000
  0
VERTEX
  8
0
  6
CONTINUOUS
 10
5.112800
 20
2.594240
  0
VERTEX
  8
0
  6
CONTINUOUS
 10
5.129520
 20
2.610960
  0
VERTEX
  8
0
  6
CONTINUOUS
 10
5.149760
 20
2.624600
  0
VERTEX
  8
0
  6
CONTINUOUS
 10
5.171760
 20
2.633840
  0
VERTEX
  8
0
  6
CONTINUOUS
 10
5.196400
 20
2.639120
  0
VERTEX
  8
0
  6
CONTINUOUS
 10
5.221920
 20
2.639120
  0
VERTEX
  8
0
  6
CONTINUOUS
 10
5.246560
 20
2.633840
  0
VERTEX
  8
0
  6
CONTINUOUS
 10
5.268560
 20
2.624600
  0
VERTEX
  8
0
  6
CONTINUOUS
 10
5.288800
 20
2.610960
  0
VERTEX
  8
0
  6
CONTINUOUS
 10
5.305520
 20
2.594240
  0
VERTEX
  8
0
  6
CONTINUOUS
 10
5.319160
 20
2.574000
  0
VERTEX
  8
0
  6
CONTINUOUS
 10
5.328400
 20
2.552000
  0
VERTEX
  8
0
  6
CONTINUOUS
 10
5.333680
 20
2.527360
  0
VERTEX
  8
0
  6
CONTINUOUS
 10
5.334120
 20
2.514600
  0
VERTEX
  8
0
  6
CONTINUOUS
 10
5.338520
 20
2.514160
  0
VERTEX
  8
0
  6
CONTINUOUS
 10
5.338960
 20
2.526920
  0
VERTEX
  8
0
  6
CONTINUOUS
 10
5.344240
 20
2.551560
  0
VERTEX
  8
0
  6
CONTINUOUS
 10
5.353480
 20
2.573560
  0
VERTEX
  8
0
  6
CONTINUOUS
 10
5.367120
 20
2.593800
  0
VERTEX
  8
0
  6
CONTINUOUS
 10
5.383840
 20
2.610520
  0
VERTEX
  8
0
  6
CONTINUOUS
 10
5.404080
 20
2.624160
  0
VERTEX
  8
0
  6
CONTINUOUS
 10
5.426080
 20
2.633400
  0
VERTEX
  8
0
  6
CONTINUOUS
 10
5.450720
 20
2.638680
  0
VERTEX
  8
0
  6
CONTINUOUS
 10
5.476240
 20
2.638680
  0
VERTEX
  8
0
  6
CONTINUOUS
 10
5.500880
 20
2.633400
  0
VERTEX
  8
0
  6
CONTINUOUS
 10
5.522880
 20
2.624160
  0
VERTEX
  8
0
  6
CONTINUOUS
 10
5.543120
 20
2.610520
  0
VERTEX
  8
0
  6
CONTINUOUS
 10
5.559840
 20
2.593800
  0
VERTEX
  8
0
  6
CONTINUOUS
 10
5.573480
 20
2.573560
  0
VERTEX
  8
0
  6
CONTINUOUS
 10
5.582720
 20
2.551560
  0
VERTEX
  8
0
  6
CONTINUOUS
 10
5.588000
 20
2.526920
  0
VERTEX
  8
0
  6
CONTINUOUS
 10
5.588440
 20
2.514160
  0
VERTEX
  8
0
  6
CONTINUOUS
 10
5.591960
 20
2.513720
  0
VERTEX
  8
0
  6
CONTINUOUS
 10
5.592400
 20
2.526480
  0
VERTEX
  8
0
  6
CONTINUOUS
 10
5.597680
 20
2.551120
  0
VERTEX
  8
0
  6
CONTINUOUS
 10
5.606920
 20
2.573120
  0
VERTEX
  8
0
  6
CONTINUOUS
 10
5.620560
 20
2.593360
  0
VERTEX
  8
0
  6
CONTINUOUS
 10
5.637720
 20
2.610080
  0
VERTEX
  8
0
  6
CONTINUOUS
 10
5.657520
 20
2.623720
  0
VERTEX
  8
0
  6
CONTINUOUS
 10
5.679960
 20
2.632960
  0
VERTEX
  8
0
  6
CONTINUOUS
 10
5.704160
 20
2.638240
  0
VERTEX
  8
0
  6
CONTINUOUS
 10
5.729680
 20
2.638240
  0
VERTEX
  8
0
  6
CONTINUOUS
 10
5.754320
 20
2.632960
  0
VERTEX
  8
0
  6
CONTINUOUS
 10
5.776320
 20
2.623720
  0
VERTEX
  8
0
  6
CONTINUOUS
 10
5.796560
 20
2.610080
  0
VERTEX
  8
0
  6
CONTINUOUS
 10
5.813280
 20
2.593360
  0
VERTEX
  8
0
  6
CONTINUOUS
 10
5.826920
 20
2.573120
  0
VERTEX
  8
0
  6
CONTINUOUS
 10
5.836160
 20
2.551120
  0
VERTEX
  8
0
  6
CONTINUOUS
 10
5.841440
 20
2.526480
  0
VERTEX
  8
0
  6
CONTINUOUS
 10
5.841880
 20
2.513720
  0
VERTEX
  8
0
  6
CONTINUOUS
 10
5.929440
 20
2.680040
  0
VERTEX
  8
0
  6
CONTINUOUS
 10
6.174960
 20
2.680040
  0
VERTEX
  8
0
  6
CONTINUOUS
 10
6.173200
 20
2.680480
  0
VERTEX
  8
0
  6
CONTINUOUS
 10
6.173200
 20
2.290640
  0
VERTEX
  8
0
  6
CONTINUOUS
 10
2.967800
 20
2.290640
  0
VERTEX
  8
0
  6
CONTINUOUS
 10
2.967800
 20
2.678280
  0
VERTEX
  8
0
  6
CONTINUOUS
 10
3.219040
 20
2.678280
  0
VERTEX
  8
0
  6
CONTINUOUS
 10
3.298680
 20
2.513720
  0
VERTEX
  8
0
  6
CONTINUOUS
 10
3.299120
 20
2.526480
  0
VERTEX
  8
0
  6
CONTINUOUS
 10
3.304400
 20
2.551120
  0
VERTEX
  8
0
  6
CONTINUOUS
 10
3.313640
 20
2.573560
  0
VERTEX
  8
0
  6
CONTINUOUS
 10
3.327280
 20
2.593360
  0
VERTEX
  8
0
  6
CONTINUOUS
 10
3.344000
 20
2.610520
  0
VERTEX
  8
0
  6
CONTINUOUS
 10
3.364240
 20
2.624160
  0
VERTEX
  8
0
  6
CONTINUOUS
 10
3.386240
 20
2.633400
  0
VERTEX
  8
0
  6
CONTINUOUS
 10
3.410880
 20
2.638680
  0
VERTEX
  8
0
  6
CONTINUOUS
 10
3.436400
 20
2.638680
  0
VERTEX
  8
0
  6
CONTINUOUS
 10
3.461040
 20
2.633400
  0
VERTEX
  8
0
  6
CONTINUOUS
 10
3.483040
 20
2.624160
  0
VERTEX
  8
0
  6
CONTINUOUS
 10
3.503280
 20
2.610520
  0
VERTEX
  8
0
  6
CONTINUOUS
 10
3.520000
 20
2.593360
  0
VERTEX
  8
0
  6
CONTINUOUS
 10
3.533640
 20
2.573560
  0
VERTEX
  8
0
  6
CONTINUOUS
 10
3.542880
 20
2.551120
  0
VERTEX
  8
0
  6
CONTINUOUS
 10
3.548160
 20
2.526480
  0
VERTEX
  8
0
  6
CONTINUOUS
 10
3.548600
 20
2.513720
  0
VERTEX
  8
0
  6
CONTINUOUS
 10
3.555200
 20
2.513720
  0
VERTEX
  8
0
  6
CONTINUOUS
 10
3.555640
 20
2.526480
  0
VERTEX
  8
0
  6
CONTINUOUS
 10
3.560920
 20
2.551120
  0
VERTEX
  8
0
  6
CONTINUOUS
 10
3.570160
 20
2.573560
  0
VERTEX
  8
0
  6
CONTINUOUS
 10
3.583800
 20
2.593360
  0
VERTEX
  8
0
  6
CONTINUOUS
 10
3.600520
 20
2.610520
  0
VERTEX
  8
0
  6
CONTINUOUS
 10
3.620760
 20
2.624160
  0
VERTEX
  8
0
  6
CONTINUOUS
 10
3.642760
 20
2.633400
  0
VERTEX
  8
0
  6
CONTINUOUS
 10
3.667400
 20
2.638680
  0
VERTEX
  8
0
  6
CONTINUOUS
 10
3.692920
 20
2.638680
  0
VERTEX
  8
0
  6
CONTINUOUS
 10
3.717560
 20
2.633400
  0
VERTEX
  8
0
  6
CONTINUOUS
 10
3.739560
 20
2.624160
  0
VERTEX
  8
0
  6
CONTINUOUS
 10
3.759800
 20
2.610520
  0
VERTEX
  8
0
  6
CONTINUOUS
 10
3.776520
 20
2.593360
  0
VERTEX
  8
0
  6
CONTINUOUS
 10
3.790160
 20
2.573560
  0
VERTEX
  8
0
  6
CONTINUOUS
 10
3.799400
 20
2.551120
  0
VERTEX
  8
0
  6
CONTINUOUS
 10
3.804680
 20
2.526480
  0
VERTEX
  8
0
  6
CONTINUOUS
 10
3.805120
 20
2.513720
  0
VERTEX
  8
0
  6
CONTINUOUS
 10
3.814360
 20
2.514600
  0
SEQEND
  8
0
  0
SOLID
  8
0
 62
    15
 10
5.770600
 20
1.282160
 11
5.774560
 21
2.030600
 12
5.782040
 22
1.303280
 13
5.786440
 23
2.051720
  0
POLYLINE
  8
0
  6
CONTINUOUS
 66
     1
 40
0.000000
 41
0.000000
  0
VERTEX
  8
0
  6
CONTINUOUS
 10
5.770600
 20
1.282160
  0
VERTEX
  8
0
  6
CONTINUOUS
 10
5.774560
 20
2.030600
  0
VERTEX
  8
0
  6
CONTINUOUS
 10
5.786440
 20
2.051720
  0
VERTEX
  8
0
  6
CONTINUOUS
 10
5.782040
 20
1.303280
  0
VERTEX
  8
0
  6
CONTINUOUS
 10
5.770600
 20
1.282160
  0
SEQEND
  8
0
  0
SOLID
  8
0
 62
    15
 10
4.481840
 20
1.232880
 11
4.485800
 21
1.981320
 12
4.491080
 22
1.233320
 13
4.495040
 23
1.981760
  0
POLYLINE
  8
0
  6
CONTINUOUS
 66
     1
 40
0.000000
 41
0.000000
  0
VERTEX
  8
0
  6
CONTINUOUS
 10
4.481840
 20
1.232880
  0
VERTEX
  8
0
  6
CONTINUOUS
 10
4.485800
 20
1.981320
  0
VERTEX
  8
0
  6
CONTINUOUS
 10
4.495040
 20
1.981760
  0
VERTEX
  8
0
  6
CONTINUOUS
 10
4.491080
 20
1.233320
  0
VERTEX
  8
0
  6
CONTINUOUS
 10
4.481840
 20
1.232880
  0
SEQEND
  8
0
  0
SOLID
  8
0
 62
    15
 10
4.500760
 20
1.282160
 11
4.505160
 21
2.030600
 12
4.512200
 22
1.303280
 13
4.516600
 23
2.051720
  0
POLYLINE
  8
0
  6
CONTINUOUS
 66
     1
 40
0.000000
 41
0.000000
  0
VERTEX
  8
0
  6
CONTINUOUS
 10
4.500760
 20
1.282160
  0
VERTEX
  8
0
  6
CONTINUOUS
 10
4.505160
 20
2.030600
  0
VERTEX
  8
0
  6
CONTINUOUS
 10
4.516600
 20
2.051720
  0
VERTEX
  8
0
  6
CONTINUOUS
 10
4.512200
 20
1.303280
  0
VERTEX
  8
0
  6
CONTINUOUS
 10
4.500760
 20
1.282160
  0
SEQEND
  8
0
  0
SOLID
  8
0
 62
    15
 10
4.512200
 20
1.303280
 11
4.516600
 21
2.051720
 12
4.527600
 22
1.321760
 13
4.531560
 23
2.070200
  0
POLYLINE
  8
0
  6
CONTINUOUS
 66
     1
 40
0.000000
 41
0.000000
  0
VERTEX
  8
0
  6
CONTINUOUS
 10
4.512200
 20
1.303280
  0
VERTEX
  8
0
  6
CONTINUOUS
 10
4.516600
 20
2.051720
  0
VERTEX
  8
0
  6
CONTINUOUS
 10
4.531560
 20
2.070200
  0
VERTEX
  8
0
  6
CONTINUOUS
 10
4.527600
 20
1.321760
  0
VERTEX
  8
0
  6
CONTINUOUS
 10
4.512200
 20
1.303280
  0
SEQEND
  8
0
  0
SOLID
  8
0
 62
    15
 10
4.527600
 20
1.321760
 11
4.531560
 21
2.070200
 12
4.546080
 22
1.337160
 13
4.550040
 23
2.085600
  0
POLYLINE
  8
0
  6
CONTINUOUS
 66
     1
 40
0.000000
 41
0.000000
  0
VERTEX
  8
0
  6
CONTINUOUS
 10
4.527600
 20
1.321760
  0
VERTEX
  8
0
  6
CONTINUOUS
 10
4.531560
 20
2.070200
  0
VERTEX
  8
0
  6
CONTINUOUS
 10
4.550040
 20
2.085600
  0
VERTEX
  8
0
  6
CONTINUOUS
 10
4.546080
 20
1.337160
  0
VERTEX
  8
0
  6
CONTINUOUS
 10
4.527600
 20
1.321760
  0
SEQEND
  8
0
  0
SOLID
  8
0
 62
    15
 10
4.546080
 20
1.337160
 11
4.550040
 21
2.085600
 12
4.567200
 22
1.348600
 13
4.571600
 23
2.097040
  0
POLYLINE
  8
0
  6
CONTINUOUS
 66
     1
 40
0.000000
 41
0.000000
  0
VERTEX
  8
0
  6
CONTINUOUS
 10
4.546080
 20
1.337160
  0
VERTEX
  8
0
  6
CONTINUOUS
 10
4.550040
 20
2.085600
  0
VERTEX
  8
0
  6
CONTINUOUS
 10
4.571600
 20
2.097040
  0
VERTEX
  8
0
  6
CONTINUOUS
 10
4.567200
 20
1.348600
  0
VERTEX
  8
0
  6
CONTINUOUS
 10
4.546080
 20
1.337160
  0
SEQEND
  8
0
  0
SOLID
  8
0
 62
    15
 10
4.567200
 20
1.348600
 11
4.571600
 21
2.097040
 12
4.590960
 22
1.356080
 13
4.594920
 23
2.104080
  0
POLYLINE
  8
0
  6
CONTINUOUS
 66
     1
 40
0.000000
 41
0.000000
  0
VERTEX
  8
0
  6
CONTINUOUS
 10
4.567200
 20
1.348600
  0
VERTEX
  8
0
  6
CONTINUOUS
 10
4.571600
 20
2.097040
  0
VERTEX
  8
0
  6
CONTINUOUS
 10
4.594920
 20
2.104080
  0
VERTEX
  8
0
  6
CONTINUOUS
 10
4.590960
 20
1.356080
  0
VERTEX
  8
0
  6
CONTINUOUS
 10
4.567200
 20
1.348600
  0
SEQEND
  8
0
  0
SOLID
  8
0
 62
    15
 10
4.590960
 20
1.356080
 11
4.594920
 21
2.104080
 12
4.616040
 22
1.358720
 13
4.620000
 23
2.106720
  0
POLYLINE
  8
0
  6
CONTINUOUS
 66
     1
 40
0.000000
 41
0.000000
  0
VERTEX
  8
0
  6
CONTINUOUS
 10
4.590960
 20
1.356080
  0
VERTEX
  8
0
  6
CONTINUOUS
 10
4.594920
 20
2.104080
  0
VERTEX
  8
0
  6
CONTINUOUS
 10
4.620000
 20
2.106720
  0
VERTEX
  8
0
  6
CONTINUOUS
 10
4.616040
 20
1.358720
  0
VERTEX
  8
0
  6
CONTINUOUS
 10
4.590960
 20
1.356080
  0
SEQEND
  8
0
  0
SOLID
  8
0
 62
    15
 10
4.616040
 20
1.358720
 11
4.620000
 21
2.106720
 12
4.641120
 22
1.356080
 13
4.645520
 23
2.104080
  0
POLYLINE
  8
0
  6
CONTINUOUS
 66
     1
 40
0.000000
 41
0.000000
  0
VERTEX
  8
0
  6
CONTINUOUS
 10
4.616040
 20
1.358720
  0
VERTEX
  8
0
  6
CONTINUOUS
 10
4.620000
 20
2.106720
  0
VERTEX
  8
0
  6
CONTINUOUS
 10
4.645520
 20
2.104080
  0
VERTEX
  8
0
  6
CONTINUOUS
 10
4.641120
 20
1.356080
  0
VERTEX
  8
0
  6
CONTINUOUS
 10
4.616040
 20
1.358720
  0
SEQEND
  8
0
  0
SOLID
  8
0
 62
    15
 10
4.641120
 20
1.356080
 11
4.645520
 21
2.104080
 12
4.664440
 22
1.348600
 13
4.668840
 23
2.097040
  0
POLYLINE
  8
0
  6
CONTINUOUS
 66
     1
 40
0.000000
 41
0.000000
  0
VERTEX
  8
0
  6
CONTINUOUS
 10
4.641120
 20
1.356080
  0
VERTEX
  8
0
  6
CONTINUOUS
 10
4.645520
 20
2.104080
  0
VERTEX
  8
0
  6
CONTINUOUS
 10
4.668840
 20
2.097040
  0
VERTEX
  8
0
  6
CONTINUOUS
 10
4.664440
 20
1.348600
  0
VERTEX
  8
0
  6
CONTINUOUS
 10
4.641120
 20
1.356080
  0
SEQEND
  8
0
  0
SOLID
  8
0
 62
    15
 10
4.664440
 20
1.348600
 11
4.668840
 21
2.097040
 12
4.686000
 22
1.337160
 13
4.689960
 23
2.085600
  0
POLYLINE
  8
0
  6
CONTINUOUS
 66
     1
 40
0.000000
 41
0.000000
  0
VERTEX
  8
0
  6
CONTINUOUS
 10
4.664440
 20
1.348600
  0
VERTEX
  8
0
  6
CONTINUOUS
 10
4.668840
 20
2.097040
  0
VERTEX
  8
0
  6
CONTINUOUS
 10
4.689960
 20
2.085600
  0
VERTEX
  8
0
  6
CONTINUOUS
 10
4.686000
 20
1.337160
  0
VERTEX
  8
0
  6
CONTINUOUS
 10
4.664440
 20
1.348600
  0
SEQEND
  8
0
  0
SOLID
  8
0
 62
    15
 10
4.686000
 20
1.337160
 11
4.689960
 21
2.085600
 12
4.704480
 22
1.321760
 13
4.708440
 23
2.070200
  0
POLYLINE
  8
0
  6
CONTINUOUS
 66
     1
 40
0.000000
 41
0.000000
  0
VERTEX
  8
0
  6
CONTINUOUS
 10
4.686000
 20
1.337160
  0
VERTEX
  8
0
  6
CONTINUOUS
 10
4.689960
 20
2.085600
  0
VERTEX
  8
0
  6
CONTINUOUS
 10
4.708440
 20
2.070200
  0
VERTEX
  8
0
  6
CONTINUOUS
 10
4.704480
 20
1.321760
  0
VERTEX
  8
0
  6
CONTINUOUS
 10
4.686000
 20
1.337160
  0
SEQEND
  8
0
  0
SOLID
  8
0
 62
    15
 10
4.704480
 20
1.321760
 11
4.708440
 21
2.070200
 12
4.719440
 22
1.303280
 13
4.723840
 23
2.051720
  0
POLYLINE
  8
0
  6
CONTINUOUS
 66
     1
 40
0.000000
 41
0.000000
  0
VERTEX
  8
0
  6
CONTINUOUS
 10
4.704480
 20
1.321760
  0
VERTEX
  8
0
  6
CONTINUOUS
 10
4.708440
 20
2.070200
  0
VERTEX
  8
0
  6
CONTINUOUS
 10
4.723840
 20
2.051720
  0
VERTEX
  8
0
  6
CONTINUOUS
 10
4.719440
 20
1.303280
  0
VERTEX
  8
0
  6
CONTINUOUS
 10
4.704480
 20
1.321760
  0
SEQEND
  8
0
  0
SOLID
  8
0
 62
    15
 10
4.719440
 20
1.303280
 11
4.723840
 21
2.051720
 12
4.731320
 22
1.282160
 13
4.735280
 23
2.030600
  0
POLYLINE
  8
0
  6
CONTINUOUS
 66
     1
 40
0.000000
 41
0.000000
  0
VERTEX
  8
0
  6
CONTINUOUS
 10
4.719440
 20
1.303280
  0
VERTEX
  8
0
  6
CONTINUOUS
 10
4.723840
 20
2.051720
  0
VERTEX
  8
0
  6
CONTINUOUS
 10
4.735280
 20
2.030600
  0
VERTEX
  8
0
  6
CONTINUOUS
 10
4.731320
 20
1.282160
  0
VERTEX
  8
0
  6
CONTINUOUS
 10
4.719440
 20
1.303280
  0
SEQEND
  8
0
  0
SOLID
  8
0
 62
    15
 10
4.731320
 20
1.282160
 11
4.735280
 21
2.030600
 12
4.738360
 22
1.258840
 13
4.742760
 23
2.006840
  0
POLYLINE
  8
0
  6
CONTINUOUS
 66
     1
 40
0.000000
 41
0.000000
  0
VERTEX
  8
0
  6
CONTINUOUS
 10
4.731320
 20
1.282160
  0
VERTEX
  8
0
  6
CONTINUOUS
 10
4.735280
 20
2.030600
  0
VERTEX
  8
0
  6
CONTINUOUS
 10
4.742760
 20
2.006840
  0
VERTEX
  8
0
  6
CONTINUOUS
 10
4.738360
 20
1.258840
  0
VERTEX
  8
0
  6
CONTINUOUS
 10
4.731320
 20
1.282160
  0
SEQEND
  8
0
  0
SOLID
  8
0
 62
    15
 10
4.738360
 20
1.258840
 11
4.742760
 21
2.006840
 12
4.741000
 22
1.233320
 13
4.744960
 23
1.981760
  0
POLYLINE
  8
0
  6
CONTINUOUS
 66
     1
 40
0.000000
 41
0.000000
  0
VERTEX
  8
0
  6
CONTINUOUS
 10
4.738360
 20
1.258840
  0
VERTEX
  8
0
  6
CONTINUOUS
 10
4.742760
 20
2.006840
  0
VERTEX
  8
0
  6
CONTINUOUS
 10
4.744960
 20
1.981760
  0
VERTEX
  8
0
  6
CONTINUOUS
 10
4.741000
 20
1.233320
  0
VERTEX
  8
0
  6
CONTINUOUS
 10
4.738360
 20
1.258840
  0
SEQEND
  8
0
  0
SOLID
  8
0
 62
    15
 10
4.741000
 20
1.233320
 11
4.744960
 21
1.981760
 12
4.744520
 22
1.233320
 13
4.748480
 23
1.981760
  0
POLYLINE
  8
0
  6
CONTINUOUS
 66
     1
 40
0.000000
 41
0.000000
  0
VERTEX
  8
0
  6
CONTINUOUS
 10
4.741000
 20
1.233320
  0
VERTEX
  8
0
  6
CONTINUOUS
 10
4.744960
 20
1.981760
  0
VERTEX
  8
0
  6
CONTINUOUS
 10
4.748480
 20
1.981760
  0
VERTEX
  8
0
  6
CONTINUOUS
 10
4.744520
 20
1.233320
  0
VERTEX
  8
0
  6
CONTINUOUS
 10
4.741000
 20
1.233320
  0
SEQEND
  8
0
  0
SOLID
  8
0
 62
    15
 10
4.744520
 20
1.233320
 11
4.748480
 21
1.981760
 12
4.746720
 22
1.258840
 13
4.751120
 23
2.006840
  0
POLYLINE
  8
0
  6
CONTINUOUS
 66
     1
 40
0.000000
 41
0.000000
  0
VERTEX
  8
0
  6
CONTINUOUS
 10
4.744520
 20
1.233320
  0
VERTEX
  8
0
  6
CONTINUOUS
 10
4.748480
 20
1.981760
  0
VERTEX
  8
0
  6
CONTINUOUS
 10
4.751120
 20
2.006840
  0
VERTEX
  8
0
  6
CONTINUOUS
 10
4.746720
 20
1.258840
  0
VERTEX
  8
0
  6
CONTINUOUS
 10
4.744520
 20
1.233320
  0
SEQEND
  8
0
  0
SOLID
  8
0
 62
    15
 10
4.746720
 20
1.258840
 11
4.751120
 21
2.006840
 12
4.754200
 22
1.282160
 13
4.758600
 23
2.030600
  0
POLYLINE
  8
0
  6
CONTINUOUS
 66
     1
 40
0.000000
 41
0.000000
  0
VERTEX
  8
0
  6
CONTINUOUS
 10
4.746720
 20
1.258840
  0
VERTEX
  8
0
  6
CONTINUOUS
 10
4.751120
 20
2.006840
  0
VERTEX
  8
0
  6
CONTINUOUS
 10
4.758600
 20
2.030600
  0
VERTEX
  8
0
  6
CONTINUOUS
 10
4.754200
 20
1.282160
  0
VERTEX
  8
0
  6
CONTINUOUS
 10
4.746720
 20
1.258840
  0
SEQEND
  8
0
  0
SOLID
  8
0
 62
    15
 10
4.754200
 20
1.282160
 11
4.758600
 21
2.030600
 12
4.765640
 22
1.303280
 13
4.770040
 23
2.051720
  0
POLYLINE
  8
0
  6
CONTINUOUS
 66
     1
 40
0.000000
 41
0.000000
  0
VERTEX
  8
0
  6
CONTINUOUS
 10
4.754200
 20
1.282160
  0
VERTEX
  8
0
  6
CONTINUOUS
 10
4.758600
 20
2.030600
  0
VERTEX
  8
0
  6
CONTINUOUS
 10
4.770040
 20
2.051720
  0
VERTEX
  8
0
  6
CONTINUOUS
 10
4.765640
 20
1.303280
  0
VERTEX
  8
0
  6
CONTINUOUS
 10
4.754200
 20
1.282160
  0
SEQEND
  8
0
  0
SOLID
  8
0
 62
    15
 10
4.765640
 20
1.303280
 11
4.770040
 21
2.051720
 12
4.781040
 22
1.321760
 13
4.785000
 23
2.070200
  0
POLYLINE
  8
0
  6
CONTINUOUS
 66
     1
 40
0.000000
 41
0.000000
  0
VERTEX
  8
0
  6
CONTINUOUS
 10
4.765640
 20
1.303280
  0
VERTEX
  8
0
  6
CONTINUOUS
 10
4.770040
 20
2.051720
  0
VERTEX
  8
0
  6
CONTINUOUS
 10
4.785000
 20
2.070200
  0
VERTEX
  8
0
  6
CONTINUOUS
 10
4.781040
 20
1.321760
  0
VERTEX
  8
0
  6
CONTINUOUS
 10
4.765640
 20
1.303280
  0
SEQEND
  8
0
  0
SOLID
  8
0
 62
    15
 10
4.781040
 20
1.321760
 11
4.785000
 21
2.070200
 12
4.799520
 22
1.337160
 13
4.803480
 23
2.085600
  0
POLYLINE
  8
0
  6
CONTINUOUS
 66
     1
 40
0.000000
 41
0.000000
  0
VERTEX
  8
0
  6
CONTINUOUS
 10
4.781040
 20
1.321760
  0
VERTEX
  8
0
  6
CONTINUOUS
 10
4.785000
 20
2.070200
  0
VERTEX
  8
0
  6
CONTINUOUS
 10
4.803480
 20
2.085600
  0
VERTEX
  8
0
  6
CONTINUOUS
 10
4.799520
 20
1.337160
  0
VERTEX
  8
0
  6
CONTINUOUS
 10
4.781040
 20
1.321760
  0
SEQEND
  8
0
  0
SOLID
  8
0
 62
    15
 10
4.799520
 20
1.337160
 11
4.803480
 21
2.085600
 12
4.820640
 22
1.348600
 13
4.825040
 23
2.097040
  0
POLYLINE
  8
0
  6
CONTINUOUS
 66
     1
 40
0.000000
 41
0.000000
  0
VERTEX
  8
0
  6
CONTINUOUS
 10
4.799520
 20
1.337160
  0
VERTEX
  8
0
  6
CONTINUOUS
 10
4.803480
 20
2.085600
  0
VERTEX
  8
0
  6
CONTINUOUS
 10
4.825040
 20
2.097040
  0
VERTEX
  8
0
  6
CONTINUOUS
 10
4.820640
 20
1.348600
  0
VERTEX
  8
0
  6
CONTINUOUS
 10
4.799520
 20
1.337160
  0
SEQEND
  8
0
  0
SOLID
  8
0
 62
    15
 10
4.820640
 20
1.348600
 11
4.825040
 21
2.097040
 12
4.843960
 22
1.356080
 13
4.848360
 23
2.104080
  0
POLYLINE
  8
0
  6
CONTINUOUS
 66
     1
 40
0.000000
 41
0.000000
  0
VERTEX
  8
0
  6
CONTINUOUS
 10
4.820640
 20
1.348600
  0
VERTEX
  8
0
  6
CONTINUOUS
 10
4.825040
 20
2.097040
  0
VERTEX
  8
0
  6
CONTINUOUS
 10
4.848360
 20
2.104080
  0
VERTEX
  8
0
  6
CONTINUOUS
 10
4.843960
 20
1.356080
  0
VERTEX
  8
0
  6
CONTINUOUS
 10
4.820640
 20
1.348600
  0
SEQEND
  8
0
  0
SOLID
  8
0
 62
    15
 10
4.843960
 20
1.356080
 11
4.848360
 21
2.104080
 12
4.869480
 22
1.358720
 13
4.873440
 23
2.106720
  0
POLYLINE
  8
0
  6
CONTINUOUS
 66
     1
 40
0.000000
 41
0.000000
  0
VERTEX
  8
0
  6
CONTINUOUS
 10
4.843960
 20
1.356080
  0
VERTEX
  8
0
  6
CONTINUOUS
 10
4.848360
 20
2.104080
  0
VERTEX
  8
0
  6
CONTINUOUS
 10
4.873440
 20
2.106720
  0
VERTEX
  8
0
  6
CONTINUOUS
 10
4.869480
 20
1.358720
  0
VERTEX
  8
0
  6
CONTINUOUS
 10
4.843960
 20
1.356080
  0
SEQEND
  8
0
  0
SOLID
  8
0
 62
    15
 10
4.869480
 20
1.358720
 11
4.873440
 21
2.106720
 12
4.894560
 22
1.356080
 13
4.898960
 23
2.104080
  0
POLYLINE
  8
0
  6
CONTINUOUS
 66
     1
 40
0.000000
 41
0.000000
  0
VERTEX
  8
0
  6
CONTINUOUS
 10
4.869480
 20
1.358720
  0
VERTEX
  8
0
  6
CONTINUOUS
 10
4.873440
 20
2.106720
  0
VERTEX
  8
0
  6
CONTINUOUS
 10
4.898960
 20
2.104080
  0
VERTEX
  8
0
  6
CONTINUOUS
 10
4.894560
 20
1.356080
  0
VERTEX
  8
0
  6
CONTINUOUS
 10
4.869480
 20
1.358720
  0
SEQEND
  8
0
  0
SOLID
  8
0
 62
    15
 10
4.894560
 20
1.356080
 11
4.898960
 21
2.104080
 12
4.917880
 22
1.348600
 13
4.922280
 23
2.097040
  0
POLYLINE
  8
0
  6
CONTINUOUS
 66
     1
 40
0.000000
 41
0.000000
  0
VERTEX
  8
0
  6
CONTINUOUS
 10
4.894560
 20
1.356080
  0
VERTEX
  8
0
  6
CONTINUOUS
 10
4.898960
 20
2.104080
  0
VERTEX
  8
0
  6
CONTINUOUS
 10
4.922280
 20
2.097040
  0
VERTEX
  8
0
  6
CONTINUOUS
 10
4.917880
 20
1.348600
  0
VERTEX
  8
0
  6
CONTINUOUS
 10
4.894560
 20
1.356080
  0
SEQEND
  8
0
  0
SOLID
  8
0
 62
    15
 10
4.917880
 20
1.348600
 11
4.922280
 21
2.097040
 12
4.939440
 22
1.337160
 13
4.943400
 23
2.085600
  0
POLYLINE
  8
0
  6
CONTINUOUS
 66
     1
 40
0.000000
 41
0.000000
  0
VERTEX
  8
0
  6
CONTINUOUS
 10
4.917880
 20
1.348600
  0
VERTEX
  8
0
  6
CONTINUOUS
 10
4.922280
 20
2.097040
  0
VERTEX
  8
0
  6
CONTINUOUS
 10
4.943400
 20
2.085600
  0
VERTEX
  8
0
  6
CONTINUOUS
 10
4.939440
 20
1.337160
  0
VERTEX
  8
0
  6
CONTINUOUS
 10
4.917880
 20
1.348600
  0
SEQEND
  8
0
  0
SOLID
  8
0
 62
    15
 10
4.939440
 20
1.337160
 11
4.943400
 21
2.085600
 12
4.957920
 22
1.321760
 13
4.961880
 23
2.070200
  0
POLYLINE
  8
0
  6
CONTINUOUS
 66
     1
 40
0.000000
 41
0.000000
  0
VERTEX
  8
0
  6
CONTINUOUS
 10
4.939440
 20
1.337160
  0
VERTEX
  8
0
  6
CONTINUOUS
 10
4.943400
 20
2.085600
  0
VERTEX
  8
0
  6
CONTINUOUS
 10
4.961880
 20
2.070200
  0
VERTEX
  8
0
  6
CONTINUOUS
 10
4.957920
 20
1.321760
  0
VERTEX
  8
0
  6
CONTINUOUS
 10
4.939440
 20
1.337160
  0
SEQEND
  8
0
  0
SOLID
  8
0
 62
    15
 10
4.957920
 20
1.321760
 11
4.961880
 21
2.070200
 12
4.972880
 22
1.303280
 13
4.977280
 23
2.051720
  0
POLYLINE
  8
0
  6
CONTINUOUS
 66
     1
 40
0.000000
 41
0.000000
  0
VERTEX
  8
0
  6
CONTINUOUS
 10
4.957920
 20
1.321760
  0
VERTEX
  8
0
  6
CONTINUOUS
 10
4.961880
 20
2.070200
  0
VERTEX
  8
0
  6
CONTINUOUS
 10
4.977280
 20
2.051720
  0
VERTEX
  8
0
  6
CONTINUOUS
 10
4.972880
 20
1.303280
  0
VERTEX
  8
0
  6
CONTINUOUS
 10
4.957920
 20
1.321760
  0
SEQEND
  8
0
  0
SOLID
  8
0
 62
    15
 10
4.972880
 20
1.303280
 11
4.977280
 21
2.051720
 12
4.984320
 22
1.282160
 13
4.988720
 23
2.030600
  0
POLYLINE
  8
0
  6
CONTINUOUS
 66
     1
 40
0.000000
 41
0.000000
  0
VERTEX
  8
0
  6
CONTINUOUS
 10
4.972880
 20
1.303280
  0
VERTEX
  8
0
  6
CONTINUOUS
 10
4.977280
 20
2.051720
  0
VERTEX
  8
0
  6
CONTINUOUS
 10
4.988720
 20
2.030600
  0
VERTEX
  8
0
  6
CONTINUOUS
 10
4.984320
 20
1.282160
  0
VERTEX
  8
0
  6
CONTINUOUS
 10
4.972880
 20
1.303280
  0
SEQEND
  8
0
  0
SOLID
  8
0
 62
    15
 10
4.984320
 20
1.282160
 11
4.988720
 21
2.030600
 12
4.991800
 22
1.258840
 13
4.996200
 23
2.006840
  0
POLYLINE
  8
0
  6
CONTINUOUS
 66
     1
 40
0.000000
 41
0.000000
  0
VERTEX
  8
0
  6
CONTINUOUS
 10
4.984320
 20
1.282160
  0
VERTEX
  8
0
  6
CONTINUOUS
 10
4.988720
 20
2.030600
  0
VERTEX
  8
0
  6
CONTINUOUS
 10
4.996200
 20
2.006840
  0
VERTEX
  8
0
  6
CONTINUOUS
 10
4.991800
 20
1.258840
  0
VERTEX
  8
0
  6
CONTINUOUS
 10
4.984320
 20
1.282160
  0
SEQEND
  8
0
  0
SOLID
  8
0
 62
    15
 10
4.991800
 20
1.258840
 11
4.996200
 21
2.006840
 12
4.994440
 22
1.233320
 13
4.998400
 23
1.981760
  0
POLYLINE
  8
0
  6
CONTINUOUS
 66
     1
 40
0.000000
 41
0.000000
  0
VERTEX
  8
0
  6
CONTINUOUS
 10
4.991800
 20
1.258840
  0
VERTEX
  8
0
  6
CONTINUOUS
 10
4.996200
 20
2.006840
  0
VERTEX
  8
0
  6
CONTINUOUS
 10
4.998400
 20
1.981760
  0
VERTEX
  8
0
  6
CONTINUOUS
 10
4.994440
 20
1.233320
  0
VERTEX
  8
0
  6
CONTINUOUS
 10
4.991800
 20
1.258840
  0
SEQEND
  8
0
  0
SOLID
  8
0
 62
    15
 10
4.994440
 20
1.233320
 11
4.998400
 21
1.981760
 12
4.995760
 22
1.233320
 13
4.999720
 23
1.981760
  0
POLYLINE
  8
0
  6
CONTINUOUS
 66
     1
 40
0.000000
 41
0.000000
  0
VERTEX
  8
0
  6
CONTINUOUS
 10
4.994440
 20
1.233320
  0
VERTEX
  8
0
  6
CONTINUOUS
 10
4.998400
 20
1.981760
  0
VERTEX
  8
0
  6
CONTINUOUS
 10
4.999720
 20
1.981760
  0
VERTEX
  8
0
  6
CONTINUOUS
 10
4.995760
 20
1.233320
  0
VERTEX
  8
0
  6
CONTINUOUS
 10
4.994440
 20
1.233320
  0
SEQEND
  8
0
  0
SOLID
  8
0
 62
    15
 10
4.995760
 20
1.233320
 11
4.999720
 21
1.981760
 12
4.998400
 22
1.258840
 13
5.002360
 23
2.006840
  0
POLYLINE
  8
0
  6
CONTINUOUS
 66
     1
 40
0.000000
 41
0.000000
  0
VERTEX
  8
0
  6
CONTINUOUS
 10
4.995760
 20
1.233320
  0
VERTEX
  8
0
  6
CONTINUOUS
 10
4.999720
 20
1.981760
  0
VERTEX
  8
0
  6
CONTINUOUS
 10
5.002360
 20
2.006840
  0
VERTEX
  8
0
  6
CONTINUOUS
 10
4.998400
 20
1.258840
  0
VERTEX
  8
0
  6
CONTINUOUS
 10
4.995760
 20
1.233320
  0
SEQEND
  8
0
  0
SOLID
  8
0
 62
    15
 10
4.998400
 20
1.258840
 11
5.002360
 21
2.006840
 12
5.005440
 22
1.282160
 13
5.009840
 23
2.030600
  0
POLYLINE
  8
0
  6
CONTINUOUS
 66
     1
 40
0.000000
 41
0.000000
  0
VERTEX
  8
0
  6
CONTINUOUS
 10
4.998400
 20
1.258840
  0
VERTEX
  8
0
  6
CONTINUOUS
 10
5.002360
 20
2.006840
  0
VERTEX
  8
0
  6
CONTINUOUS
 10
5.009840
 20
2.030600
  0
VERTEX
  8
0
  6
CONTINUOUS
 10
5.005440
 20
1.282160
  0
VERTEX
  8
0
  6
CONTINUOUS
 10
4.998400
 20
1.258840
  0
SEQEND
  8
0
  0
SOLID
  8
0
 62
    15
 10
5.005440
 20
1.282160
 11
5.009840
 21
2.030600
 12
5.016880
 22
1.303280
 13
5.021280
 23
2.051720
  0
POLYLINE
  8
0
  6
CONTINUOUS
 66
     1
 40
0.000000
 41
0.000000
  0
VERTEX
  8
0
  6
CONTINUOUS
 10
5.005440
 20
1.282160
  0
VERTEX
  8
0
  6
CONTINUOUS
 10
5.009840
 20
2.030600
  0
VERTEX
  8
0
  6
CONTINUOUS
 10
5.021280
 20
2.051720
  0
VERTEX
  8
0
  6
CONTINUOUS
 10
5.016880
 20
1.303280
  0
VERTEX
  8
0
  6
CONTINUOUS
 10
5.005440
 20
1.282160
  0
SEQEND
  8
0
  0
SOLID
  8
0
 62
    15
 10
5.016880
 20
1.303280
 11
5.021280
 21
2.051720
 12
5.032280
 22
1.321760
 13
5.036240
 23
2.070200
  0
POLYLINE
  8
0
  6
CONTINUOUS
 66
     1
 40
0.000000
 41
0.000000
  0
VERTEX
  8
0
  6
CONTINUOUS
 10
5.016880
 20
1.303280
  0
VERTEX
  8
0
  6
CONTINUOUS
 10
5.021280
 20
2.051720
  0
VERTEX
  8
0
  6
CONTINUOUS
 10
5.036240
 20
2.070200
  0
VERTEX
  8
0
  6
CONTINUOUS
 10
5.032280
 20
1.321760
  0
VERTEX
  8
0
  6
CONTINUOUS
 10
5.016880
 20
1.303280
  0
SEQEND
  8
0
  0
SOLID
  8
0
 62
    15
 10
5.032280
 20
1.321760
 11
5.036240
 21
2.070200
 12
5.050760
 22
1.337160
 13
5.055160
 23
2.085600
  0
POLYLINE
  8
0
  6
CONTINUOUS
 66
     1
 40
0.000000
 41
0.000000
  0
VERTEX
  8
0
  6
CONTINUOUS
 10
5.032280
 20
1.321760
  0
VERTEX
  8
0
  6
CONTINUOUS
 10
5.036240
 20
2.070200
  0
VERTEX
  8
0
  6
CONTINUOUS
 10
5.055160
 20
2.085600
  0
VERTEX
  8
0
  6
CONTINUOUS
 10
5.050760
 20
1.337160
  0
VERTEX
  8
0
  6
CONTINUOUS
 10
5.032280
 20
1.321760
  0
SEQEND
  8
0
  0
SOLID
  8
0
 62
    15
 10
5.050760
 20
1.337160
 11
5.055160
 21
2.085600
 12
5.071880
 22
1.348600
 13
5.076280
 23
2.097040
  0
POLYLINE
  8
0
  6
CONTINUOUS
 66
     1
 40
0.000000
 41
0.000000
  0
VERTEX
  8
0
  6
CONTINUOUS
 10
5.050760
 20
1.337160
  0
VERTEX
  8
0
  6
CONTINUOUS
 10
5.055160
 20
2.085600
  0
VERTEX
  8
0
  6
CONTINUOUS
 10
5.076280
 20
2.097040
  0
VERTEX
  8
0
  6
CONTINUOUS
 10
5.071880
 20
1.348600
  0
VERTEX
  8
0
  6
CONTINUOUS
 10
5.050760
 20
1.337160
  0
SEQEND
  8
0
  0
SOLID
  8
0
 62
    15
 10
5.071880
 20
1.348600
 11
5.076280
 21
2.097040
 12
5.095640
 22
1.356080
 13
5.099600
 23
2.104080
  0
POLYLINE
  8
0
  6
CONTINUOUS
 66
     1
 40
0.000000
 41
0.000000
  0
VERTEX
  8
0
  6
CONTINUOUS
 10
5.071880
 20
1.348600
  0
VERTEX
  8
0
  6
CONTINUOUS
 10
5.076280
 20
2.097040
  0
VERTEX
  8
0
  6
CONTINUOUS
 10
5.099600
 20
2.104080
  0
VERTEX
  8
0
  6
CONTINUOUS
 10
5.095640
 20
1.356080
  0
VERTEX
  8
0
  6
CONTINUOUS
 10
5.071880
 20
1.348600
  0
SEQEND
  8
0
  0
SOLID
  8
0
 62
    15
 10
5.095640
 20
1.356080
 11
5.099600
 21
2.104080
 12
5.120720
 22
1.358720
 13
5.124680
 23
2.106720
  0
POLYLINE
  8
0
  6
CONTINUOUS
 66
     1
 40
0.000000
 41
0.000000
  0
VERTEX
  8
0
  6
CONTINUOUS
 10
5.095640
 20
1.356080
  0
VERTEX
  8
0
  6
CONTINUOUS
 10
5.099600
 20
2.104080
  0
VERTEX
  8
0
  6
CONTINUOUS
 10
5.124680
 20
2.106720
  0
VERTEX
  8
0
  6
CONTINUOUS
 10
5.120720
 20
1.358720
  0
VERTEX
  8
0
  6
CONTINUOUS
 10
5.095640
 20
1.356080
  0
SEQEND
  8
0
  0
SOLID
  8
0
 62
    15
 10
5.120720
 20
1.358720
 11
5.124680
 21
2.106720
 12
5.145800
 22
1.356080
 13
5.150200
 23
2.104080
  0
POLYLINE
  8
0
  6
CONTINUOUS
 66
     1
 40
0.000000
 41
0.000000
  0
VERTEX
  8
0
  6
CONTINUOUS
 10
5.120720
 20
1.358720
  0
VERTEX
  8
0
  6
CONTINUOUS
 10
5.124680
 20
2.106720
  0
VERTEX
  8
0
  6
CONTINUOUS
 10
5.150200
 20
2.104080
  0
VERTEX
  8
0
  6
CONTINUOUS
 10
5.145800
 20
1.356080
  0
VERTEX
  8
0
  6
CONTINUOUS
 10
5.120720
 20
1.358720
  0
SEQEND
  8
0
  0
SOLID
  8
0
 62
    15
 10
5.145800
 20
1.356080
 11
5.150200
 21
2.104080
 12
5.169120
 22
1.348600
 13
5.173520
 23
2.097040
  0
POLYLINE
  8
0
  6
CONTINUOUS
 66
     1
 40
0.000000
 41
0.000000
  0
VERTEX
  8
0
  6
CONTINUOUS
 10
5.145800
 20
1.356080
  0
VERTEX
  8
0
  6
CONTINUOUS
 10
5.150200
 20
2.104080
  0
VERTEX
  8
0
  6
CONTINUOUS
 10
5.173520
 20
2.097040
  0
VERTEX
  8
0
  6
CONTINUOUS
 10
5.169120
 20
1.348600
  0
VERTEX
  8
0
  6
CONTINUOUS
 10
5.145800
 20
1.356080
  0
SEQEND
  8
0
  0
SOLID
  8
0
 62
    15
 10
5.169120
 20
1.348600
 11
5.173520
 21
2.097040
 12
5.190680
 22
1.337160
 13
5.194640
 23
2.085600
  0
POLYLINE
  8
0
  6
CONTINUOUS
 66
     1
 40
0.000000
 41
0.000000
  0
VERTEX
  8
0
  6
CONTINUOUS
 10
5.169120
 20
1.348600
  0
VERTEX
  8
0
  6
CONTINUOUS
 10
5.173520
 20
2.097040
  0
VERTEX
  8
0
  6
CONTINUOUS
 10
5.194640
 20
2.085600
  0
VERTEX
  8
0
  6
CONTINUOUS
 10
5.190680
 20
1.337160
  0
VERTEX
  8
0
  6
CONTINUOUS
 10
5.169120
 20
1.348600
  0
SEQEND
  8
0
  0
SOLID
  8
0
 62
    15
 10
5.190680
 20
1.337160
 11
5.194640
 21
2.085600
 12
5.209160
 22
1.321760
 13
5.213120
 23
2.070200
  0
POLYLINE
  8
0
  6
CONTINUOUS
 66
     1
 40
0.000000
 41
0.000000
  0
VERTEX
  8
0
  6
CONTINUOUS
 10
5.190680
 20
1.337160
  0
VERTEX
  8
0
  6
CONTINUOUS
 10
5.194640
 20
2.085600
  0
VERTEX
  8
0
  6
CONTINUOUS
 10
5.213120
 20
2.070200
  0
VERTEX
  8
0
  6
CONTINUOUS
 10
5.209160
 20
1.321760
  0
VERTEX
  8
0
  6
CONTINUOUS
 10
5.190680
 20
1.337160
  0
SEQEND
  8
0
  0
SOLID
  8
0
 62
    15
 10
5.209160
 20
1.321760
 11
5.213120
 21
2.070200
 12
5.224120
 22
1.303280
 13
5.228520
 23
2.051720
  0
POLYLINE
  8
0
  6
CONTINUOUS
 66
     1
 40
0.000000
 41
0.000000
  0
VERTEX
  8
0
  6
CONTINUOUS
 10
5.209160
 20
1.321760
  0
VERTEX
  8
0
  6
CONTINUOUS
 10
5.213120
 20
2.070200
  0
VERTEX
  8
0
  6
CONTINUOUS
 10
5.228520
 20
2.051720
  0
VERTEX
  8
0
  6
CONTINUOUS
 10
5.224120
 20
1.303280
  0
VERTEX
  8
0
  6
CONTINUOUS
 10
5.209160
 20
1.321760
  0
SEQEND
  8
0
  0
SOLID
  8
0
 62
    15
 10
5.224120
 20
1.303280
 11
5.228520
 21
2.051720
 12
5.236000
 22
1.282160
 13
5.239960
 23
2.030600
  0
POLYLINE
  8
0
  6
CONTINUOUS
 66
     1
 40
0.000000
 41
0.000000
  0
VERTEX
  8
0
  6
CONTINUOUS
 10
5.224120
 20
1.303280
  0
VERTEX
  8
0
  6
CONTINUOUS
 10
5.228520
 20
2.051720
  0
VERTEX
  8
0
  6
CONTINUOUS
 10
5.239960
 20
2.030600
  0
VERTEX
  8
0
  6
CONTINUOUS
 10
5.236000
 20
1.282160
  0
VERTEX
  8
0
  6
CONTINUOUS
 10
5.224120
 20
1.303280
  0
SEQEND
  8
0
  0
SOLID
  8
0
 62
    15
 10
5.236000
 20
1.282160
 11
5.239960
 21
2.030600
 12
5.243040
 22
1.258840
 13
5.247440
 23
2.006840
  0
POLYLINE
  8
0
  6
CONTINUOUS
 66
     1
 40
0.000000
 41
0.000000
  0
VERTEX
  8
0
  6
CONTINUOUS
 10
5.236000
 20
1.282160
  0
VERTEX
  8
0
  6
CONTINUOUS
 10
5.239960
 20
2.030600
  0
VERTEX
  8
0
  6
CONTINUOUS
 10
5.247440
 20
2.006840
  0
VERTEX
  8
0
  6
CONTINUOUS
 10
5.243040
 20
1.258840
  0
VERTEX
  8
0
  6
CONTINUOUS
 10
5.236000
 20
1.282160
  0
SEQEND
  8
0
  0
SOLID
  8
0
 62
    15
 10
5.243040
 20
1.258840
 11
5.247440
 21
2.006840
 12
5.245680
 22
1.233320
 13
5.249640
 23
1.981760
  0
POLYLINE
  8
0
  6
CONTINUOUS
 66
     1
 40
0.000000
 41
0.000000
  0
VERTEX
  8
0
  6
CONTINUOUS
 10
5.243040
 20
1.258840
  0
VERTEX
  8
0
  6
CONTINUOUS
 10
5.247440
 20
2.006840
  0
VERTEX
  8
0
  6
CONTINUOUS
 10
5.249640
 20
1.981760
  0
VERTEX
  8
0
  6
CONTINUOUS
 10
5.245680
 20
1.233320
  0
VERTEX
  8
0
  6
CONTINUOUS
 10
5.243040
 20
1.258840
  0
SEQEND
  8
0
  0
SOLID
  8
0
 62
    15
 10
5.245680
 20
1.233320
 11
5.249640
 21
1.981760
 12
5.251400
 22
1.233320
 13
5.255800
 23
1.981760
  0
POLYLINE
  8
0
  6
CONTINUOUS
 66
     1
 40
0.000000
 41
0.000000
  0
VERTEX
  8
0
  6
CONTINUOUS
 10
5.245680
 20
1.233320
  0
VERTEX
  8
0
  6
CONTINUOUS
 10
5.249640
 20
1.981760
  0
VERTEX
  8
0
  6
CONTINUOUS
 10
5.255800
 20
1.981760
  0
VERTEX
  8
0
  6
CONTINUOUS
 10
5.251400
 20
1.233320
  0
VERTEX
  8
0
  6
CONTINUOUS
 10
5.245680
 20
1.233320
  0
SEQEND
  8
0
  0
SOLID
  8
0
 62
    15
 10
5.251400
 20
1.233320
 11
5.255800
 21
1.981760
 12
5.254040
 22
1.258840
 13
5.258440
 23
2.006840
  0
POLYLINE
  8
0
  6
CONTINUOUS
 66
     1
 40
0.000000
 41
0.000000
  0
VERTEX
  8
0
  6
CONTINUOUS
 10
5.251400
 20
1.233320
  0
VERTEX
  8
0
  6
CONTINUOUS
 10
5.255800
 20
1.981760
  0
VERTEX
  8
0
  6
CONTINUOUS
 10
5.258440
 20
2.006840
  0
VERTEX
  8
0
  6
CONTINUOUS
 10
5.254040
 20
1.258840
  0
VERTEX
  8
0
  6
CONTINUOUS
 10
5.251400
 20
1.233320
  0
SEQEND
  8
0
  0
SOLID
  8
0
 62
    15
 10
5.254040
 20
1.258840
 11
5.258440
 21
2.006840
 12
5.261520
 22
1.282160
 13
5.265480
 23
2.030600
  0
POLYLINE
  8
0
  6
CONTINUOUS
 66
     1
 40
0.000000
 41
0.000000
  0
VERTEX
  8
0
  6
CONTINUOUS
 10
5.254040
 20
1.258840
  0
VERTEX
  8
0
  6
CONTINUOUS
 10
5.258440
 20
2.006840
  0
VERTEX
  8
0
  6
CONTINUOUS
 10
5.265480
 20
2.030600
  0
VERTEX
  8
0
  6
CONTINUOUS
 10
5.261520
 20
1.282160
  0
VERTEX
  8
0
  6
CONTINUOUS
 10
5.254040
 20
1.258840
  0
SEQEND
  8
0
  0
SOLID
  8
0
 62
    15
 10
5.261520
 20
1.282160
 11
5.265480
 21
2.030600
 12
5.272960
 22
1.303280
 13
5.276920
 23
2.051720
  0
POLYLINE
  8
0
  6
CONTINUOUS
 66
     1
 40
0.000000
 41
0.000000
  0
VERTEX
  8
0
  6
CONTINUOUS
 10
5.261520
 20
1.282160
  0
VERTEX
  8
0
  6
CONTINUOUS
 10
5.265480
 20
2.030600
  0
VERTEX
  8
0
  6
CONTINUOUS
 10
5.276920
 20
2.051720
  0
VERTEX
  8
0
  6
CONTINUOUS
 10
5.272960
 20
1.303280
  0
VERTEX
  8
0
  6
CONTINUOUS
 10
5.261520
 20
1.282160
  0
SEQEND
  8
0
  0
SOLID
  8
0
 62
    15
 10
5.272960
 20
1.303280
 11
5.276920
 21
2.051720
 12
5.287920
 22
1.321760
 13
5.292320
 23
2.070200
  0
POLYLINE
  8
0
  6
CONTINUOUS
 66
     1
 40
0.000000
 41
0.000000
  0
VERTEX
  8
0
  6
CONTINUOUS
 10
5.272960
 20
1.303280
  0
VERTEX
  8
0
  6
CONTINUOUS
 10
5.276920
 20
2.051720
  0
VERTEX
  8
0
  6
CONTINUOUS
 10
5.292320
 20
2.070200
  0
VERTEX
  8
0
  6
CONTINUOUS
 10
5.287920
 20
1.321760
  0
VERTEX
  8
0
  6
CONTINUOUS
 10
5.272960
 20
1.303280
  0
SEQEND
  8
0
  0
SOLID
  8
0
 62
    15
 10
5.287920
 20
1.321760
 11
5.292320
 21
2.070200
 12
5.306400
 22
1.337160
 13
5.310800
 23
2.085600
  0
POLYLINE
  8
0
  6
CONTINUOUS
 66
     1
 40
0.000000
 41
0.000000
  0
VERTEX
  8
0
  6
CONTINUOUS
 10
5.287920
 20
1.321760
  0
VERTEX
  8
0
  6
CONTINUOUS
 10
5.292320
 20
2.070200
  0
VERTEX
  8
0
  6
CONTINUOUS
 10
5.310800
 20
2.085600
  0
VERTEX
  8
0
  6
CONTINUOUS
 10
5.306400
 20
1.337160
  0
VERTEX
  8
0
  6
CONTINUOUS
 10
5.287920
 20
1.321760
  0
SEQEND
  8
0
  0
SOLID
  8
0
 62
    15
 10
5.306400
 20
1.337160
 11
5.310800
 21
2.085600
 12
5.327960
 22
1.348600
 13
5.331920
 23
2.097040
  0
POLYLINE
  8
0
  6
CONTINUOUS
 66
     1
 40
0.000000
 41
0.000000
  0
VERTEX
  8
0
  6
CONTINUOUS
 10
5.306400
 20
1.337160
  0
VERTEX
  8
0
  6
CONTINUOUS
 10
5.310800
 20
2.085600
  0
VERTEX
  8
0
  6
CONTINUOUS
 10
5.331920
 20
2.097040
  0
VERTEX
  8
0
  6
CONTINUOUS
 10
5.327960
 20
1.348600
  0
VERTEX
  8
0
  6
CONTINUOUS
 10
5.306400
 20
1.337160
  0
SEQEND
  8
0
  0
SOLID
  8
0
 62
    15
 10
5.327960
 20
1.348600
 11
5.331920
 21
2.097040
 12
5.351280
 22
1.356080
 13
5.355680
 23
2.104080
  0
POLYLINE
  8
0
  6
CONTINUOUS
 66
     1
 40
0.000000
 41
0.000000
  0
VERTEX
  8
0
  6
CONTINUOUS
 10
5.327960
 20
1.348600
  0
VERTEX
  8
0
  6
CONTINUOUS
 10
5.331920
 20
2.097040
  0
VERTEX
  8
0
  6
CONTINUOUS
 10
5.355680
 20
2.104080
  0
VERTEX
  8
0
  6
CONTINUOUS
 10
5.351280
 20
1.356080
  0
VERTEX
  8
0
  6
CONTINUOUS
 10
5.327960
 20
1.348600
  0
SEQEND
  8
0
  0
SOLID
  8
0
 62
    15
 10
5.351280
 20
1.356080
 11
5.355680
 21
2.104080
 12
5.376360
 22
1.358720
 13
5.380760
 23
2.106720
  0
POLYLINE
  8
0
  6
CONTINUOUS
 66
     1
 40
0.000000
 41
0.000000
  0
VERTEX
  8
0
  6
CONTINUOUS
 10
5.351280
 20
1.356080
  0
VERTEX
  8
0
  6
CONTINUOUS
 10
5.355680
 20
2.104080
  0
VERTEX
  8
0
  6
CONTINUOUS
 10
5.380760
 20
2.106720
  0
VERTEX
  8
0
  6
CONTINUOUS
 10
5.376360
 20
1.358720
  0
VERTEX
  8
0
  6
CONTINUOUS
 10
5.351280
 20
1.356080
  0
SEQEND
  8
0
  0
SOLID
  8
0
 62
    15
 10
5.376360
 20
1.358720
 11
5.380760
 21
2.106720
 12
5.401880
 22
1.356080
 13
5.405840
 23
2.104080
  0
POLYLINE
  8
0
  6
CONTINUOUS
 66
     1
 40
0.000000
 41
0.000000
  0
VERTEX
  8
0
  6
CONTINUOUS
 10
5.376360
 20
1.358720
  0
VERTEX
  8
0
  6
CONTINUOUS
 10
5.380760
 20
2.106720
  0
VERTEX
  8
0
  6
CONTINUOUS
 10
5.405840
 20
2.104080
  0
VERTEX
  8
0
  6
CONTINUOUS
 10
5.401880
 20
1.356080
  0
VERTEX
  8
0
  6
CONTINUOUS
 10
5.376360
 20
1.358720
  0
SEQEND
  8
0
  0
SOLID
  8
0
 62
    15
 10
5.401880
 20
1.356080
 11
5.405840
 21
2.104080
 12
5.425200
 22
1.348600
 13
5.429160
 23
2.097040
  0
POLYLINE
  8
0
  6
CONTINUOUS
 66
     1
 40
0.000000
 41
0.000000
  0
VERTEX
  8
0
  6
CONTINUOUS
 10
5.401880
 20
1.356080
  0
VERTEX
  8
0
  6
CONTINUOUS
 10
5.405840
 20
2.104080
  0
VERTEX
  8
0
  6
CONTINUOUS
 10
5.429160
 20
2.097040
  0
VERTEX
  8
0
  6
CONTINUOUS
 10
5.425200
 20
1.348600
  0
VERTEX
  8
0
  6
CONTINUOUS
 10
5.401880
 20
1.356080
  0
SEQEND
  8
0
  0
SOLID
  8
0
 62
    15
 10
5.425200
 20
1.348600
 11
5.429160
 21
2.097040
 12
5.446320
 22
1.337160
 13
5.450720
 23
2.085600
  0
POLYLINE
  8
0
  6
CONTINUOUS
 66
     1
 40
0.000000
 41
0.000000
  0
VERTEX
  8
0
  6
CONTINUOUS
 10
5.425200
 20
1.348600
  0
VERTEX
  8
0
  6
CONTINUOUS
 10
5.429160
 20
2.097040
  0
VERTEX
  8
0
  6
CONTINUOUS
 10
5.450720
 20
2.085600
  0
VERTEX
  8
0
  6
CONTINUOUS
 10
5.446320
 20
1.337160
  0
VERTEX
  8
0
  6
CONTINUOUS
 10
5.425200
 20
1.348600
  0
SEQEND
  8
0
  0
SOLID
  8
0
 62
    15
 10
5.446320
 20
1.337160
 11
5.450720
 21
2.085600
 12
5.464800
 22
1.321760
 13
5.469200
 23
2.070200
  0
POLYLINE
  8
0
  6
CONTINUOUS
 66
     1
 40
0.000000
 41
0.000000
  0
VERTEX
  8
0
  6
CONTINUOUS
 10
5.446320
 20
1.337160
  0
VERTEX
  8
0
  6
CONTINUOUS
 10
5.450720
 20
2.085600
  0
VERTEX
  8
0
  6
CONTINUOUS
 10
5.469200
 20
2.070200
  0
VERTEX
  8
0
  6
CONTINUOUS
 10
5.464800
 20
1.321760
  0
VERTEX
  8
0
  6
CONTINUOUS
 10
5.446320
 20
1.337160
  0
SEQEND
  8
0
  0
SOLID
  8
0
 62
    15
 10
5.464800
 20
1.321760
 11
5.469200
 21
2.070200
 12
5.480200
 22
1.303280
 13
5.484160
 23
2.051720
  0
POLYLINE
  8
0
  6
CONTINUOUS
 66
     1
 40
0.000000
 41
0.000000
  0
VERTEX
  8
0
  6
CONTINUOUS
 10
5.464800
 20
1.321760
  0
VERTEX
  8
0
  6
CONTINUOUS
 10
5.469200
 20
2.070200
  0
VERTEX
  8
0
  6
CONTINUOUS
 10
5.484160
 20
2.051720
  0
VERTEX
  8
0
  6
CONTINUOUS
 10
5.480200
 20
1.303280
  0
VERTEX
  8
0
  6
CONTINUOUS
 10
5.464800
 20
1.321760
  0
SEQEND
  8
0
  0
SOLID
  8
0
 62
    15
 10
5.480200
 20
1.303280
 11
5.484160
 21
2.051720
 12
5.491640
 22
1.282160
 13
5.496040
 23
2.030600
  0
POLYLINE
  8
0
  6
CONTINUOUS
 66
     1
 40
0.000000
 41
0.000000
  0
VERTEX
  8
0
  6
CONTINUOUS
 10
5.480200
 20
1.303280
  0
VERTEX
  8
0
  6
CONTINUOUS
 10
5.484160
 20
2.051720
  0
VERTEX
  8
0
  6
CONTINUOUS
 10
5.496040
 20
2.030600
  0
VERTEX
  8
0
  6
CONTINUOUS
 10
5.491640
 20
1.282160
  0
VERTEX
  8
0
  6
CONTINUOUS
 10
5.480200
 20
1.303280
  0
SEQEND
  8
0
  0
SOLID
  8
0
 62
    15
 10
5.491640
 20
1.282160
 11
5.496040
 21
2.030600
 12
5.499120
 22
1.258840
 13
5.503080
 23
2.006840
  0
POLYLINE
  8
0
  6
CONTINUOUS
 66
     1
 40
0.000000
 41
0.000000
  0
VERTEX
  8
0
  6
CONTINUOUS
 10
5.491640
 20
1.282160
  0
VERTEX
  8
0
  6
CONTINUOUS
 10
5.496040
 20
2.030600
  0
VERTEX
  8
0
  6
CONTINUOUS
 10
5.503080
 20
2.006840
  0
VERTEX
  8
0
  6
CONTINUOUS
 10
5.499120
 20
1.258840
  0
VERTEX
  8
0
  6
CONTINUOUS
 10
5.491640
 20
1.282160
  0
SEQEND
  8
0
  0
SOLID
  8
0
 62
    15
 10
5.499120
 20
1.258840
 11
5.503080
 21
2.006840
 12
5.501320
 22
1.233320
 13
5.505720
 23
1.981760
  0
POLYLINE
  8
0
  6
CONTINUOUS
 66
     1
 40
0.000000
 41
0.000000
  0
VERTEX
  8
0
  6
CONTINUOUS
 10
5.499120
 20
1.258840
  0
VERTEX
  8
0
  6
CONTINUOUS
 10
5.503080
 20
2.006840
  0
VERTEX
  8
0
  6
CONTINUOUS
 10
5.505720
 20
1.981760
  0
VERTEX
  8
0
  6
CONTINUOUS
 10
5.501320
 20
1.233320
  0
VERTEX
  8
0
  6
CONTINUOUS
 10
5.499120
 20
1.258840
  0
SEQEND
  8
0
  0
SOLID
  8
0
 62
    15
 10
5.501320
 20
1.233320
 11
5.505720
 21
1.981760
 12
5.507480
 22
1.233760
 13
5.511880
 23
1.981760
  0
POLYLINE
  8
0
  6
CONTINUOUS
 66
     1
 40
0.000000
 41
0.000000
  0
VERTEX
  8
0
  6
CONTINUOUS
 10
5.501320
 20
1.233320
  0
VERTEX
  8
0
  6
CONTINUOUS
 10
5.505720
 20
1.981760
  0
VERTEX
  8
0
  6
CONTINUOUS
 10
5.511880
 20
1.981760
  0
VERTEX
  8
0
  6
CONTINUOUS
 10
5.507480
 20
1.233760
  0
VERTEX
  8
0
  6
CONTINUOUS
 10
5.501320
 20
1.233320
  0
SEQEND
  8
0
  0
SOLID
  8
0
 62
    15
 10
5.507480
 20
1.233760
 11
5.511880
 21
1.981760
 12
5.510120
 22
1.258840
 13
5.514080
 23
2.006840
  0
POLYLINE
  8
0
  6
CONTINUOUS
 66
     1
 40
0.000000
 41
0.000000
  0
VERTEX
  8
0
  6
CONTINUOUS
 10
5.507480
 20
1.233760
  0
VERTEX
  8
0
  6
CONTINUOUS
 10
5.511880
 20
1.981760
  0
VERTEX
  8
0
  6
CONTINUOUS
 10
5.514080
 20
2.006840
  0
VERTEX
  8
0
  6
CONTINUOUS
 10
5.510120
 20
1.258840
  0
VERTEX
  8
0
  6
CONTINUOUS
 10
5.507480
 20
1.233760
  0
SEQEND
  8
0
  0
SOLID
  8
0
 62
    15
 10
5.510120
 20
1.258840
 11
5.514080
 21
2.006840
 12
5.517600
 22
1.282160
 13
5.521560
 23
2.030600
  0
POLYLINE
  8
0
  6
CONTINUOUS
 66
     1
 40
0.000000
 41
0.000000
  0
VERTEX
  8
0
  6
CONTINUOUS
 10
5.510120
 20
1.258840
  0
VERTEX
  8
0
  6
CONTINUOUS
 10
5.514080
 20
2.006840
  0
VERTEX
  8
0
  6
CONTINUOUS
 10
5.521560
 20
2.030600
  0
VERTEX
  8
0
  6
CONTINUOUS
 10
5.517600
 20
1.282160
  0
VERTEX
  8
0
  6
CONTINUOUS
 10
5.510120
 20
1.258840
  0
SEQEND
  8
0
  0
SOLID
  8
0
 62
    15
 10
5.517600
 20
1.282160
 11
5.521560
 21
2.030600
 12
5.529040
 22
1.303280
 13
5.533000
 23
2.051720
  0
POLYLINE
  8
0
  6
CONTINUOUS
 66
     1
 40
0.000000
 41
0.000000
  0
VERTEX
  8
0
  6
CONTINUOUS
 10
5.517600
 20
1.282160
  0
VERTEX
  8
0
  6
CONTINUOUS
 10
5.521560
 20
2.030600
  0
VERTEX
  8
0
  6
CONTINUOUS
 10
5.533000
 20
2.051720
  0
VERTEX
  8
0
  6
CONTINUOUS
 10
5.529040
 20
1.303280
  0
VERTEX
  8
0
  6
CONTINUOUS
 10
5.517600
 20
1.282160
  0
SEQEND
  8
0
  0
SOLID
  8
0
 62
    15
 10
5.529040
 20
1.303280
 11
5.533000
 21
2.051720
 12
5.544000
 22
1.321760
 13
5.548400
 23
2.070200
  0
POLYLINE
  8
0
  6
CONTINUOUS
 66
     1
 40
0.000000
 41
0.000000
  0
VERTEX
  8
0
  6
CONTINUOUS
 10
5.529040
 20
1.303280
  0
VERTEX
  8
0
  6
CONTINUOUS
 10
5.533000
 20
2.051720
  0
VERTEX
  8
0
  6
CONTINUOUS
 10
5.548400
 20
2.070200
  0
VERTEX
  8
0
  6
CONTINUOUS
 10
5.544000
 20
1.321760
  0
VERTEX
  8
0
  6
CONTINUOUS
 10
5.529040
 20
1.303280
  0
SEQEND
  8
0
  0
SOLID
  8
0
 62
    15
 10
5.544000
 20
1.321760
 11
5.548400
 21
2.070200
 12
5.562480
 22
1.337160
 13
5.566880
 23
2.085600
  0
POLYLINE
  8
0
  6
CONTINUOUS
 66
     1
 40
0.000000
 41
0.000000
  0
VERTEX
  8
0
  6
CONTINUOUS
 10
5.544000
 20
1.321760
  0
VERTEX
  8
0
  6
CONTINUOUS
 10
5.548400
 20
2.070200
  0
VERTEX
  8
0
  6
CONTINUOUS
 10
5.566880
 20
2.085600
  0
VERTEX
  8
0
  6
CONTINUOUS
 10
5.562480
 20
1.337160
  0
VERTEX
  8
0
  6
CONTINUOUS
 10
5.544000
 20
1.321760
  0
SEQEND
  8
0
  0
SOLID
  8
0
 62
    15
 10
5.562480
 20
1.337160
 11
5.566880
 21
2.085600
 12
5.584040
 22
1.348600
 13
5.588000
 23
2.097040
  0
POLYLINE
  8
0
  6
CONTINUOUS
 66
     1
 40
0.000000
 41
0.000000
  0
VERTEX
  8
0
  6
CONTINUOUS
 10
5.562480
 20
1.337160
  0
VERTEX
  8
0
  6
CONTINUOUS
 10
5.566880
 20
2.085600
  0
VERTEX
  8
0
  6
CONTINUOUS
 10
5.588000
 20
2.097040
  0
VERTEX
  8
0
  6
CONTINUOUS
 10
5.584040
 20
1.348600
  0
VERTEX
  8
0
  6
CONTINUOUS
 10
5.562480
 20
1.337160
  0
SEQEND
  8
0
  0
SOLID
  8
0
 62
    15
 10
5.584040
 20
1.348600
 11
5.588000
 21
2.097040
 12
5.607360
 22
1.356080
 13
5.611320
 23
2.104080
  0
POLYLINE
  8
0
  6
CONTINUOUS
 66
     1
 40
0.000000
 41
0.000000
  0
VERTEX
  8
0
  6
CONTINUOUS
 10
5.584040
 20
1.348600
  0
VERTEX
  8
0
  6
CONTINUOUS
 10
5.588000
 20
2.097040
  0
VERTEX
  8
0
  6
CONTINUOUS
 10
5.611320
 20
2.104080
  0
VERTEX
  8
0
  6
CONTINUOUS
 10
5.607360
 20
1.356080
  0
VERTEX
  8
0
  6
CONTINUOUS
 10
5.584040
 20
1.348600
  0
SEQEND
  8
0
  0
SOLID
  8
0
 62
    15
 10
5.607360
 20
1.356080
 11
5.611320
 21
2.104080
 12
5.632440
 22
1.358720
 13
5.636840
 23
2.106720
  0
POLYLINE
  8
0
  6
CONTINUOUS
 66
     1
 40
0.000000
 41
0.000000
  0
VERTEX
  8
0
  6
CONTINUOUS
 10
5.607360
 20
1.356080
  0
VERTEX
  8
0
  6
CONTINUOUS
 10
5.611320
 20
2.104080
  0
VERTEX
  8
0
  6
CONTINUOUS
 10
5.636840
 20
2.106720
  0
VERTEX
  8
0
  6
CONTINUOUS
 10
5.632440
 20
1.358720
  0
VERTEX
  8
0
  6
CONTINUOUS
 10
5.607360
 20
1.356080
  0
SEQEND
  8
0
  0
SOLID
  8
0
 62
    15
 10
5.632440
 20
1.358720
 11
5.636840
 21
2.106720
 12
5.657960
 22
1.356080
 13
5.661920
 23
2.104080
  0
POLYLINE
  8
0
  6
CONTINUOUS
 66
     1
 40
0.000000
 41
0.000000
  0
VERTEX
  8
0
  6
CONTINUOUS
 10
5.632440
 20
1.358720
  0
VERTEX
  8
0
  6
CONTINUOUS
 10
5.636840
 20
2.106720
  0
VERTEX
  8
0
  6
CONTINUOUS
 10
5.661920
 20
2.104080
  0
VERTEX
  8
0
  6
CONTINUOUS
 10
5.657960
 20
1.356080
  0
VERTEX
  8
0
  6
CONTINUOUS
 10
5.632440
 20
1.358720
  0
SEQEND
  8
0
  0
SOLID
  8
0
 62
    15
 10
5.657960
 20
1.356080
 11
5.661920
 21
2.104080
 12
5.681280
 22
1.348600
 13
5.685240
 23
2.097040
  0
POLYLINE
  8
0
  6
CONTINUOUS
 66
     1
 40
0.000000
 41
0.000000
  0
VERTEX
  8
0
  6
CONTINUOUS
 10
5.657960
 20
1.356080
  0
VERTEX
  8
0
  6
CONTINUOUS
 10
5.661920
 20
2.104080
  0
VERTEX
  8
0
  6
CONTINUOUS
 10
5.685240
 20
2.097040
  0
VERTEX
  8
0
  6
CONTINUOUS
 10
5.681280
 20
1.348600
  0
VERTEX
  8
0
  6
CONTINUOUS
 10
5.657960
 20
1.356080
  0
SEQEND
  8
0
  0
SOLID
  8
0
 62
    15
 10
5.681280
 20
1.348600
 11
5.685240
 21
2.097040
 12
5.702400
 22
1.337160
 13
5.706800
 23
2.085600
  0
POLYLINE
  8
0
  6
CONTINUOUS
 66
     1
 40
0.000000
 41
0.000000
  0
VERTEX
  8
0
  6
CONTINUOUS
 10
5.681280
 20
1.348600
  0
VERTEX
  8
0
  6
CONTINUOUS
 10
5.685240
 20
2.097040
  0
VERTEX
  8
0
  6
CONTINUOUS
 10
5.706800
 20
2.085600
  0
VERTEX
  8
0
  6
CONTINUOUS
 10
5.702400
 20
1.337160
  0
VERTEX
  8
0
  6
CONTINUOUS
 10
5.681280
 20
1.348600
  0
SEQEND
  8
0
  0
SOLID
  8
0
 62
    15
 10
5.702400
 20
1.337160
 11
5.706800
 21
2.085600
 12
5.720880
 22
1.321760
 13
5.725280
 23
2.070200
  0
POLYLINE
  8
0
  6
CONTINUOUS
 66
     1
 40
0.000000
 41
0.000000
  0
VERTEX
  8
0
  6
CONTINUOUS
 10
5.702400
 20
1.337160
  0
VERTEX
  8
0
  6
CONTINUOUS
 10
5.706800
 20
2.085600
  0
VERTEX
  8
0
  6
CONTINUOUS
 10
5.725280
 20
2.070200
  0
VERTEX
  8
0
  6
CONTINUOUS
 10
5.720880
 20
1.321760
  0
VERTEX
  8
0
  6
CONTINUOUS
 10
5.702400
 20
1.337160
  0
SEQEND
  8
0
  0
SOLID
  8
0
 62
    15
 10
5.720880
 20
1.321760
 11
5.725280
 21
2.070200
 12
5.736280
 22
1.303280
 13
5.740240
 23
2.051720
  0
POLYLINE
  8
0
  6
CONTINUOUS
 66
     1
 40
0.000000
 41
0.000000
  0
VERTEX
  8
0
  6
CONTINUOUS
 10
5.720880
 20
1.321760
  0
VERTEX
  8
0
  6
CONTINUOUS
 10
5.725280
 20
2.070200
  0
VERTEX
  8
0
  6
CONTINUOUS
 10
5.740240
 20
2.051720
  0
VERTEX
  8
0
  6
CONTINUOUS
 10
5.736280
 20
1.303280
  0
VERTEX
  8
0
  6
CONTINUOUS
 10
5.720880
 20
1.321760
  0
SEQEND
  8
0
  0
SOLID
  8
0
 62
    15
 10
5.736280
 20
1.303280
 11
5.740240
 21
2.051720
 12
5.747720
 22
1.282160
 13
5.751680
 23
2.030600
  0
POLYLINE
  8
0
  6
CONTINUOUS
 66
     1
 40
0.000000
 41
0.000000
  0
VERTEX
  8
0
  6
CONTINUOUS
 10
5.736280
 20
1.303280
  0
VERTEX
  8
0
  6
CONTINUOUS
 10
5.740240
 20
2.051720
  0
VERTEX
  8
0
  6
CONTINUOUS
 10
5.751680
 20
2.030600
  0
VERTEX
  8
0
  6
CONTINUOUS
 10
5.747720
 20
1.282160
  0
VERTEX
  8
0
  6
CONTINUOUS
 10
5.736280
 20
1.303280
  0
SEQEND
  8
0
  0
SOLID
  8
0
 62
    15
 10
5.747720
 20
1.282160
 11
5.751680
 21
2.030600
 12
5.755200
 22
1.258840
 13
5.759160
 23
2.006840
  0
POLYLINE
  8
0
  6
CONTINUOUS
 66
     1
 40
0.000000
 41
0.000000
  0
VERTEX
  8
0
  6
CONTINUOUS
 10
5.747720
 20
1.282160
  0
VERTEX
  8
0
  6
CONTINUOUS
 10
5.751680
 20
2.030600
  0
VERTEX
  8
0
  6
CONTINUOUS
 10
5.759160
 20
2.006840
  0
VERTEX
  8
0
  6
CONTINUOUS
 10
5.755200
 20
1.258840
  0
VERTEX
  8
0
  6
CONTINUOUS
 10
5.747720
 20
1.282160
  0
SEQEND
  8
0
  0
SOLID
  8
0
 62
    15
 10
5.755200
 20
1.258840
 11
5.759160
 21
2.006840
 12
5.757400
 22
1.233760
 13
5.761800
 23
1.981760
  0
POLYLINE
  8
0
  6
CONTINUOUS
 66
     1
 40
0.000000
 41
0.000000
  0
VERTEX
  8
0
  6
CONTINUOUS
 10
5.755200
 20
1.258840
  0
VERTEX
  8
0
  6
CONTINUOUS
 10
5.759160
 20
2.006840
  0
VERTEX
  8
0
  6
CONTINUOUS
 10
5.761800
 20
1.981760
  0
VERTEX
  8
0
  6
CONTINUOUS
 10
5.757400
 20
1.233760
  0
VERTEX
  8
0
  6
CONTINUOUS
 10
5.755200
 20
1.258840
  0
SEQEND
  8
0
  0
SOLID
  8
0
 62
    15
 10
5.757400
 20
1.233760
 11
5.761800
 21
1.981760
 12
5.760920
 22
1.233320
 13
5.764880
 23
1.981760
  0
POLYLINE
  8
0
  6
CONTINUOUS
 66
     1
 40
0.000000
 41
0.000000
  0
VERTEX
  8
0
  6
CONTINUOUS
 10
5.757400
 20
1.233760
  0
VERTEX
  8
0
  6
CONTINUOUS
 10
5.761800
 20
1.981760
  0
VERTEX
  8
0
  6
CONTINUOUS
 10
5.764880
 20
1.981760
  0
VERTEX
  8
0
  6
CONTINUOUS
 10
5.760920
 20
1.233320
  0
VERTEX
  8
0
  6
CONTINUOUS
 10
5.757400
 20
1.233760
  0
SEQEND
  8
0
  0
SOLID
  8
0
 62
    15
 10
5.760920
 20
1.233320
 11
5.764880
 21
1.981760
 12
5.763120
 22
1.258840
 13
5.767520
 23
2.006840
  0
POLYLINE
  8
0
  6
CONTINUOUS
 66
     1
 40
0.000000
 41
0.000000
  0
VERTEX
  8
0
  6
CONTINUOUS
 10
5.760920
 20
1.233320
  0
VERTEX
  8
0
  6
CONTINUOUS
 10
5.764880
 20
1.981760
  0
VERTEX
  8
0
  6
CONTINUOUS
 10
5.767520
 20
2.006840
  0
VERTEX
  8
0
  6
CONTINUOUS
 10
5.763120
 20
1.258840
  0
VERTEX
  8
0
  6
CONTINUOUS
 10
5.760920
 20
1.233320
  0
SEQEND
  8
0
  0
SOLID
  8
0
 62
    15
 10
5.763120
 20
1.258840
 11
5.767520
 21
2.006840
 12
5.770600
 22
1.282160
 13
5.774560
 23
2.030600
  0
POLYLINE
  8
0
  6
CONTINUOUS
 66
     1
 40
0.000000
 41
0.000000
  0
VERTEX
  8
0
  6
CONTINUOUS
 10
5.763120
 20
1.258840
  0
VERTEX
  8
0
  6
CONTINUOUS
 10
5.767520
 20
2.006840
  0
VERTEX
  8
0
  6
CONTINUOUS
 10
5.774560
 20
2.030600
  0
VERTEX
  8
0
  6
CONTINUOUS
 10
5.770600
 20
1.282160
  0
VERTEX
  8
0
  6
CONTINUOUS
 10
5.763120
 20
1.258840
  0
SEQEND
  8
0
  0
SOLID
  8
0
 62
    15
 10
4.491080
 20
1.233320
 11
4.495040
 21
1.981760
 12
4.493720
 22
1.258840
 13
4.497680
 23
2.006840
  0
POLYLINE
  8
0
  6
CONTINUOUS
 66
     1
 40
0.000000
 41
0.000000
  0
VERTEX
  8
0
  6
CONTINUOUS
 10
4.491080
 20
1.233320
  0
VERTEX
  8
0
  6
CONTINUOUS
 10
4.495040
 20
1.981760
  0
VERTEX
  8
0
  6
CONTINUOUS
 10
4.497680
 20
2.006840
  0
VERTEX
  8
0
  6
CONTINUOUS
 10
4.493720
 20
1.258840
  0
VERTEX
  8
0
  6
CONTINUOUS
 10
4.491080
 20
1.233320
  0
SEQEND
  8
0
  0
SOLID
  8
0
 62
    15
 10
5.782040
 20
1.303280
 11
5.786440
 21
2.051720
 12
5.797440
 22
1.321760
 13
5.801400
 23
2.070200
  0
POLYLINE
  8
0
  6
CONTINUOUS
 66
     1
 40
0.000000
 41
0.000000
  0
VERTEX
  8
0
  6
CONTINUOUS
 10
5.782040
 20
1.303280
  0
VERTEX
  8
0
  6
CONTINUOUS
 10
5.786440
 20
2.051720
  0
VERTEX
  8
0
  6
CONTINUOUS
 10
5.801400
 20
2.070200
  0
VERTEX
  8
0
  6
CONTINUOUS
 10
5.797440
 20
1.321760
  0
VERTEX
  8
0
  6
CONTINUOUS
 10
5.782040
 20
1.303280
  0
SEQEND
  8
0
  0
SOLID
  8
0
 62
    15
 10
5.797440
 20
1.321760
 11
5.801400
 21
2.070200
 12
5.815920
 22
1.337160
 13
5.819880
 23
2.085600
  0
POLYLINE
  8
0
  6
CONTINUOUS
 66
     1
 40
0.000000
 41
0.000000
  0
VERTEX
  8
0
  6
CONTINUOUS
 10
5.797440
 20
1.321760
  0
VERTEX
  8
0
  6
CONTINUOUS
 10
5.801400
 20
2.070200
  0
VERTEX
  8
0
  6
CONTINUOUS
 10
5.819880
 20
2.085600
  0
VERTEX
  8
0
  6
CONTINUOUS
 10
5.815920
 20
1.337160
  0
VERTEX
  8
0
  6
CONTINUOUS
 10
5.797440
 20
1.321760
  0
SEQEND
  8
0
  0
SOLID
  8
0
 62
    15
 10
5.815920
 20
1.337160
 11
5.819880
 21
2.085600
 12
5.837040
 22
1.348600
 13
5.841440
 23
2.097040
  0
POLYLINE
  8
0
  6
CONTINUOUS
 66
     1
 40
0.000000
 41
0.000000
  0
VERTEX
  8
0
  6
CONTINUOUS
 10
5.815920
 20
1.337160
  0
VERTEX
  8
0
  6
CONTINUOUS
 10
5.819880
 20
2.085600
  0
VERTEX
  8
0
  6
CONTINUOUS
 10
5.841440
 20
2.097040
  0
VERTEX
  8
0
  6
CONTINUOUS
 10
5.837040
 20
1.348600
  0
VERTEX
  8
0
  6
CONTINUOUS
 10
5.815920
 20
1.337160
  0
SEQEND
  8
0
  0
SOLID
  8
0
 62
    15
 10
5.837040
 20
1.348600
 11
5.841440
 21
2.097040
 12
5.860360
 22
1.356080
 13
5.864760
 23
2.104080
  0
POLYLINE
  8
0
  6
CONTINUOUS
 66
     1
 40
0.000000
 41
0.000000
  0
VERTEX
  8
0
  6
CONTINUOUS
 10
5.837040
 20
1.348600
  0
VERTEX
  8
0
  6
CONTINUOUS
 10
5.841440
 20
2.097040
  0
VERTEX
  8
0
  6
CONTINUOUS
 10
5.864760
 20
2.104080
  0
VERTEX
  8
0
  6
CONTINUOUS
 10
5.860360
 20
1.356080
  0
VERTEX
  8
0
  6
CONTINUOUS
 10
5.837040
 20
1.348600
  0
SEQEND
  8
0
  0
SOLID
  8
0
 62
    15
 10
5.860360
 20
1.356080
 11
5.864760
 21
2.104080
 12
5.885880
 22
1.358720
 13
5.889840
 23
2.106720
  0
POLYLINE
  8
0
  6
CONTINUOUS
 66
     1
 40
0.000000
 41
0.000000
  0
VERTEX
  8
0
  6
CONTINUOUS
 10
5.860360
 20
1.356080
  0
VERTEX
  8
0
  6
CONTINUOUS
 10
5.864760
 20
2.104080
  0
VERTEX
  8
0
  6
CONTINUOUS
 10
5.889840
 20
2.106720
  0
VERTEX
  8
0
  6
CONTINUOUS
 10
5.885880
 20
1.358720
  0
VERTEX
  8
0
  6
CONTINUOUS
 10
5.860360
 20
1.356080
  0
SEQEND
  8
0
  0
SOLID
  8
0
 62
    15
 10
5.885880
 20
1.358720
 11
5.889840
 21
2.106720
 12
5.910960
 22
1.356080
 13
5.914920
 23
2.104080
  0
POLYLINE
  8
0
  6
CONTINUOUS
 66
     1
 40
0.000000
 41
0.000000
  0
VERTEX
  8
0
  6
CONTINUOUS
 10
5.885880
 20
1.358720
  0
VERTEX
  8
0
  6
CONTINUOUS
 10
5.889840
 20
2.106720
  0
VERTEX
  8
0
  6
CONTINUOUS
 10
5.914920
 20
2.104080
  0
VERTEX
  8
0
  6
CONTINUOUS
 10
5.910960
 20
1.356080
  0
VERTEX
  8
0
  6
CONTINUOUS
 10
5.885880
 20
1.358720
  0
SEQEND
  8
0
  0
SOLID
  8
0
 62
    15
 10
5.910960
 20
1.356080
 11
5.914920
 21
2.104080
 12
5.934280
 22
1.348600
 13
5.938680
 23
2.097040
  0
POLYLINE
  8
0
  6
CONTINUOUS
 66
     1
 40
0.000000
 41
0.000000
  0
VERTEX
  8
0
  6
CONTINUOUS
 10
5.910960
 20
1.356080
  0
VERTEX
  8
0
  6
CONTINUOUS
 10
5.914920
 20
2.104080
  0
VERTEX
  8
0
  6
CONTINUOUS
 10
5.938680
 20
2.097040
  0
VERTEX
  8
0
  6
CONTINUOUS
 10
5.934280
 20
1.348600
  0
VERTEX
  8
0
  6
CONTINUOUS
 10
5.910960
 20
1.356080
  0
SEQEND
  8
0
  0
SOLID
  8
0
 62
    15
 10
5.934280
 20
1.348600
 11
5.938680
 21
2.097040
 12
5.955840
 22
1.337160
 13
5.959800
 23
2.085600
  0
POLYLINE
  8
0
  6
CONTINUOUS
 66
     1
 40
0.000000
 41
0.000000
  0
VERTEX
  8
0
  6
CONTINUOUS
 10
5.934280
 20
1.348600
  0
VERTEX
  8
0
  6
CONTINUOUS
 10
5.938680
 20
2.097040
  0
VERTEX
  8
0
  6
CONTINUOUS
 10
5.959800
 20
2.085600
  0
VERTEX
  8
0
  6
CONTINUOUS
 10
5.955840
 20
1.337160
  0
VERTEX
  8
0
  6
CONTINUOUS
 10
5.934280
 20
1.348600
  0
SEQEND
  8
0
  0
SOLID
  8
0
 62
    15
 10
5.955840
 20
1.337160
 11
5.959800
 21
2.085600
 12
5.974320
 22
1.321760
 13
5.978280
 23
2.070200
  0
POLYLINE
  8
0
  6
CONTINUOUS
 66
     1
 40
0.000000
 41
0.000000
  0
VERTEX
  8
0
  6
CONTINUOUS
 10
5.955840
 20
1.337160
  0
VERTEX
  8
0
  6
CONTINUOUS
 10
5.959800
 20
2.085600
  0
VERTEX
  8
0
  6
CONTINUOUS
 10
5.978280
 20
2.070200
  0
VERTEX
  8
0
  6
CONTINUOUS
 10
5.974320
 20
1.321760
  0
VERTEX
  8
0
  6
CONTINUOUS
 10
5.955840
 20
1.337160
  0
SEQEND
  8
0
  0
SOLID
  8
0
 62
    15
 10
5.974320
 20
1.321760
 11
5.978280
 21
2.070200
 12
5.989280
 22
1.303280
 13
5.993680
 23
2.051720
  0
POLYLINE
  8
0
  6
CONTINUOUS
 66
     1
 40
0.000000
 41
0.000000
  0
VERTEX
  8
0
  6
CONTINUOUS
 10
5.974320
 20
1.321760
  0
VERTEX
  8
0
  6
CONTINUOUS
 10
5.978280
 20
2.070200
  0
VERTEX
  8
0
  6
CONTINUOUS
 10
5.993680
 20
2.051720
  0
VERTEX
  8
0
  6
CONTINUOUS
 10
5.989280
 20
1.303280
  0
VERTEX
  8
0
  6
CONTINUOUS
 10
5.974320
 20
1.321760
  0
SEQEND
  8
0
  0
SOLID
  8
0
 62
    15
 10
5.989280
 20
1.303280
 11
5.993680
 21
2.051720
 12
6.000720
 22
1.282160
 13
6.005120
 23
2.030600
  0
POLYLINE
  8
0
  6
CONTINUOUS
 66
     1
 40
0.000000
 41
0.000000
  0
VERTEX
  8
0
  6
CONTINUOUS
 10
5.989280
 20
1.303280
  0
VERTEX
  8
0
  6
CONTINUOUS
 10
5.993680
 20
2.051720
  0
VERTEX
  8
0
  6
CONTINUOUS
 10
6.005120
 20
2.030600
  0
VERTEX
  8
0
  6
CONTINUOUS
 10
6.000720
 20
1.282160
  0
VERTEX
  8
0
  6
CONTINUOUS
 10
5.989280
 20
1.303280
  0
SEQEND
  8
0
  0
SOLID
  8
0
 62
    15
 10
6.000720
 20
1.282160
 11
6.005120
 21
2.030600
 12
6.008200
 22
1.258840
 13
6.012160
 23
2.006840
  0
POLYLINE
  8
0
  6
CONTINUOUS
 66
     1
 40
0.000000
 41
0.000000
  0
VERTEX
  8
0
  6
CONTINUOUS
 10
6.000720
 20
1.282160
  0
VERTEX
  8
0
  6
CONTINUOUS
 10
6.005120
 20
2.030600
  0
VERTEX
  8
0
  6
CONTINUOUS
 10
6.012160
 20
2.006840
  0
VERTEX
  8
0
  6
CONTINUOUS
 10
6.008200
 20
1.258840
  0
VERTEX
  8
0
  6
CONTINUOUS
 10
6.000720
 20
1.282160
  0
SEQEND
  8
0
  0
SOLID
  8
0
 62
    15
 10
6.008200
 20
1.258840
 11
6.012160
 21
2.006840
 12
6.010840
 22
1.233320
 13
6.014800
 23
1.981760
  0
POLYLINE
  8
0
  6
CONTINUOUS
 66
     1
 40
0.000000
 41
0.000000
  0
VERTEX
  8
0
  6
CONTINUOUS
 10
6.008200
 20
1.258840
  0
VERTEX
  8
0
  6
CONTINUOUS
 10
6.012160
 20
2.006840
  0
VERTEX
  8
0
  6
CONTINUOUS
 10
6.014800
 20
1.981760
  0
VERTEX
  8
0
  6
CONTINUOUS
 10
6.010840
 20
1.233320
  0
VERTEX
  8
0
  6
CONTINUOUS
 10
6.008200
 20
1.258840
  0
SEQEND
  8
0
  0
SOLID
  8
0
 62
    15
 10
6.010840
 20
1.233320
 11
6.014800
 21
1.981760
 12
6.014800
 22
1.233320
 13
6.019200
 23
1.981760
  0
POLYLINE
  8
0
  6
CONTINUOUS
 66
     1
 40
0.000000
 41
0.000000
  0
VERTEX
  8
0
  6
CONTINUOUS
 10
6.010840
 20
1.233320
  0
VERTEX
  8
0
  6
CONTINUOUS
 10
6.014800
 20
1.981760
  0
VERTEX
  8
0
  6
CONTINUOUS
 10
6.019200
 20
1.981760
  0
VERTEX
  8
0
  6
CONTINUOUS
 10
6.014800
 20
1.233320
  0
VERTEX
  8
0
  6
CONTINUOUS
 10
6.010840
 20
1.233320
  0
SEQEND
  8
0
  0
SOLID
  8
0
 62
    15
 10
6.014800
 20
1.233320
 11
6.019200
 21
1.981760
 12
6.017440
 22
1.258400
 13
6.021840
 23
2.006840
  0
POLYLINE
  8
0
  6
CONTINUOUS
 66
     1
 40
0.000000
 41
0.000000
  0
VERTEX
  8
0
  6
CONTINUOUS
 10
6.014800
 20
1.233320
  0
VERTEX
  8
0
  6
CONTINUOUS
 10
6.019200
 20
1.981760
  0
VERTEX
  8
0
  6
CONTINUOUS
 10
6.021840
 20
2.006840
  0
VERTEX
  8
0
  6
CONTINUOUS
 10
6.017440
 20
1.258400
  0
VERTEX
  8
0
  6
CONTINUOUS
 10
6.014800
 20
1.233320
  0
SEQEND
  8
0
  0
SOLID
  8
0
 62
    15
 10
6.017440
 20
1.258400
 11
6.021840
 21
2.006840
 12
6.024920
 22
1.282160
 13
6.028880
 23
2.030160
  0
POLYLINE
  8
0
  6
CONTINUOUS
 66
     1
 40
0.000000
 41
0.000000
  0
VERTEX
  8
0
  6
CONTINUOUS
 10
6.017440
 20
1.258400
  0
VERTEX
  8
0
  6
CONTINUOUS
 10
6.021840
 20
2.006840
  0
VERTEX
  8
0
  6
CONTINUOUS
 10
6.028880
 20
2.030160
  0
VERTEX
  8
0
  6
CONTINUOUS
 10
6.024920
 20
1.282160
  0
VERTEX
  8
0
  6
CONTINUOUS
 10
6.017440
 20
1.258400
  0
SEQEND
  8
0
  0
SOLID
  8
0
 62
    15
 10
6.024920
 20
1.282160
 11
6.028880
 21
2.030160
 12
6.036360
 22
1.303280
 13
6.040320
 23
2.051280
  0
POLYLINE
  8
0
  6
CONTINUOUS
 66
     1
 40
0.000000
 41
0.000000
  0
VERTEX
  8
0
  6
CONTINUOUS
 10
6.024920
 20
1.282160
  0
VERTEX
  8
0
  6
CONTINUOUS
 10
6.028880
 20
2.030160
  0
VERTEX
  8
0
  6
CONTINUOUS
 10
6.040320
 20
2.051280
  0
VERTEX
  8
0
  6
CONTINUOUS
 10
6.036360
 20
1.303280
  0
VERTEX
  8
0
  6
CONTINUOUS
 10
6.024920
 20
1.282160
  0
SEQEND
  8
0
  0
SOLID
  8
0
 62
    15
 10
6.036360
 20
1.303280
 11
6.040320
 21
2.051280
 12
6.051760
 22
1.321760
 13
6.055720
 23
2.069760
  0
POLYLINE
  8
0
  6
CONTINUOUS
 66
     1
 40
0.000000
 41
0.000000
  0
VERTEX
  8
0
  6
CONTINUOUS
 10
6.036360
 20
1.303280
  0
VERTEX
  8
0
  6
CONTINUOUS
 10
6.040320
 20
2.051280
  0
VERTEX
  8
0
  6
CONTINUOUS
 10
6.055720
 20
2.069760
  0
VERTEX
  8
0
  6
CONTINUOUS
 10
6.051760
 20
1.321760
  0
VERTEX
  8
0
  6
CONTINUOUS
 10
6.036360
 20
1.303280
  0
SEQEND
  8
0
  0
SOLID
  8
0
 62
    15
 10
6.051760
 20
1.321760
 11
6.055720
 21
2.069760
 12
6.070240
 22
1.337160
 13
6.074200
 23
2.085160
  0
POLYLINE
  8
0
  6
CONTINUOUS
 66
     1
 40
0.000000
 41
0.000000
  0
VERTEX
  8
0
  6
CONTINUOUS
 10
6.051760
 20
1.321760
  0
VERTEX
  8
0
  6
CONTINUOUS
 10
6.055720
 20
2.069760
  0
VERTEX
  8
0
  6
CONTINUOUS
 10
6.074200
 20
2.085160
  0
VERTEX
  8
0
  6
CONTINUOUS
 10
6.070240
 20
1.337160
  0
VERTEX
  8
0
  6
CONTINUOUS
 10
6.051760
 20
1.321760
  0
SEQEND
  8
0
  0
SOLID
  8
0
 62
    15
 10
6.070240
 20
1.337160
 11
6.074200
 21
2.085160
 12
6.091360
 22
1.348600
 13
6.095320
 23
2.096600
  0
POLYLINE
  8
0
  6
CONTINUOUS
 66
     1
 40
0.000000
 41
0.000000
  0
VERTEX
  8
0
  6
CONTINUOUS
 10
6.070240
 20
1.337160
  0
VERTEX
  8
0
  6
CONTINUOUS
 10
6.074200
 20
2.085160
  0
VERTEX
  8
0
  6
CONTINUOUS
 10
6.095320
 20
2.096600
  0
VERTEX
  8
0
  6
CONTINUOUS
 10
6.091360
 20
1.348600
  0
VERTEX
  8
0
  6
CONTINUOUS
 10
6.070240
 20
1.337160
  0
SEQEND
  8
0
  0
SOLID
  8
0
 62
    15
 10
6.091360
 20
1.348600
 11
6.095320
 21
2.096600
 12
6.114680
 22
1.355640
 13
6.119080
 23
2.104080
  0
POLYLINE
  8
0
  6
CONTINUOUS
 66
     1
 40
0.000000
 41
0.000000
  0
VERTEX
  8
0
  6
CONTINUOUS
 10
6.091360
 20
1.348600
  0
VERTEX
  8
0
  6
CONTINUOUS
 10
6.095320
 20
2.096600
  0
VERTEX
  8
0
  6
CONTINUOUS
 10
6.119080
 20
2.104080
  0
VERTEX
  8
0
  6
CONTINUOUS
 10
6.114680
 20
1.355640
  0
VERTEX
  8
0
  6
CONTINUOUS
 10
6.091360
 20
1.348600
  0
SEQEND
  8
0
  0
SOLID
  8
0
 62
    15
 10
6.114680
 20
1.355640
 11
6.119080
 21
2.104080
 12
6.140200
 22
1.358280
 13
6.144160
 23
2.106720
  0
POLYLINE
  8
0
  6
CONTINUOUS
 66
     1
 40
0.000000
 41
0.000000
  0
VERTEX
  8
0
  6
CONTINUOUS
 10
6.114680
 20
1.355640
  0
VERTEX
  8
0
  6
CONTINUOUS
 10
6.119080
 20
2.104080
  0
VERTEX
  8
0
  6
CONTINUOUS
 10
6.144160
 20
2.106720
  0
VERTEX
  8
0
  6
CONTINUOUS
 10
6.140200
 20
1.358280
  0
VERTEX
  8
0
  6
CONTINUOUS
 10
6.114680
 20
1.355640
  0
SEQEND
  8
0
  0
SOLID
  8
0
 62
    15
 10
6.140200
 20
1.358280
 11
6.144160
 21
2.106720
 12
6.165280
 22
1.355640
 13
6.169240
 23
2.104080
  0
POLYLINE
  8
0
  6
CONTINUOUS
 66
     1
 40
0.000000
 41
0.000000
  0
VERTEX
  8
0
  6
CONTINUOUS
 10
6.140200
 20
1.358280
  0
VERTEX
  8
0
  6
CONTINUOUS
 10
6.144160
 20
2.106720
  0
VERTEX
  8
0
  6
CONTINUOUS
 10
6.169240
 20
2.104080
  0
VERTEX
  8
0
  6
CONTINUOUS
 10
6.165280
 20
1.355640
  0
VERTEX
  8
0
  6
CONTINUOUS
 10
6.140200
 20
1.358280
  0
SEQEND
  8
0
  0
SOLID
  8
0
 62
    15
 10
6.165280
 20
1.355640
 11
6.169240
 21
2.104080
 12
6.188600
 22
1.348600
 13
6.193000
 23
2.096600
  0
POLYLINE
  8
0
  6
CONTINUOUS
 66
     1
 40
0.000000
 41
0.000000
  0
VERTEX
  8
0
  6
CONTINUOUS
 10
6.165280
 20
1.355640
  0
VERTEX
  8
0
  6
CONTINUOUS
 10
6.169240
 20
2.104080
  0
VERTEX
  8
0
  6
CONTINUOUS
 10
6.193000
 20
2.096600
  0
VERTEX
  8
0
  6
CONTINUOUS
 10
6.188600
 20
1.348600
  0
VERTEX
  8
0
  6
CONTINUOUS
 10
6.165280
 20
1.355640
  0
SEQEND
  8
0
  0
SOLID
  8
0
 62
    15
 10
6.188600
 20
1.348600
 11
6.193000
 21
2.096600
 12
6.209720
 22
1.337160
 13
6.214120
 23
2.085160
  0
POLYLINE
  8
0
  6
CONTINUOUS
 66
     1
 40
0.000000
 41
0.000000
  0
VERTEX
  8
0
  6
CONTINUOUS
 10
6.188600
 20
1.348600
  0
VERTEX
  8
0
  6
CONTINUOUS
 10
6.193000
 20
2.096600
  0
VERTEX
  8
0
  6
CONTINUOUS
 10
6.214120
 20
2.085160
  0
VERTEX
  8
0
  6
CONTINUOUS
 10
6.209720
 20
1.337160
  0
VERTEX
  8
0
  6
CONTINUOUS
 10
6.188600
 20
1.348600
  0
SEQEND
  8
0
  0
SOLID
  8
0
 62
    15
 10
6.209720
 20
1.337160
 11
6.214120
 21
2.085160
 12
6.228200
 22
1.321760
 13
6.232600
 23
2.069760
  0
POLYLINE
  8
0
  6
CONTINUOUS
 66
     1
 40
0.000000
 41
0.000000
  0
VERTEX
  8
0
  6
CONTINUOUS
 10
6.209720
 20
1.337160
  0
VERTEX
  8
0
  6
CONTINUOUS
 10
6.214120
 20
2.085160
  0
VERTEX
  8
0
  6
CONTINUOUS
 10
6.232600
 20
2.069760
  0
VERTEX
  8
0
  6
CONTINUOUS
 10
6.228200
 20
1.321760
  0
VERTEX
  8
0
  6
CONTINUOUS
 10
6.209720
 20
1.337160
  0
SEQEND
  8
0
  0
SOLID
  8
0
 62
    15
 10
6.228200
 20
1.321760
 11
6.232600
 21
2.069760
 12
6.243600
 22
1.303280
 13
6.248000
 23
2.051280
  0
POLYLINE
  8
0
  6
CONTINUOUS
 66
     1
 40
0.000000
 41
0.000000
  0
VERTEX
  8
0
  6
CONTINUOUS
 10
6.228200
 20
1.321760
  0
VERTEX
  8
0
  6
CONTINUOUS
 10
6.232600
 20
2.069760
  0
VERTEX
  8
0
  6
CONTINUOUS
 10
6.248000
 20
2.051280
  0
VERTEX
  8
0
  6
CONTINUOUS
 10
6.243600
 20
1.303280
  0
VERTEX
  8
0
  6
CONTINUOUS
 10
6.228200
 20
1.321760
  0
SEQEND
  8
0
  0
SOLID
  8
0
 62
    15
 10
6.243600
 20
1.303280
 11
6.248000
 21
2.051280
 12
6.255040
 22
1.282160
 13
6.259440
 23
2.030160
  0
POLYLINE
  8
0
  6
CONTINUOUS
 66
     1
 40
0.000000
 41
0.000000
  0
VERTEX
  8
0
  6
CONTINUOUS
 10
6.243600
 20
1.303280
  0
VERTEX
  8
0
  6
CONTINUOUS
 10
6.248000
 20
2.051280
  0
VERTEX
  8
0
  6
CONTINUOUS
 10
6.259440
 20
2.030160
  0
VERTEX
  8
0
  6
CONTINUOUS
 10
6.255040
 20
1.282160
  0
VERTEX
  8
0
  6
CONTINUOUS
 10
6.243600
 20
1.303280
  0
SEQEND
  8
0
  0
SOLID
  8
0
 62
    15
 10
6.265160
 20
1.233320
 11
6.269120
 21
1.981760
 12
6.268680
 22
1.232880
 13
6.272640
 23
1.980880
  0
POLYLINE
  8
0
  6
CONTINUOUS
 66
     1
 40
0.000000
 41
0.000000
  0
VERTEX
  8
0
  6
CONTINUOUS
 10
6.265160
 20
1.233320
  0
VERTEX
  8
0
  6
CONTINUOUS
 10
6.269120
 20
1.981760
  0
VERTEX
  8
0
  6
CONTINUOUS
 10
6.272640
 20
1.980880
  0
VERTEX
  8
0
  6
CONTINUOUS
 10
6.268680
 20
1.232880
  0
VERTEX
  8
0
  6
CONTINUOUS
 10
6.265160
 20
1.233320
  0
SEQEND
  8
0
  0
SOLID
  8
0
 62
    15
 10
6.262520
 20
1.258400
 11
6.266480
 21
2.006840
 12
6.265160
 22
1.233320
 13
6.269120
 23
1.981760
  0
POLYLINE
  8
0
  6
CONTINUOUS
 66
     1
 40
0.000000
 41
0.000000
  0
VERTEX
  8
0
  6
CONTINUOUS
 10
6.262520
 20
1.258400
  0
VERTEX
  8
0
  6
CONTINUOUS
 10
6.266480
 20
2.006840
  0
VERTEX
  8
0
  6
CONTINUOUS
 10
6.269120
 20
1.981760
  0
VERTEX
  8
0
  6
CONTINUOUS
 10
6.265160
 20
1.233320
  0
VERTEX
  8
0
  6
CONTINUOUS
 10
6.262520
 20
1.258400
  0
SEQEND
  8
0
  0
SOLID
  8
0
 62
    15
 10
6.255040
 20
1.282160
 11
6.259440
 21
2.030160
 12
6.262520
 22
1.258400
 13
6.266480
 23
2.006840
  0
POLYLINE
  8
0
  6
CONTINUOUS
 66
     1
 40
0.000000
 41
0.000000
  0
VERTEX
  8
0
  6
CONTINUOUS
 10
6.255040
 20
1.282160
  0
VERTEX
  8
0
  6
CONTINUOUS
 10
6.259440
 20
2.030160
  0
VERTEX
  8
0
  6
CONTINUOUS
 10
6.266480
 20
2.006840
  0
VERTEX
  8
0
  6
CONTINUOUS
 10
6.262520
 20
1.258400
  0
VERTEX
  8
0
  6
CONTINUOUS
 10
6.255040
 20
1.282160
  0
SEQEND
  8
0
  0
SOLID
  8
0
 62
    15
 10
6.268680
 20
1.232880
 11
6.272640
 21
1.980880
 12
6.271320
 22
1.257960
 13
6.275280
 23
2.005960
  0
POLYLINE
  8
0
  6
CONTINUOUS
 66
     1
 40
0.000000
 41
0.000000
  0
VERTEX
  8
0
  6
CONTINUOUS
 10
6.268680
 20
1.232880
  0
VERTEX
  8
0
  6
CONTINUOUS
 10
6.272640
 20
1.980880
  0
VERTEX
  8
0
  6
CONTINUOUS
 10
6.275280
 20
2.005960
  0
VERTEX
  8
0
  6
CONTINUOUS
 10
6.271320
 20
1.257960
  0
VERTEX
  8
0
  6
CONTINUOUS
 10
6.268680
 20
1.232880
  0
SEQEND
  8
0
  0
SOLID
  8
0
 62
    15
 10
6.271320
 20
1.257960
 11
6.275280
 21
2.005960
 12
6.278360
 22
1.281280
 13
6.282760
 23
2.029720
  0
POLYLINE
  8
0
  6
CONTINUOUS
 66
     1
 40
0.000000
 41
0.000000
  0
VERTEX
  8
0
  6
CONTINUOUS
 10
6.271320
 20
1.257960
  0
VERTEX
  8
0
  6
CONTINUOUS
 10
6.275280
 20
2.005960
  0
VERTEX
  8
0
  6
CONTINUOUS
 10
6.282760
 20
2.029720
  0
VERTEX
  8
0
  6
CONTINUOUS
 10
6.278360
 20
1.281280
  0
VERTEX
  8
0
  6
CONTINUOUS
 10
6.271320
 20
1.257960
  0
SEQEND
  8
0
  0
SOLID
  8
0
 62
    15
 10
6.278360
 20
1.281280
 11
6.282760
 21
2.029720
 12
6.289800
 22
1.302400
 13
6.294200
 23
2.050840
  0
POLYLINE
  8
0
  6
CONTINUOUS
 66
     1
 40
0.000000
 41
0.000000
  0
VERTEX
  8
0
  6
CONTINUOUS
 10
6.278360
 20
1.281280
  0
VERTEX
  8
0
  6
CONTINUOUS
 10
6.282760
 20
2.029720
  0
VERTEX
  8
0
  6
CONTINUOUS
 10
6.294200
 20
2.050840
  0
VERTEX
  8
0
  6
CONTINUOUS
 10
6.289800
 20
1.302400
  0
VERTEX
  8
0
  6
CONTINUOUS
 10
6.278360
 20
1.281280
  0
SEQEND
  8
0
  0
SOLID
  8
0
 62
    15
 10
6.289800
 20
1.302400
 11
6.294200
 21
2.050840
 12
6.305200
 22
1.320880
 13
6.309600
 23
2.069320
  0
POLYLINE
  8
0
  6
CONTINUOUS
 66
     1
 40
0.000000
 41
0.000000
  0
VERTEX
  8
0
  6
CONTINUOUS
 10
6.289800
 20
1.302400
  0
VERTEX
  8
0
  6
CONTINUOUS
 10
6.294200
 20
2.050840
  0
VERTEX
  8
0
  6
CONTINUOUS
 10
6.309600
 20
2.069320
  0
VERTEX
  8
0
  6
CONTINUOUS
 10
6.305200
 20
1.320880
  0
VERTEX
  8
0
  6
CONTINUOUS
 10
6.289800
 20
1.302400
  0
SEQEND
  8
0
  0
SOLID
  8
0
 62
    15
 10
6.305200
 20
1.320880
 11
6.309600
 21
2.069320
 12
6.323680
 22
1.336280
 13
6.328080
 23
2.084720
  0
POLYLINE
  8
0
  6
CONTINUOUS
 66
     1
 40
0.000000
 41
0.000000
  0
VERTEX
  8
0
  6
CONTINUOUS
 10
6.305200
 20
1.320880
  0
VERTEX
  8
0
  6
CONTINUOUS
 10
6.309600
 20
2.069320
  0
VERTEX
  8
0
  6
CONTINUOUS
 10
6.328080
 20
2.084720
  0
VERTEX
  8
0
  6
CONTINUOUS
 10
6.323680
 20
1.336280
  0
VERTEX
  8
0
  6
CONTINUOUS
 10
6.305200
 20
1.320880
  0
SEQEND
  8
0
  0
SOLID
  8
0
 62
    15
 10
6.323680
 20
1.336280
 11
6.328080
 21
2.084720
 12
6.344800
 22
1.347720
 13
6.349200
 23
2.096160
  0
POLYLINE
  8
0
  6
CONTINUOUS
 66
     1
 40
0.000000
 41
0.000000
  0
VERTEX
  8
0
  6
CONTINUOUS
 10
6.323680
 20
1.336280
  0
VERTEX
  8
0
  6
CONTINUOUS
 10
6.328080
 20
2.084720
  0
VERTEX
  8
0
  6
CONTINUOUS
 10
6.349200
 20
2.096160
  0
VERTEX
  8
0
  6
CONTINUOUS
 10
6.344800
 20
1.347720
  0
VERTEX
  8
0
  6
CONTINUOUS
 10
6.323680
 20
1.336280
  0
SEQEND
  8
0
  0
SOLID
  8
0
 62
    15
 10
6.344800
 20
1.347720
 11
6.349200
 21
2.096160
 12
6.368560
 22
1.355200
 13
6.372520
 23
2.103200
  0
POLYLINE
  8
0
  6
CONTINUOUS
 66
     1
 40
0.000000
 41
0.000000
  0
VERTEX
  8
0
  6
CONTINUOUS
 10
6.344800
 20
1.347720
  0
VERTEX
  8
0
  6
CONTINUOUS
 10
6.349200
 20
2.096160
  0
VERTEX
  8
0
  6
CONTINUOUS
 10
6.372520
 20
2.103200
  0
VERTEX
  8
0
  6
CONTINUOUS
 10
6.368560
 20
1.355200
  0
VERTEX
  8
0
  6
CONTINUOUS
 10
6.344800
 20
1.347720
  0
SEQEND
  8
0
  0
SOLID
  8
0
 62
    15
 10
6.368560
 20
1.355200
 11
6.372520
 21
2.103200
 12
6.393640
 22
1.357840
 13
6.398040
 23
2.105840
  0
POLYLINE
  8
0
  6
CONTINUOUS
 66
     1
 40
0.000000
 41
0.000000
  0
VERTEX
  8
0
  6
CONTINUOUS
 10
6.368560
 20
1.355200
  0
VERTEX
  8
0
  6
CONTINUOUS
 10
6.372520
 20
2.103200
  0
VERTEX
  8
0
  6
CONTINUOUS
 10
6.398040
 20
2.105840
  0
VERTEX
  8
0
  6
CONTINUOUS
 10
6.393640
 20
1.357840
  0
VERTEX
  8
0
  6
CONTINUOUS
 10
6.368560
 20
1.355200
  0
SEQEND
  8
0
  0
SOLID
  8
0
 62
    15
 10
6.393640
 20
1.357840
 11
6.398040
 21
2.105840
 12
6.418720
 22
1.355200
 13
6.423120
 23
2.103200
  0
POLYLINE
  8
0
  6
CONTINUOUS
 66
     1
 40
0.000000
 41
0.000000
  0
VERTEX
  8
0
  6
CONTINUOUS
 10
6.393640
 20
1.357840
  0
VERTEX
  8
0
  6
CONTINUOUS
 10
6.398040
 20
2.105840
  0
VERTEX
  8
0
  6
CONTINUOUS
 10
6.423120
 20
2.103200
  0
VERTEX
  8
0
  6
CONTINUOUS
 10
6.418720
 20
1.355200
  0
VERTEX
  8
0
  6
CONTINUOUS
 10
6.393640
 20
1.357840
  0
SEQEND
  8
0
  0
SOLID
  8
0
 62
    15
 10
6.418720
 20
1.355200
 11
6.423120
 21
2.103200
 12
6.442480
 22
1.347720
 13
6.446440
 23
2.096160
  0
POLYLINE
  8
0
  6
CONTINUOUS
 66
     1
 40
0.000000
 41
0.000000
  0
VERTEX
  8
0
  6
CONTINUOUS
 10
6.418720
 20
1.355200
  0
VERTEX
  8
0
  6
CONTINUOUS
 10
6.423120
 20
2.103200
  0
VERTEX
  8
0
  6
CONTINUOUS
 10
6.446440
 20
2.096160
  0
VERTEX
  8
0
  6
CONTINUOUS
 10
6.442480
 20
1.347720
  0
VERTEX
  8
0
  6
CONTINUOUS
 10
6.418720
 20
1.355200
  0
SEQEND
  8
0
  0
SOLID
  8
0
 62
    15
 10
6.442480
 20
1.347720
 11
6.446440
 21
2.096160
 12
6.463600
 22
1.336280
 13
6.467560
 23
2.084720
  0
POLYLINE
  8
0
  6
CONTINUOUS
 66
     1
 40
0.000000
 41
0.000000
  0
VERTEX
  8
0
  6
CONTINUOUS
 10
6.442480
 20
1.347720
  0
VERTEX
  8
0
  6
CONTINUOUS
 10
6.446440
 20
2.096160
  0
VERTEX
  8
0
  6
CONTINUOUS
 10
6.467560
 20
2.084720
  0
VERTEX
  8
0
  6
CONTINUOUS
 10
6.463600
 20
1.336280
  0
VERTEX
  8
0
  6
CONTINUOUS
 10
6.442480
 20
1.347720
  0
SEQEND
  8
0
  0
SOLID
  8
0
 62
    15
 10
6.463600
 20
1.336280
 11
6.467560
 21
2.084720
 12
6.482080
 22
1.320880
 13
6.486040
 23
2.069320
  0
POLYLINE
  8
0
  6
CONTINUOUS
 66
     1
 40
0.000000
 41
0.000000
  0
VERTEX
  8
0
  6
CONTINUOUS
 10
6.463600
 20
1.336280
  0
VERTEX
  8
0
  6
CONTINUOUS
 10
6.467560
 20
2.084720
  0
VERTEX
  8
0
  6
CONTINUOUS
 10
6.486040
 20
2.069320
  0
VERTEX
  8
0
  6
CONTINUOUS
 10
6.482080
 20
1.320880
  0
VERTEX
  8
0
  6
CONTINUOUS
 10
6.463600
 20
1.336280
  0
SEQEND
  8
0
  0
SOLID
  8
0
 62
    15
 10
6.482080
 20
1.320880
 11
6.486040
 21
2.069320
 12
6.497480
 22
1.302400
 13
6.501440
 23
2.050840
  0
POLYLINE
  8
0
  6
CONTINUOUS
 66
     1
 40
0.000000
 41
0.000000
  0
VERTEX
  8
0
  6
CONTINUOUS
 10
6.482080
 20
1.320880
  0
VERTEX
  8
0
  6
CONTINUOUS
 10
6.486040
 20
2.069320
  0
VERTEX
  8
0
  6
CONTINUOUS
 10
6.501440
 20
2.050840
  0
VERTEX
  8
0
  6
CONTINUOUS
 10
6.497480
 20
1.302400
  0
VERTEX
  8
0
  6
CONTINUOUS
 10
6.482080
 20
1.320880
  0
SEQEND
  8
0
  0
SOLID
  8
0
 62
    15
 10
6.497480
 20
1.302400
 11
6.501440
 21
2.050840
 12
6.508920
 22
1.281280
 13
6.512880
 23
2.029720
  0
POLYLINE
  8
0
  6
CONTINUOUS
 66
     1
 40
0.000000
 41
0.000000
  0
VERTEX
  8
0
  6
CONTINUOUS
 10
6.497480
 20
1.302400
  0
VERTEX
  8
0
  6
CONTINUOUS
 10
6.501440
 20
2.050840
  0
VERTEX
  8
0
  6
CONTINUOUS
 10
6.512880
 20
2.029720
  0
VERTEX
  8
0
  6
CONTINUOUS
 10
6.508920
 20
1.281280
  0
VERTEX
  8
0
  6
CONTINUOUS
 10
6.497480
 20
1.302400
  0
SEQEND
  8
0
  0
SOLID
  8
0
 62
    15
 10
6.518600
 20
1.232880
 11
6.523000
 21
1.980880
 12
6.606160
 22
1.399200
 13
6.610560
 23
2.147200
  0
POLYLINE
  8
0
  6
CONTINUOUS
 66
     1
 40
0.000000
 41
0.000000
  0
VERTEX
  8
0
  6
CONTINUOUS
 10
6.518600
 20
1.232880
  0
VERTEX
  8
0
  6
CONTINUOUS
 10
6.523000
 20
1.980880
  0
VERTEX
  8
0
  6
CONTINUOUS
 10
6.610560
 20
2.147200
  0
VERTEX
  8
0
  6
CONTINUOUS
 10
6.606160
 20
1.399200
  0
VERTEX
  8
0
  6
CONTINUOUS
 10
6.518600
 20
1.232880
  0
SEQEND
  8
0
  0
SOLID
  8
0
 62
    15
 10
6.515960
 20
1.257960
 11
6.520360
 21
2.005960
 12
6.518600
 22
1.232880
 13
6.523000
 23
1.980880
  0
POLYLINE
  8
0
  6
CONTINUOUS
 66
     1
 40
0.000000
 41
0.000000
  0
VERTEX
  8
0
  6
CONTINUOUS
 10
6.515960
 20
1.257960
  0
VERTEX
  8
0
  6
CONTINUOUS
 10
6.520360
 20
2.005960
  0
VERTEX
  8
0
  6
CONTINUOUS
 10
6.523000
 20
1.980880
  0
VERTEX
  8
0
  6
CONTINUOUS
 10
6.518600
 20
1.232880
  0
VERTEX
  8
0
  6
CONTINUOUS
 10
6.515960
 20
1.257960
  0
SEQEND
  8
0
  0
SOLID
  8
0
 62
    15
 10
6.508920
 20
1.281280
 11
6.512880
 21
2.029720
 12
6.515960
 22
1.257960
 13
6.520360
 23
2.005960
  0
POLYLINE
  8
0
  6
CONTINUOUS
 66
     1
 40
0.000000
 41
0.000000
  0
VERTEX
  8
0
  6
CONTINUOUS
 10
6.508920
 20
1.281280
  0
VERTEX
  8
0
  6
CONTINUOUS
 10
6.512880
 20
2.029720
  0
VERTEX
  8
0
  6
CONTINUOUS
 10
6.520360
 20
2.005960
  0
VERTEX
  8
0
  6
CONTINUOUS
 10
6.515960
 20
1.257960
  0
VERTEX
  8
0
  6
CONTINUOUS
 10
6.508920
 20
1.281280
  0
SEQEND
  8
0
  0
SOLID
  8
0
 62
    15
 10
6.853880
 20
2.147200
 11
6.855640
 21
2.147200
 12
6.849920
 22
1.399200
 13
6.851240
 23
1.399200
  0
POLYLINE
  8
0
  6
CONTINUOUS
 66
     1
 40
0.000000
 41
0.000000
  0
VERTEX
  8
0
  6
CONTINUOUS
 10
6.853880
 20
2.147200
  0
VERTEX
  8
0
  6
CONTINUOUS
 10
6.855640
 20
2.147200
  0
VERTEX
  8
0
  6
CONTINUOUS
 10
6.851240
 20
1.399200
  0
VERTEX
  8
0
  6
CONTINUOUS
 10
6.849920
 20
1.399200
  0
VERTEX
  8
0
  6
CONTINUOUS
 10
6.853880
 20
2.147200
  0
SEQEND
  8
0
  0
SOLID
  8
0
 62
    15
 10
6.849920
 20
1.399640
 11
6.853880
 21
2.147640
 12
6.849920
 22
1.009800
 13
6.853880
 23
1.757800
  0
POLYLINE
  8
0
  6
CONTINUOUS
 66
     1
 40
0.000000
 41
0.000000
  0
VERTEX
  8
0
  6
CONTINUOUS
 10
6.849920
 20
1.399640
  0
VERTEX
  8
0
  6
CONTINUOUS
 10
6.853880
 20
2.147640
  0
VERTEX
  8
0
  6
CONTINUOUS
 10
6.853880
 20
1.757800
  0
VERTEX
  8
0
  6
CONTINUOUS
 10
6.849920
 20
1.009800
  0
VERTEX
  8
0
  6
CONTINUOUS
 10
6.849920
 20
1.399640
  0
SEQEND
  8
0
  0
SOLID
  8
0
 62
    15
 10
6.606160
 20
1.399200
 11
6.610560
 21
2.147200
 12
6.849920
 22
1.399200
 13
6.853880
 23
2.147200
  0
POLYLINE
  8
0
  6
CONTINUOUS
 66
     1
 40
0.000000
 41
0.000000
  0
VERTEX
  8
0
  6
CONTINUOUS
 10
6.606160
 20
1.399200
  0
VERTEX
  8
0
  6
CONTINUOUS
 10
6.610560
 20
2.147200
  0
VERTEX
  8
0
  6
CONTINUOUS
 10
6.853880
 20
2.147200
  0
VERTEX
  8
0
  6
CONTINUOUS
 10
6.849920
 20
1.399200
  0
VERTEX
  8
0
  6
CONTINUOUS
 10
6.606160
 20
1.399200
  0
SEQEND
  8
0
  0
SOLID
  8
0
 62
    15
 10
3.644520
 20
1.397440
 11
3.648480
 21
2.145880
 12
3.895760
 22
1.397440
 13
3.899720
 23
2.145880
  0
POLYLINE
  8
0
  6
CONTINUOUS
 66
     1
 40
0.000000
 41
0.000000
  0
VERTEX
  8
0
  6
CONTINUOUS
 10
3.644520
 20
1.397440
  0
VERTEX
  8
0
  6
CONTINUOUS
 10
3.648480
 20
2.145880
  0
VERTEX
  8
0
  6
CONTINUOUS
 10
3.899720
 20
2.145880
  0
VERTEX
  8
0
  6
CONTINUOUS
 10
3.895760
 20
1.397440
  0
VERTEX
  8
0
  6
CONTINUOUS
 10
3.644520
 20
1.397440
  0
SEQEND
  8
0
  0
SOLID
  8
0
 62
    15
 10
3.895760
 20
1.397440
 11
3.899720
 21
2.145880
 12
3.975400
 22
1.232880
 13
3.979360
 23
1.981320
  0
POLYLINE
  8
0
  6
CONTINUOUS
 66
     1
 40
0.000000
 41
0.000000
  0
VERTEX
  8
0
  6
CONTINUOUS
 10
3.895760
 20
1.397440
  0
VERTEX
  8
0
  6
CONTINUOUS
 10
3.899720
 20
2.145880
  0
VERTEX
  8
0
  6
CONTINUOUS
 10
3.979360
 20
1.981320
  0
VERTEX
  8
0
  6
CONTINUOUS
 10
3.975400
 20
1.232880
  0
VERTEX
  8
0
  6
CONTINUOUS
 10
3.895760
 20
1.397440
  0
SEQEND
  8
0
  0
SOLID
  8
0
 62
    15
 10
3.975400
 20
1.232880
 11
3.979360
 21
1.981320
 12
3.977600
 22
1.257960
 13
3.982000
 23
2.006400
  0
POLYLINE
  8
0
  6
CONTINUOUS
 66
     1
 40
0.000000
 41
0.000000
  0
VERTEX
  8
0
  6
CONTINUOUS
 10
3.975400
 20
1.232880
  0
VERTEX
  8
0
  6
CONTINUOUS
 10
3.979360
 20
1.981320
  0
VERTEX
  8
0
  6
CONTINUOUS
 10
3.982000
 20
2.006400
  0
VERTEX
  8
0
  6
CONTINUOUS
 10
3.977600
 20
1.257960
  0
VERTEX
  8
0
  6
CONTINUOUS
 10
3.975400
 20
1.232880
  0
SEQEND
  8
0
  0
SOLID
  8
0
 62
    15
 10
3.977600
 20
1.257960
 11
3.982000
 21
2.006400
 12
3.985080
 22
1.281720
 13
3.989040
 23
2.029720
  0
POLYLINE
  8
0
  6
CONTINUOUS
 66
     1
 40
0.000000
 41
0.000000
  0
VERTEX
  8
0
  6
CONTINUOUS
 10
3.977600
 20
1.257960
  0
VERTEX
  8
0
  6
CONTINUOUS
 10
3.982000
 20
2.006400
  0
VERTEX
  8
0
  6
CONTINUOUS
 10
3.989040
 20
2.029720
  0
VERTEX
  8
0
  6
CONTINUOUS
 10
3.985080
 20
1.281720
  0
VERTEX
  8
0
  6
CONTINUOUS
 10
3.977600
 20
1.257960
  0
SEQEND
  8
0
  0
SOLID
  8
0
 62
    15
 10
3.985080
 20
1.281720
 11
3.989040
 21
2.029720
 12
3.996520
 22
1.302840
 13
4.000920
 23
2.051280
  0
POLYLINE
  8
0
  6
CONTINUOUS
 66
     1
 40
0.000000
 41
0.000000
  0
VERTEX
  8
0
  6
CONTINUOUS
 10
3.985080
 20
1.281720
  0
VERTEX
  8
0
  6
CONTINUOUS
 10
3.989040
 20
2.029720
  0
VERTEX
  8
0
  6
CONTINUOUS
 10
4.000920
 20
2.051280
  0
VERTEX
  8
0
  6
CONTINUOUS
 10
3.996520
 20
1.302840
  0
VERTEX
  8
0
  6
CONTINUOUS
 10
3.985080
 20
1.281720
  0
SEQEND
  8
0
  0
SOLID
  8
0
 62
    15
 10
3.996520
 20
1.302840
 11
4.000920
 21
2.051280
 12
4.011920
 22
1.321320
 13
4.015880
 23
2.069760
  0
POLYLINE
  8
0
  6
CONTINUOUS
 66
     1
 40
0.000000
 41
0.000000
  0
VERTEX
  8
0
  6
CONTINUOUS
 10
3.996520
 20
1.302840
  0
VERTEX
  8
0
  6
CONTINUOUS
 10
4.000920
 20
2.051280
  0
VERTEX
  8
0
  6
CONTINUOUS
 10
4.015880
 20
2.069760
  0
VERTEX
  8
0
  6
CONTINUOUS
 10
4.011920
 20
1.321320
  0
VERTEX
  8
0
  6
CONTINUOUS
 10
3.996520
 20
1.302840
  0
SEQEND
  8
0
  0
SOLID
  8
0
 62
    15
 10
4.011920
 20
1.321320
 11
4.015880
 21
2.069760
 12
4.030400
 22
1.336720
 13
4.034360
 23
2.084720
  0
POLYLINE
  8
0
  6
CONTINUOUS
 66
     1
 40
0.000000
 41
0.000000
  0
VERTEX
  8
0
  6
CONTINUOUS
 10
4.011920
 20
1.321320
  0
VERTEX
  8
0
  6
CONTINUOUS
 10
4.015880
 20
2.069760
  0
VERTEX
  8
0
  6
CONTINUOUS
 10
4.034360
 20
2.084720
  0
VERTEX
  8
0
  6
CONTINUOUS
 10
4.030400
 20
1.336720
  0
VERTEX
  8
0
  6
CONTINUOUS
 10
4.011920
 20
1.321320
  0
SEQEND
  8
0
  0
SOLID
  8
0
 62
    15
 10
4.030400
 20
1.336720
 11
4.034360
 21
2.084720
 12
4.051520
 22
1.348160
 13
4.055920
 23
2.096600
  0
POLYLINE
  8
0
  6
CONTINUOUS
 66
     1
 40
0.000000
 41
0.000000
  0
VERTEX
  8
0
  6
CONTINUOUS
 10
4.030400
 20
1.336720
  0
VERTEX
  8
0
  6
CONTINUOUS
 10
4.034360
 20
2.084720
  0
VERTEX
  8
0
  6
CONTINUOUS
 10
4.055920
 20
2.096600
  0
VERTEX
  8
0
  6
CONTINUOUS
 10
4.051520
 20
1.348160
  0
VERTEX
  8
0
  6
CONTINUOUS
 10
4.030400
 20
1.336720
  0
SEQEND
  8
0
  0
SOLID
  8
0
 62
    15
 10
4.051520
 20
1.348160
 11
4.055920
 21
2.096600
 12
4.074840
 22
1.355200
 13
4.079240
 23
2.103640
  0
POLYLINE
  8
0
  6
CONTINUOUS
 66
     1
 40
0.000000
 41
0.000000
  0
VERTEX
  8
0
  6
CONTINUOUS
 10
4.051520
 20
1.348160
  0
VERTEX
  8
0
  6
CONTINUOUS
 10
4.055920
 20
2.096600
  0
VERTEX
  8
0
  6
CONTINUOUS
 10
4.079240
 20
2.103640
  0
VERTEX
  8
0
  6
CONTINUOUS
 10
4.074840
 20
1.355200
  0
VERTEX
  8
0
  6
CONTINUOUS
 10
4.051520
 20
1.348160
  0
SEQEND
  8
0
  0
SOLID
  8
0
 62
    15
 10
4.074840
 20
1.355200
 11
4.079240
 21
2.103640
 12
4.100360
 22
1.357840
 13
4.104320
 23
2.106280
  0
POLYLINE
  8
0
  6
CONTINUOUS
 66
     1
 40
0.000000
 41
0.000000
  0
VERTEX
  8
0
  6
CONTINUOUS
 10
4.074840
 20
1.355200
  0
VERTEX
  8
0
  6
CONTINUOUS
 10
4.079240
 20
2.103640
  0
VERTEX
  8
0
  6
CONTINUOUS
 10
4.104320
 20
2.106280
  0
VERTEX
  8
0
  6
CONTINUOUS
 10
4.100360
 20
1.357840
  0
VERTEX
  8
0
  6
CONTINUOUS
 10
4.074840
 20
1.355200
  0
SEQEND
  8
0
  0
SOLID
  8
0
 62
    15
 10
4.100360
 20
1.357840
 11
4.104320
 21
2.106280
 12
4.125440
 22
1.355200
 13
4.129400
 23
2.103640
  0
POLYLINE
  8
0
  6
CONTINUOUS
 66
     1
 40
0.000000
 41
0.000000
  0
VERTEX
  8
0
  6
CONTINUOUS
 10
4.100360
 20
1.357840
  0
VERTEX
  8
0
  6
CONTINUOUS
 10
4.104320
 20
2.106280
  0
VERTEX
  8
0
  6
CONTINUOUS
 10
4.129400
 20
2.103640
  0
VERTEX
  8
0
  6
CONTINUOUS
 10
4.125440
 20
1.355200
  0
VERTEX
  8
0
  6
CONTINUOUS
 10
4.100360
 20
1.357840
  0
SEQEND
  8
0
  0
SOLID
  8
0
 62
    15
 10
4.125440
 20
1.355200
 11
4.129400
 21
2.103640
 12
4.148760
 22
1.348160
 13
4.153160
 23
2.096600
  0
POLYLINE
  8
0
  6
CONTINUOUS
 66
     1
 40
0.000000
 41
0.000000
  0
VERTEX
  8
0
  6
CONTINUOUS
 10
4.125440
 20
1.355200
  0
VERTEX
  8
0
  6
CONTINUOUS
 10
4.129400
 20
2.103640
  0
VERTEX
  8
0
  6
CONTINUOUS
 10
4.153160
 20
2.096600
  0
VERTEX
  8
0
  6
CONTINUOUS
 10
4.148760
 20
1.348160
  0
VERTEX
  8
0
  6
CONTINUOUS
 10
4.125440
 20
1.355200
  0
SEQEND
  8
0
  0
SOLID
  8
0
 62
    15
 10
4.148760
 20
1.348160
 11
4.153160
 21
2.096600
 12
4.170320
 22
1.336720
 13
4.174280
 23
2.084720
  0
POLYLINE
  8
0
  6
CONTINUOUS
 66
     1
 40
0.000000
 41
0.000000
  0
VERTEX
  8
0
  6
CONTINUOUS
 10
4.148760
 20
1.348160
  0
VERTEX
  8
0
  6
CONTINUOUS
 10
4.153160
 20
2.096600
  0
VERTEX
  8
0
  6
CONTINUOUS
 10
4.174280
 20
2.084720
  0
VERTEX
  8
0
  6
CONTINUOUS
 10
4.170320
 20
1.336720
  0
VERTEX
  8
0
  6
CONTINUOUS
 10
4.148760
 20
1.348160
  0
SEQEND
  8
0
  0
SOLID
  8
0
 62
    15
 10
4.170320
 20
1.336720
 11
4.174280
 21
2.084720
 12
4.188800
 22
1.321320
 13
4.192760
 23
2.069760
  0
POLYLINE
  8
0
  6
CONTINUOUS
 66
     1
 40
0.000000
 41
0.000000
  0
VERTEX
  8
0
  6
CONTINUOUS
 10
4.170320
 20
1.336720
  0
VERTEX
  8
0
  6
CONTINUOUS
 10
4.174280
 20
2.084720
  0
VERTEX
  8
0
  6
CONTINUOUS
 10
4.192760
 20
2.069760
  0
VERTEX
  8
0
  6
CONTINUOUS
 10
4.188800
 20
1.321320
  0
VERTEX
  8
0
  6
CONTINUOUS
 10
4.170320
 20
1.336720
  0
SEQEND
  8
0
  0
SOLID
  8
0
 62
    15
 10
4.188800
 20
1.321320
 11
4.192760
 21
2.069760
 12
4.203760
 22
1.302840
 13
4.208160
 23
2.051280
  0
POLYLINE
  8
0
  6
CONTINUOUS
 66
     1
 40
0.000000
 41
0.000000
  0
VERTEX
  8
0
  6
CONTINUOUS
 10
4.188800
 20
1.321320
  0
VERTEX
  8
0
  6
CONTINUOUS
 10
4.192760
 20
2.069760
  0
VERTEX
  8
0
  6
CONTINUOUS
 10
4.208160
 20
2.051280
  0
VERTEX
  8
0
  6
CONTINUOUS
 10
4.203760
 20
1.302840
  0
VERTEX
  8
0
  6
CONTINUOUS
 10
4.188800
 20
1.321320
  0
SEQEND
  8
0
  0
SOLID
  8
0
 62
    15
 10
4.203760
 20
1.302840
 11
4.208160
 21
2.051280
 12
4.215200
 22
1.281720
 13
4.219600
 23
2.029720
  0
POLYLINE
  8
0
  6
CONTINUOUS
 66
     1
 40
0.000000
 41
0.000000
  0
VERTEX
  8
0
  6
CONTINUOUS
 10
4.203760
 20
1.302840
  0
VERTEX
  8
0
  6
CONTINUOUS
 10
4.208160
 20
2.051280
  0
VERTEX
  8
0
  6
CONTINUOUS
 10
4.219600
 20
2.029720
  0
VERTEX
  8
0
  6
CONTINUOUS
 10
4.215200
 20
1.281720
  0
VERTEX
  8
0
  6
CONTINUOUS
 10
4.203760
 20
1.302840
  0
SEQEND
  8
0
  0
SOLID
  8
0
 62
    15
 10
4.215200
 20
1.281720
 11
4.219600
 21
2.029720
 12
4.222680
 22
1.257960
 13
4.226640
 23
2.006400
  0
POLYLINE
  8
0
  6
CONTINUOUS
 66
     1
 40
0.000000
 41
0.000000
  0
VERTEX
  8
0
  6
CONTINUOUS
 10
4.215200
 20
1.281720
  0
VERTEX
  8
0
  6
CONTINUOUS
 10
4.219600
 20
2.029720
  0
VERTEX
  8
0
  6
CONTINUOUS
 10
4.226640
 20
2.006400
  0
VERTEX
  8
0
  6
CONTINUOUS
 10
4.222680
 20
1.257960
  0
VERTEX
  8
0
  6
CONTINUOUS
 10
4.215200
 20
1.281720
  0
SEQEND
  8
0
  0
SOLID
  8
0
 62
    15
 10
4.222680
 20
1.257960
 11
4.226640
 21
2.006400
 12
4.225320
 22
1.232880
 13
4.229280
 23
1.981320
  0
POLYLINE
  8
0
  6
CONTINUOUS
 66
     1
 40
0.000000
 41
0.000000
  0
VERTEX
  8
0
  6
CONTINUOUS
 10
4.222680
 20
1.257960
  0
VERTEX
  8
0
  6
CONTINUOUS
 10
4.226640
 20
2.006400
  0
VERTEX
  8
0
  6
CONTINUOUS
 10
4.229280
 20
1.981320
  0
VERTEX
  8
0
  6
CONTINUOUS
 10
4.225320
 20
1.232880
  0
VERTEX
  8
0
  6
CONTINUOUS
 10
4.222680
 20
1.257960
  0
SEQEND
  8
0
  0
SOLID
  8
0
 62
    15
 10
4.225320
 20
1.232880
 11
4.229280
 21
1.981320
 12
4.231480
 22
1.232880
 13
4.235880
 23
1.981320
  0
POLYLINE
  8
0
  6
CONTINUOUS
 66
     1
 40
0.000000
 41
0.000000
  0
VERTEX
  8
0
  6
CONTINUOUS
 10
4.225320
 20
1.232880
  0
VERTEX
  8
0
  6
CONTINUOUS
 10
4.229280
 20
1.981320
  0
VERTEX
  8
0
  6
CONTINUOUS
 10
4.235880
 20
1.981320
  0
VERTEX
  8
0
  6
CONTINUOUS
 10
4.231480
 20
1.232880
  0
VERTEX
  8
0
  6
CONTINUOUS
 10
4.225320
 20
1.232880
  0
SEQEND
  8
0
  0
SOLID
  8
0
 62
    15
 10
4.231480
 20
1.232880
 11
4.235880
 21
1.981320
 12
4.234120
 22
1.257960
 13
4.238520
 23
2.006400
  0
POLYLINE
  8
0
  6
CONTINUOUS
 66
     1
 40
0.000000
 41
0.000000
  0
VERTEX
  8
0
  6
CONTINUOUS
 10
4.231480
 20
1.232880
  0
VERTEX
  8
0
  6
CONTINUOUS
 10
4.235880
 20
1.981320
  0
VERTEX
  8
0
  6
CONTINUOUS
 10
4.238520
 20
2.006400
  0
VERTEX
  8
0
  6
CONTINUOUS
 10
4.234120
 20
1.257960
  0
VERTEX
  8
0
  6
CONTINUOUS
 10
4.231480
 20
1.232880
  0
SEQEND
  8
0
  0
SOLID
  8
0
 62
    15
 10
4.234120
 20
1.257960
 11
4.238520
 21
2.006400
 12
4.241600
 22
1.281720
 13
4.245560
 23
2.029720
  0
POLYLINE
  8
0
  6
CONTINUOUS
 66
     1
 40
0.000000
 41
0.000000
  0
VERTEX
  8
0
  6
CONTINUOUS
 10
4.234120
 20
1.257960
  0
VERTEX
  8
0
  6
CONTINUOUS
 10
4.238520
 20
2.006400
  0
VERTEX
  8
0
  6
CONTINUOUS
 10
4.245560
 20
2.029720
  0
VERTEX
  8
0
  6
CONTINUOUS
 10
4.241600
 20
1.281720
  0
VERTEX
  8
0
  6
CONTINUOUS
 10
4.234120
 20
1.257960
  0
SEQEND
  8
0
  0
SOLID
  8
0
 62
    15
 10
4.241600
 20
1.281720
 11
4.245560
 21
2.029720
 12
4.253040
 22
1.302840
 13
4.257000
 23
2.051280
  0
POLYLINE
  8
0
  6
CONTINUOUS
 66
     1
 40
0.000000
 41
0.000000
  0
VERTEX
  8
0
  6
CONTINUOUS
 10
4.241600
 20
1.281720
  0
VERTEX
  8
0
  6
CONTINUOUS
 10
4.245560
 20
2.029720
  0
VERTEX
  8
0
  6
CONTINUOUS
 10
4.257000
 20
2.051280
  0
VERTEX
  8
0
  6
CONTINUOUS
 10
4.253040
 20
1.302840
  0
VERTEX
  8
0
  6
CONTINUOUS
 10
4.241600
 20
1.281720
  0
SEQEND
  8
0
  0
SOLID
  8
0
 62
    15
 10
4.253040
 20
1.302840
 11
4.257000
 21
2.051280
 12
4.268440
 22
1.321320
 13
4.272400
 23
2.069760
  0
POLYLINE
  8
0
  6
CONTINUOUS
 66
     1
 40
0.000000
 41
0.000000
  0
VERTEX
  8
0
  6
CONTINUOUS
 10
4.253040
 20
1.302840
  0
VERTEX
  8
0
  6
CONTINUOUS
 10
4.257000
 20
2.051280
  0
VERTEX
  8
0
  6
CONTINUOUS
 10
4.272400
 20
2.069760
  0
VERTEX
  8
0
  6
CONTINUOUS
 10
4.268440
 20
1.321320
  0
VERTEX
  8
0
  6
CONTINUOUS
 10
4.253040
 20
1.302840
  0
SEQEND
  8
0
  0
SOLID
  8
0
 62
    15
 10
4.268440
 20
1.321320
 11
4.272400
 21
2.069760
 12
4.286920
 22
1.336720
 13
4.290880
 23
2.084720
  0
POLYLINE
  8
0
  6
CONTINUOUS
 66
     1
 40
0.000000
 41
0.000000
  0
VERTEX
  8
0
  6
CONTINUOUS
 10
4.268440
 20
1.321320
  0
VERTEX
  8
0
  6
CONTINUOUS
 10
4.272400
 20
2.069760
  0
VERTEX
  8
0
  6
CONTINUOUS
 10
4.290880
 20
2.084720
  0
VERTEX
  8
0
  6
CONTINUOUS
 10
4.286920
 20
1.336720
  0
VERTEX
  8
0
  6
CONTINUOUS
 10
4.268440
 20
1.321320
  0
SEQEND
  8
0
  0
SOLID
  8
0
 62
    15
 10
4.286920
 20
1.336720
 11
4.290880
 21
2.084720
 12
4.308040
 22
1.348160
 13
4.312000
 23
2.096600
  0
POLYLINE
  8
0
  6
CONTINUOUS
 66
     1
 40
0.000000
 41
0.000000
  0
VERTEX
  8
0
  6
CONTINUOUS
 10
4.286920
 20
1.336720
  0
VERTEX
  8
0
  6
CONTINUOUS
 10
4.290880
 20
2.084720
  0
VERTEX
  8
0
  6
CONTINUOUS
 10
4.312000
 20
2.096600
  0
VERTEX
  8
0
  6
CONTINUOUS
 10
4.308040
 20
1.348160
  0
VERTEX
  8
0
  6
CONTINUOUS
 10
4.286920
 20
1.336720
  0
SEQEND
  8
0
  0
SOLID
  8
0
 62
    15
 10
4.308040
 20
1.348160
 11
4.312000
 21
2.096600
 12
4.331360
 22
1.355200
 13
4.335760
 23
2.103640
  0
POLYLINE
  8
0
  6
CONTINUOUS
 66
     1
 40
0.000000
 41
0.000000
  0
VERTEX
  8
0
  6
CONTINUOUS
 10
4.308040
 20
1.348160
  0
VERTEX
  8
0
  6
CONTINUOUS
 10
4.312000
 20
2.096600
  0
VERTEX
  8
0
  6
CONTINUOUS
 10
4.335760
 20
2.103640
  0
VERTEX
  8
0
  6
CONTINUOUS
 10
4.331360
 20
1.355200
  0
VERTEX
  8
0
  6
CONTINUOUS
 10
4.308040
 20
1.348160
  0
SEQEND
  8
0
  0
SOLID
  8
0
 62
    15
 10
4.331360
 20
1.355200
 11
4.335760
 21
2.103640
 12
4.356880
 22
1.357840
 13
4.360840
 23
2.106280
  0
POLYLINE
  8
0
  6
CONTINUOUS
 66
     1
 40
0.000000
 41
0.000000
  0
VERTEX
  8
0
  6
CONTINUOUS
 10
4.331360
 20
1.355200
  0
VERTEX
  8
0
  6
CONTINUOUS
 10
4.335760
 20
2.103640
  0
VERTEX
  8
0
  6
CONTINUOUS
 10
4.360840
 20
2.106280
  0
VERTEX
  8
0
  6
CONTINUOUS
 10
4.356880
 20
1.357840
  0
VERTEX
  8
0
  6
CONTINUOUS
 10
4.331360
 20
1.355200
  0
SEQEND
  8
0
  0
SOLID
  8
0
 62
    15
 10
4.356880
 20
1.357840
 11
4.360840
 21
2.106280
 12
4.381960
 22
1.355200
 13
4.385920
 23
2.103640
  0
POLYLINE
  8
0
  6
CONTINUOUS
 66
     1
 40
0.000000
 41
0.000000
  0
VERTEX
  8
0
  6
CONTINUOUS
 10
4.356880
 20
1.357840
  0
VERTEX
  8
0
  6
CONTINUOUS
 10
4.360840
 20
2.106280
  0
VERTEX
  8
0
  6
CONTINUOUS
 10
4.385920
 20
2.103640
  0
VERTEX
  8
0
  6
CONTINUOUS
 10
4.381960
 20
1.355200
  0
VERTEX
  8
0
  6
CONTINUOUS
 10
4.356880
 20
1.357840
  0
SEQEND
  8
0
  0
SOLID
  8
0
 62
    15
 10
4.381960
 20
1.355200
 11
4.385920
 21
2.103640
 12
4.405280
 22
1.348160
 13
4.409680
 23
2.096600
  0
POLYLINE
  8
0
  6
CONTINUOUS
 66
     1
 40
0.000000
 41
0.000000
  0
VERTEX
  8
0
  6
CONTINUOUS
 10
4.381960
 20
1.355200
  0
VERTEX
  8
0
  6
CONTINUOUS
 10
4.385920
 20
2.103640
  0
VERTEX
  8
0
  6
CONTINUOUS
 10
4.409680
 20
2.096600
  0
VERTEX
  8
0
  6
CONTINUOUS
 10
4.405280
 20
1.348160
  0
VERTEX
  8
0
  6
CONTINUOUS
 10
4.381960
 20
1.355200
  0
SEQEND
  8
0
  0
SOLID
  8
0
 62
    15
 10
4.405280
 20
1.348160
 11
4.409680
 21
2.096600
 12
4.426400
 22
1.336720
 13
4.430800
 23
2.084720
  0
POLYLINE
  8
0
  6
CONTINUOUS
 66
     1
 40
0.000000
 41
0.000000
  0
VERTEX
  8
0
  6
CONTINUOUS
 10
4.405280
 20
1.348160
  0
VERTEX
  8
0
  6
CONTINUOUS
 10
4.409680
 20
2.096600
  0
VERTEX
  8
0
  6
CONTINUOUS
 10
4.430800
 20
2.084720
  0
VERTEX
  8
0
  6
CONTINUOUS
 10
4.426400
 20
1.336720
  0
VERTEX
  8
0
  6
CONTINUOUS
 10
4.405280
 20
1.348160
  0
SEQEND
  8
0
  0
SOLID
  8
0
 62
    15
 10
4.426400
 20
1.336720
 11
4.430800
 21
2.084720
 12
4.444880
 22
1.321320
 13
4.449280
 23
2.069760
  0
POLYLINE
  8
0
  6
CONTINUOUS
 66
     1
 40
0.000000
 41
0.000000
  0
VERTEX
  8
0
  6
CONTINUOUS
 10
4.426400
 20
1.336720
  0
VERTEX
  8
0
  6
CONTINUOUS
 10
4.430800
 20
2.084720
  0
VERTEX
  8
0
  6
CONTINUOUS
 10
4.449280
 20
2.069760
  0
VERTEX
  8
0
  6
CONTINUOUS
 10
4.444880
 20
1.321320
  0
VERTEX
  8
0
  6
CONTINUOUS
 10
4.426400
 20
1.336720
  0
SEQEND
  8
0
  0
SOLID
  8
0
 62
    15
 10
4.444880
 20
1.321320
 11
4.449280
 21
2.069760
 12
4.460280
 22
1.302840
 13
4.464680
 23
2.051280
  0
POLYLINE
  8
0
  6
CONTINUOUS
 66
     1
 40
0.000000
 41
0.000000
  0
VERTEX
  8
0
  6
CONTINUOUS
 10
4.444880
 20
1.321320
  0
VERTEX
  8
0
  6
CONTINUOUS
 10
4.449280
 20
2.069760
  0
VERTEX
  8
0
  6
CONTINUOUS
 10
4.464680
 20
2.051280
  0
VERTEX
  8
0
  6
CONTINUOUS
 10
4.460280
 20
1.302840
  0
VERTEX
  8
0
  6
CONTINUOUS
 10
4.444880
 20
1.321320
  0
SEQEND
  8
0
  0
SOLID
  8
0
 62
    15
 10
4.460280
 20
1.302840
 11
4.464680
 21
2.051280
 12
4.471720
 22
1.281720
 13
4.476120
 23
2.029720
  0
POLYLINE
  8
0
  6
CONTINUOUS
 66
     1
 40
0.000000
 41
0.000000
  0
VERTEX
  8
0
  6
CONTINUOUS
 10
4.460280
 20
1.302840
  0
VERTEX
  8
0
  6
CONTINUOUS
 10
4.464680
 20
2.051280
  0
VERTEX
  8
0
  6
CONTINUOUS
 10
4.476120
 20
2.029720
  0
VERTEX
  8
0
  6
CONTINUOUS
 10
4.471720
 20
1.281720
  0
VERTEX
  8
0
  6
CONTINUOUS
 10
4.460280
 20
1.302840
  0
SEQEND
  8
0
  0
SOLID
  8
0
 62
    15
 10
4.471720
 20
1.281720
 11
4.476120
 21
2.029720
 12
4.479200
 22
1.257960
 13
4.483160
 23
2.006400
  0
POLYLINE
  8
0
  6
CONTINUOUS
 66
     1
 40
0.000000
 41
0.000000
  0
VERTEX
  8
0
  6
CONTINUOUS
 10
4.471720
 20
1.281720
  0
VERTEX
  8
0
  6
CONTINUOUS
 10
4.476120
 20
2.029720
  0
VERTEX
  8
0
  6
CONTINUOUS
 10
4.483160
 20
2.006400
  0
VERTEX
  8
0
  6
CONTINUOUS
 10
4.479200
 20
1.257960
  0
VERTEX
  8
0
  6
CONTINUOUS
 10
4.471720
 20
1.281720
  0
SEQEND
  8
0
  0
SOLID
  8
0
 62
    15
 10
4.479200
 20
1.257960
 11
4.483160
 21
2.006400
 12
4.481840
 22
1.232880
 13
4.485800
 23
1.981320
  0
POLYLINE
  8
0
  6
CONTINUOUS
 66
     1
 40
0.000000
 41
0.000000
  0
VERTEX
  8
0
  6
CONTINUOUS
 10
4.479200
 20
1.257960
  0
VERTEX
  8
0
  6
CONTINUOUS
 10
4.483160
 20
2.006400
  0
VERTEX
  8
0
  6
CONTINUOUS
 10
4.485800
 20
1.981320
  0
VERTEX
  8
0
  6
CONTINUOUS
 10
4.481840
 20
1.232880
  0
VERTEX
  8
0
  6
CONTINUOUS
 10
4.479200
 20
1.257960
  0
SEQEND
  8
0
  0
SOLID
  8
0
 62
    15
 10
4.493720
 20
1.258840
 11
4.497680
 21
2.006840
 12
4.500760
 22
1.282160
 13
4.505160
 23
2.030600
  0
POLYLINE
  8
0
  6
CONTINUOUS
 66
     1
 40
0.000000
 41
0.000000
  0
VERTEX
  8
0
  6
CONTINUOUS
 10
4.493720
 20
1.258840
  0
VERTEX
  8
0
  6
CONTINUOUS
 10
4.497680
 20
2.006840
  0
VERTEX
  8
0
  6
CONTINUOUS
 10
4.505160
 20
2.030600
  0
VERTEX
  8
0
  6
CONTINUOUS
 10
4.500760
 20
1.282160
  0
VERTEX
  8
0
  6
CONTINUOUS
 10
4.493720
 20
1.258840
  0
SEQEND
  8
0
  0
POLYLINE
  8
0
  6
CONTINUOUS
 66
     1
 40
0.000000
 41
0.000000
  0
VERTEX
  8
0
  6
CONTINUOUS
 10
4.491080
 20
1.233320
  0
VERTEX
  8
0
  6
CONTINUOUS
 10
4.493720
 20
1.258840
  0
VERTEX
  8
0
  6
CONTINUOUS
 10
4.500760
 20
1.282160
  0
VERTEX
  8
0
  6
CONTINUOUS
 10
4.512200
 20
1.303280
  0
VERTEX
  8
0
  6
CONTINUOUS
 10
4.527600
 20
1.321760
  0
VERTEX
  8
0
  6
CONTINUOUS
 10
4.546080
 20
1.337160
  0
VERTEX
  8
0
  6
CONTINUOUS
 10
4.567200
 20
1.348600
  0
VERTEX
  8
0
  6
CONTINUOUS
 10
4.590960
 20
1.356080
  0
VERTEX
  8
0
  6
CONTINUOUS
 10
4.616040
 20
1.358720
  0
VERTEX
  8
0
  6
CONTINUOUS
 10
4.641120
 20
1.356080
  0
VERTEX
  8
0
  6
CONTINUOUS
 10
4.664440
 20
1.348600
  0
VERTEX
  8
0
  6
CONTINUOUS
 10
4.686000
 20
1.337160
  0
VERTEX
  8
0
  6
CONTINUOUS
 10
4.704480
 20
1.321760
  0
VERTEX
  8
0
  6
CONTINUOUS
 10
4.719440
 20
1.303280
  0
VERTEX
  8
0
  6
CONTINUOUS
 10
4.731320
 20
1.282160
  0
VERTEX
  8
0
  6
CONTINUOUS
 10
4.738360
 20
1.258840
  0
VERTEX
  8
0
  6
CONTINUOUS
 10
4.741000
 20
1.233320
  0
VERTEX
  8
0
  6
CONTINUOUS
 10
4.744520
 20
1.233320
  0
VERTEX
  8
0
  6
CONTINUOUS
 10
4.746720
 20
1.258840
  0
VERTEX
  8
0
  6
CONTINUOUS
 10
4.754200
 20
1.282160
  0
VERTEX
  8
0
  6
CONTINUOUS
 10
4.765640
 20
1.303280
  0
VERTEX
  8
0
  6
CONTINUOUS
 10
4.781040
 20
1.321760
  0
VERTEX
  8
0
  6
CONTINUOUS
 10
4.799520
 20
1.337160
  0
VERTEX
  8
0
  6
CONTINUOUS
 10
4.820640
 20
1.348600
  0
VERTEX
  8
0
  6
CONTINUOUS
 10
4.843960
 20
1.356080
  0
VERTEX
  8
0
  6
CONTINUOUS
 10
4.869480
 20
1.358720
  0
VERTEX
  8
0
  6
CONTINUOUS
 10
4.894560
 20
1.356080
  0
VERTEX
  8
0
  6
CONTINUOUS
 10
4.917880
 20
1.348600
  0
VERTEX
  8
0
  6
CONTINUOUS
 10
4.939440
 20
1.337160
  0
VERTEX
  8
0
  6
CONTINUOUS
 10
4.957920
 20
1.321760
  0
VERTEX
  8
0
  6
CONTINUOUS
 10
4.972880
 20
1.303280
  0
VERTEX
  8
0
  6
CONTINUOUS
 10
4.984320
 20
1.282160
  0
VERTEX
  8
0
  6
CONTINUOUS
 10
4.991800
 20
1.258840
  0
VERTEX
  8
0
  6
CONTINUOUS
 10
4.994440
 20
1.233320
  0
VERTEX
  8
0
  6
CONTINUOUS
 10
4.995760
 20
1.233320
  0
VERTEX
  8
0
  6
CONTINUOUS
 10
4.998400
 20
1.258840
  0
VERTEX
  8
0
  6
CONTINUOUS
 10
5.005440
 20
1.282160
  0
VERTEX
  8
0
  6
CONTINUOUS
 10
5.016880
 20
1.303280
  0
VERTEX
  8
0
  6
CONTINUOUS
 10
5.032280
 20
1.321760
  0
VERTEX
  8
0
  6
CONTINUOUS
 10
5.050760
 20
1.337160
  0
VERTEX
  8
0
  6
CONTINUOUS
 10
5.071880
 20
1.348600
  0
VERTEX
  8
0
  6
CONTINUOUS
 10
5.095640
 20
1.356080
  0
VERTEX
  8
0
  6
CONTINUOUS
 10
5.120720
 20
1.358720
  0
VERTEX
  8
0
  6
CONTINUOUS
 10
5.145800
 20
1.356080
  0
VERTEX
  8
0
  6
CONTINUOUS
 10
5.169120
 20
1.348600
  0
VERTEX
  8
0
  6
CONTINUOUS
 10
5.190680
 20
1.337160
  0
VERTEX
  8
0
  6
CONTINUOUS
 10
5.209160
 20
1.321760
  0
VERTEX
  8
0
  6
CONTINUOUS
 10
5.224120
 20
1.303280
  0
VERTEX
  8
0
  6
CONTINUOUS
 10
5.236000
 20
1.282160
  0
VERTEX
  8
0
  6
CONTINUOUS
 10
5.243040
 20
1.258840
  0
VERTEX
  8
0
  6
CONTINUOUS
 10
5.245680
 20
1.233320
  0
VERTEX
  8
0
  6
CONTINUOUS
 10
5.251400
 20
1.233320
  0
VERTEX
  8
0
  6
CONTINUOUS
 10
5.254040
 20
1.258840
  0
VERTEX
  8
0
  6
CONTINUOUS
 10
5.261520
 20
1.282160
  0
VERTEX
  8
0
  6
CONTINUOUS
 10
5.272960
 20
1.303280
  0
VERTEX
  8
0
  6
CONTINUOUS
 10
5.287920
 20
1.321760
  0
VERTEX
  8
0
  6
CONTINUOUS
 10
5.306400
 20
1.337160
  0
VERTEX
  8
0
  6
CONTINUOUS
 10
5.327960
 20
1.348600
  0
VERTEX
  8
0
  6
CONTINUOUS
 10
5.351280
 20
1.356080
  0
VERTEX
  8
0
  6
CONTINUOUS
 10
5.376360
 20
1.358720
  0
VERTEX
  8
0
  6
CONTINUOUS
 10
5.401880
 20
1.356080
  0
VERTEX
  8
0
  6
CONTINUOUS
 10
5.425200
 20
1.348600
  0
VERTEX
  8
0
  6
CONTINUOUS
 10
5.446320
 20
1.337160
  0
VERTEX
  8
0
  6
CONTINUOUS
 10
5.464800
 20
1.321760
  0
VERTEX
  8
0
  6
CONTINUOUS
 10
5.480200
 20
1.303280
  0
VERTEX
  8
0
  6
CONTINUOUS
 10
5.491640
 20
1.282160
  0
VERTEX
  8
0
  6
CONTINUOUS
 10
5.499120
 20
1.258840
  0
VERTEX
  8
0
  6
CONTINUOUS
 10
5.501320
 20
1.233320
  0
VERTEX
  8
0
  6
CONTINUOUS
 10
5.507480
 20
1.233760
  0
VERTEX
  8
0
  6
CONTINUOUS
 10
5.510120
 20
1.258840
  0
VERTEX
  8
0
  6
CONTINUOUS
 10
5.517600
 20
1.282160
  0
VERTEX
  8
0
  6
CONTINUOUS
 10
5.529040
 20
1.303280
  0
VERTEX
  8
0
  6
CONTINUOUS
 10
5.544000
 20
1.321760
  0
VERTEX
  8
0
  6
CONTINUOUS
 10
5.562480
 20
1.337160
  0
VERTEX
  8
0
  6
CONTINUOUS
 10
5.584040
 20
1.348600
  0
VERTEX
  8
0
  6
CONTINUOUS
 10
5.607360
 20
1.356080
  0
VERTEX
  8
0
  6
CONTINUOUS
 10
5.632440
 20
1.358720
  0
VERTEX
  8
0
  6
CONTINUOUS
 10
5.657960
 20
1.356080
  0
VERTEX
  8
0
  6
CONTINUOUS
 10
5.681280
 20
1.348600
  0
VERTEX
  8
0
  6
CONTINUOUS
 10
5.702400
 20
1.337160
  0
VERTEX
  8
0
  6
CONTINUOUS
 10
5.720880
 20
1.321760
  0
VERTEX
  8
0
  6
CONTINUOUS
 10
5.736280
 20
1.303280
  0
VERTEX
  8
0
  6
CONTINUOUS
 10
5.747720
 20
1.282160
  0
VERTEX
  8
0
  6
CONTINUOUS
 10
5.755200
 20
1.258840
  0
VERTEX
  8
0
  6
CONTINUOUS
 10
5.757400
 20
1.233760
  0
VERTEX
  8
0
  6
CONTINUOUS
 10
5.760920
 20
1.233320
  0
VERTEX
  8
0
  6
CONTINUOUS
 10
5.763120
 20
1.258840
  0
VERTEX
  8
0
  6
CONTINUOUS
 10
5.770600
 20
1.282160
  0
VERTEX
  8
0
  6
CONTINUOUS
 10
5.782040
 20
1.303280
  0
VERTEX
  8
0
  6
CONTINUOUS
 10
5.797440
 20
1.321760
  0
VERTEX
  8
0
  6
CONTINUOUS
 10
5.815920
 20
1.337160
  0
VERTEX
  8
0
  6
CONTINUOUS
 10
5.837040
 20
1.348600
  0
VERTEX
  8
0
  6
CONTINUOUS
 10
5.860360
 20
1.356080
  0
VERTEX
  8
0
  6
CONTINUOUS
 10
5.885880
 20
1.358720
  0
VERTEX
  8
0
  6
CONTINUOUS
 10
5.910960
 20
1.356080
  0
VERTEX
  8
0
  6
CONTINUOUS
 10
5.934280
 20
1.348600
  0
VERTEX
  8
0
  6
CONTINUOUS
 10
5.955840
 20
1.337160
  0
VERTEX
  8
0
  6
CONTINUOUS
 10
5.974320
 20
1.321760
  0
VERTEX
  8
0
  6
CONTINUOUS
 10
5.989280
 20
1.303280
  0
VERTEX
  8
0
  6
CONTINUOUS
 10
6.000720
 20
1.282160
  0
VERTEX
  8
0
  6
CONTINUOUS
 10
6.008200
 20
1.258840
  0
VERTEX
  8
0
  6
CONTINUOUS
 10
6.010840
 20
1.233320
  0
VERTEX
  8
0
  6
CONTINUOUS
 10
6.014800
 20
1.233320
  0
VERTEX
  8
0
  6
CONTINUOUS
 10
6.017440
 20
1.258400
  0
VERTEX
  8
0
  6
CONTINUOUS
 10
6.024920
 20
1.282160
  0
VERTEX
  8
0
  6
CONTINUOUS
 10
6.036360
 20
1.303280
  0
VERTEX
  8
0
  6
CONTINUOUS
 10
6.051760
 20
1.321760
  0
VERTEX
  8
0
  6
CONTINUOUS
 10
6.070240
 20
1.337160
  0
VERTEX
  8
0
  6
CONTINUOUS
 10
6.091360
 20
1.348600
  0
VERTEX
  8
0
  6
CONTINUOUS
 10
6.114680
 20
1.355640
  0
VERTEX
  8
0
  6
CONTINUOUS
 10
6.140200
 20
1.358280
  0
VERTEX
  8
0
  6
CONTINUOUS
 10
6.165280
 20
1.355640
  0
VERTEX
  8
0
  6
CONTINUOUS
 10
6.188600
 20
1.348600
  0
VERTEX
  8
0
  6
CONTINUOUS
 10
6.209720
 20
1.337160
  0
VERTEX
  8
0
  6
CONTINUOUS
 10
6.228200
 20
1.321760
  0
VERTEX
  8
0
  6
CONTINUOUS
 10
6.243600
 20
1.303280
  0
VERTEX
  8
0
  6
CONTINUOUS
 10
6.255040
 20
1.282160
  0
VERTEX
  8
0
  6
CONTINUOUS
 10
6.262520
 20
1.258400
  0
VERTEX
  8
0
  6
CONTINUOUS
 10
6.265160
 20
1.233320
  0
VERTEX
  8
0
  6
CONTINUOUS
 10
6.268680
 20
1.232880
  0
VERTEX
  8
0
  6
CONTINUOUS
 10
6.271320
 20
1.257960
  0
VERTEX
  8
0
  6
CONTINUOUS
 10
6.278360
 20
1.281280
  0
VERTEX
  8
0
  6
CONTINUOUS
 10
6.289800
 20
1.302400
  0
VERTEX
  8
0
  6
CONTINUOUS
 10
6.305200
 20
1.320880
  0
VERTEX
  8
0
  6
CONTINUOUS
 10
6.323680
 20
1.336280
  0
VERTEX
  8
0
  6
CONTINUOUS
 10
6.344800
 20
1.347720
  0
VERTEX
  8
0
  6
CONTINUOUS
 10
6.368560
 20
1.355200
  0
VERTEX
  8
0
  6
CONTINUOUS
 10
6.393640
 20
1.357840
  0
VERTEX
  8
0
  6
CONTINUOUS
 10
6.418720
 20
1.355200
  0
VERTEX
  8
0
  6
CONTINUOUS
 10
6.442480
 20
1.347720
  0
VERTEX
  8
0
  6
CONTINUOUS
 10
6.463600
 20
1.336280
  0
VERTEX
  8
0
  6
CONTINUOUS
 10
6.482080
 20
1.320880
  0
VERTEX
  8
0
  6
CONTINUOUS
 10
6.497480
 20
1.302400
  0
VERTEX
  8
0
  6
CONTINUOUS
 10
6.508920
 20
1.281280
  0
VERTEX
  8
0
  6
CONTINUOUS
 10
6.515960
 20
1.257960
  0
VERTEX
  8
0
  6
CONTINUOUS
 10
6.518600
 20
1.232880
  0
VERTEX
  8
0
  6
CONTINUOUS
 10
6.606160
 20
1.399200
  0
VERTEX
  8
0
  6
CONTINUOUS
 10
6.851240
 20
1.399200
  0
VERTEX
  8
0
  6
CONTINUOUS
 10
6.849920
 20
1.399640
  0
VERTEX
  8
0
  6
CONTINUOUS
 10
6.849920
 20
1.009800
  0
VERTEX
  8
0
  6
CONTINUOUS
 10
3.644520
 20
1.009800
  0
VERTEX
  8
0
  6
CONTINUOUS
 10
3.644520
 20
1.397440
  0
VERTEX
  8
0
  6
CONTINUOUS
 10
3.895760
 20
1.397440
  0
VERTEX
  8
0
  6
CONTINUOUS
 10
3.975400
 20
1.232880
  0
VERTEX
  8
0
  6
CONTINUOUS
 10
3.977600
 20
1.257960
  0
VERTEX
  8
0
  6
CONTINUOUS
 10
3.985080
 20
1.281720
  0
VERTEX
  8
0
  6
CONTINUOUS
 10
3.996520
 20
1.302840
  0
VERTEX
  8
0
  6
CONTINUOUS
 10
4.011920
 20
1.321320
  0
VERTEX
  8
0
  6
CONTINUOUS
 10
4.030400
 20
1.336720
  0
VERTEX
  8
0
  6
CONTINUOUS
 10
4.051520
 20
1.348160
  0
VERTEX
  8
0
  6
CONTINUOUS
 10
4.074840
 20
1.355200
  0
VERTEX
  8
0
  6
CONTINUOUS
 10
4.100360
 20
1.357840
  0
VERTEX
  8
0
  6
CONTINUOUS
 10
4.125440
 20
1.355200
  0
VERTEX
  8
0
  6
CONTINUOUS
 10
4.148760
 20
1.348160
  0
VERTEX
  8
0
  6
CONTINUOUS
 10
4.170320
 20
1.336720
  0
VERTEX
  8
0
  6
CONTINUOUS
 10
4.188800
 20
1.321320
  0
VERTEX
  8
0
  6
CONTINUOUS
 10
4.203760
 20
1.302840
  0
VERTEX
  8
0
  6
CONTINUOUS
 10
4.215200
 20
1.281720
  0
VERTEX
  8
0
  6
CONTINUOUS
 10
4.222680
 20
1.257960
  0
VERTEX
  8
0
  6
CONTINUOUS
 10
4.225320
 20
1.232880
  0
VERTEX
  8
0
  6
CONTINUOUS
 10
4.231480
 20
1.232880
  0
VERTEX
  8
0
  6
CONTINUOUS
 10
4.234120
 20
1.257960
  0
VERTEX
  8
0
  6
CONTINUOUS
 10
4.241600
 20
1.281720
  0
VERTEX
  8
0
  6
CONTINUOUS
 10
4.253040
 20
1.302840
  0
VERTEX
  8
0
  6
CONTINUOUS
 10
4.268440
 20
1.321320
  0
VERTEX
  8
0
  6
CONTINUOUS
 10
4.286920
 20
1.336720
  0
VERTEX
  8
0
  6
CONTINUOUS
 10
4.308040
 20
1.348160
  0
VERTEX
  8
0
  6
CONTINUOUS
 10
4.331360
 20
1.355200
  0
VERTEX
  8
0
  6
CONTINUOUS
 10
4.356880
 20
1.357840
  0
VERTEX
  8
0
  6
CONTINUOUS
 10
4.381960
 20
1.355200
  0
VERTEX
  8
0
  6
CONTINUOUS
 10
4.405280
 20
1.348160
  0
VERTEX
  8
0
  6
CONTINUOUS
 10
4.426400
 20
1.336720
  0
VERTEX
  8
0
  6
CONTINUOUS
 10
4.444880
 20
1.321320
  0
VERTEX
  8
0
  6
CONTINUOUS
 10
4.460280
 20
1.302840
  0
VERTEX
  8
0
  6
CONTINUOUS
 10
4.471720
 20
1.281720
  0
VERTEX
  8
0
  6
CONTINUOUS
 10
4.479200
 20
1.257960
  0
VERTEX
  8
0
  6
CONTINUOUS
 10
4.481840
 20
1.232880
  0
VERTEX
  8
0
  6
CONTINUOUS
 10
4.491080
 20
1.233320
  0
SEQEND
  8
0
  0
TEXT
  8
0
 10
4.956160
 20
0.775280
 40
0.138192
  1
BA  505
 41
1.000000
  7
SN0
 71
     0
 72
     5
 11
5.546691
 21
0.775280
  0
TEXT
  8
0
 10
4.768280
 20
0.583440
 40
0.138192
  1
3/8" x 3-1/4"*
 41
1.000000
  7
SN0
 71
     0
 72
     5
 11
5.734319
 21
0.583440
  0
ENDSEC
  0
EOF
