  0
SECTION
  2
HEADER
  9
$ACADVER
  1
AC1006
  9
$EXTMIN
 10
1.984400
 20
0.411840
  9
$EXTMAX
 10
7.305320
 20
2.978360
  9
$LTSCALE
 40
0.044000
  9
$PDMODE
 70
    35
  9
$PDSIZE
 40
0.035200
  0
ENDSEC
  0
SECTION
  2
TABLES
  0
TABLE
  2
LTYPE
 70
     9
  0
LTYPE
  2
CONTINUOUS
 70
    64
  3
Solid line
 72
    65
 73
     0
 40
0.000000
  0
LTYPE
  2
DASHED
 70
    64
  3
__ __ __ __ __ __ __ __ __ __ __ __ __ __ __
 72
    65
 73
     2
 40
0.000330
 49
0.000220
 49
-0.000110
  0
LTYPE
  2
HIDDEN
 70
    64
  3
 _ _ _ _ _ _ _ _ _ _ _ _ _ _ _ _ _ _ _ _ _ _
 72
    65
 73
     2
 40
0.000165
 49
0.000110
 49
-0.000055
  0
LTYPE
  2
CENTER
 70
    64
  3
____ _ ____ _ ____ _ ____ _ ____ _ ____ _ ____
 72
    65
 73
     4
 40
0.000880
 49
0.000550
 49
-0.000110
 49
0.000110
 49
-0.000110
  0
LTYPE
  2
PHANTOM
 70
    64
  3
_____ _ _ _____ _ _ _____ _ _ _____ _ _ ____
 72
    65
 73
     6
 40
0.001100
 49
0.000550
 49
-0.000110
 49
0.000110
 49
-0.000110
 49
0.000110
 49
-0.000110
  0
LTYPE
  2
DOT
 70
    64
  3
...............................................
 72
    65
 73
     2
 40
0.000110
 49
0.000000
 49
-0.000110
  0
LTYPE
  2
DASHDOT
 70
    64
  3
__ . __ . __ . __ . __ . __ . __ . __ . __ . __
 72
    65
 73
     4
 40
0.000440
 49
0.000220
 49
-0.000110
 49
0.000000
 49
-0.000110
  0
LTYPE
  2
BORDER
 70
    64
  3
__ __ . __ __ . __ __ . __ __ . __ __ . __ __
 72
    65
 73
     6
 40
0.000770
 49
0.000220
 49
-0.000110
 49
0.000220
 49
-0.000110
 49
0.000000
 49
-0.000110
  0
LTYPE
  2
DIVIDE
 70
    64
  3
__ . . __ . . __ . . __ . . __ . . __ . . __
 72
    65
 73
     6
 40
0.000550
 49
0.000220
 49
-0.000110
 49
0.000000
 49
-0.000110
 49
0.000000
 49
-0.000110
  0
LTYPE
  2
DOTDOT
 70
    64
  3
 . .  . .  . .  . .  . .  . . 
 72
    65
 73
     5
 40
0.000242
 49
-0.000110
 49
0.000000
 49
-0.000110
 49
0.000000
 49
-0.000110
  0
ENDTAB
  0
TABLE
  2
STYLE
 70
     2
  0
STYLE
 70
     0
  2
SN0
 40
0.000000
 41
0.000440
 50
0.000000
 71
     0
 42
0.000000
  3
ROMAND
  0
STYLE
 70
    68
  2
SV0
 40
0.000000
 41
0.000440
 50
0.000000
 71
     0
 42
0.000000
  3
ROMAND
  0
ENDTAB
  0
TABLE
  2
LAYER
 70
     3
  0
LAYER
  2
FOREGROUND
 70
    64
 62
     7
  6
CONTINUOUS
  0
LAYER
  2
BACKGROUND
 70
    65
 62
    -7
  6
CONTINUOUS
  0
LAYER
  2
0
 70
    64
 62
     7
  6
CONTINUOUS
  0
ENDTAB
  0
ENDSEC
  0
SECTION
  2
ENTITIES
  0
POLYLINE
  8
FOREGROUND
  6
CONTINUOUS
 66
     1
 40
0.000000
 41
0.000000
  0
VERTEX
  8
FOREGROUND
  6
CONTINUOUS
 10
0.000000
 20
3.390200
  0
VERTEX
  8
FOREGROUND
  6
CONTINUOUS
 10
8.499920
 20
3.390200
  0
VERTEX
  8
FOREGROUND
  6
CONTINUOUS
 10
8.499920
 20
-7.609800
  0
VERTEX
  8
FOREGROUND
  6
CONTINUOUS
 10
0.000000
 20
-7.609800
  0
VERTEX
  8
FOREGROUND
  6
CONTINUOUS
 10
0.000000
 20
3.390200
  0
SEQEND
  8
0
  0
POLYLINE
  8
FOREGROUND
  6
CONTINUOUS
 66
     1
 40
0.000000
 41
0.000000
  0
VERTEX
  8
FOREGROUND
  6
CONTINUOUS
 10
0.000000
 20
3.390200
  0
VERTEX
  8
FOREGROUND
  6
CONTINUOUS
 10
8.499920
 20
3.390200
  0
VERTEX
  8
FOREGROUND
  6
CONTINUOUS
 10
8.499920
 20
-7.609800
  0
VERTEX
  8
FOREGROUND
  6
CONTINUOUS
 10
0.000000
 20
-7.609800
  0
VERTEX
  8
FOREGROUND
  6
CONTINUOUS
 10
0.000000
 20
3.390200
  0
SEQEND
  8
0
  0
POLYLINE
  8
0
  6
CONTINUOUS
 66
     1
 40
0.014080
 41
0.014080
  0
VERTEX
  8
0
  6
CONTINUOUS
 10
6.756640
 20
2.493920
  0
VERTEX
  8
0
  6
CONTINUOUS
 10
6.749600
 20
2.443320
  0
VERTEX
  8
0
  6
CONTINUOUS
 10
6.740800
 20
2.393600
  0
VERTEX
  8
0
  6
CONTINUOUS
 10
6.730240
 20
2.344760
  0
VERTEX
  8
0
  6
CONTINUOUS
 10
6.717920
 20
2.297240
  0
VERTEX
  8
0
  6
CONTINUOUS
 10
6.703840
 20
2.250600
  0
VERTEX
  8
0
  6
CONTINUOUS
 10
6.688000
 20
2.205280
  0
VERTEX
  8
0
  6
CONTINUOUS
 10
6.670400
 20
2.160840
  0
VERTEX
  8
0
  6
CONTINUOUS
 10
6.651040
 20
2.117720
  0
VERTEX
  8
0
  6
CONTINUOUS
 10
6.630360
 20
2.075480
  0
VERTEX
  8
0
  6
CONTINUOUS
 10
6.607920
 20
2.035000
  0
VERTEX
  8
0
  6
CONTINUOUS
 10
6.583720
 20
1.995400
  0
VERTEX
  8
0
  6
CONTINUOUS
 10
6.558200
 20
1.956680
  0
VERTEX
  8
0
  6
CONTINUOUS
 10
6.531360
 20
1.919720
  0
VERTEX
  8
0
  6
CONTINUOUS
 10
6.502760
 20
1.884080
  0
VERTEX
  8
0
  6
CONTINUOUS
 10
6.472840
 20
1.849760
  0
VERTEX
  8
0
  6
CONTINUOUS
 10
6.441160
 20
1.816760
  0
VERTEX
  8
0
  6
CONTINUOUS
 10
6.408600
 20
1.785080
  0
VERTEX
  8
0
  6
CONTINUOUS
 10
6.374280
 20
1.754720
  0
VERTEX
  8
0
  6
CONTINUOUS
 10
6.338640
 20
1.726120
  0
VERTEX
  8
0
  6
CONTINUOUS
 10
6.301680
 20
1.698840
  0
VERTEX
  8
0
  6
CONTINUOUS
 10
6.263840
 20
1.672880
  0
VERTEX
  8
0
  6
CONTINUOUS
 10
6.224240
 20
1.648680
  0
VERTEX
  8
0
  6
CONTINUOUS
 10
6.183760
 20
1.626240
  0
VERTEX
  8
0
  6
CONTINUOUS
 10
6.141960
 20
1.605120
  0
VERTEX
  8
0
  6
CONTINUOUS
 10
6.099280
 20
1.585760
  0
VERTEX
  8
0
  6
CONTINUOUS
 10
6.054840
 20
1.567720
  0
VERTEX
  8
0
  6
CONTINUOUS
 10
6.009960
 20
1.551440
  0
VERTEX
  8
0
  6
CONTINUOUS
 10
5.963760
 20
1.537360
  0
VERTEX
  8
0
  6
CONTINUOUS
 10
5.916240
 20
1.524600
  0
VERTEX
  8
0
  6
CONTINUOUS
 10
5.867840
 20
1.513600
  0
VERTEX
  8
0
  6
CONTINUOUS
 10
5.818560
 20
1.504360
  0
VERTEX
  8
0
  6
CONTINUOUS
 10
5.768400
 20
1.496880
  0
VERTEX
  8
0
  6
CONTINUOUS
 10
5.755640
 20
0.951280
  0
VERTEX
  8
0
  6
CONTINUOUS
 10
5.261520
 20
0.947320
  0
VERTEX
  8
0
  6
CONTINUOUS
 10
5.261520
 20
1.505680
  0
VERTEX
  8
0
  6
CONTINUOUS
 10
6.726720
 20
2.970440
  0
VERTEX
  8
0
  6
CONTINUOUS
 10
7.293440
 20
2.970440
  0
VERTEX
  8
0
  6
CONTINUOUS
 10
7.297840
 20
2.485120
  0
VERTEX
  8
0
  6
CONTINUOUS
 10
6.756640
 20
2.493920
  0
SEQEND
  8
0
  0
SOLID
  8
0
 62
    15
 10
2.865720
 20
1.482800
 11
3.506800
 21
1.104840
 12
2.687520
 22
1.415040
 13
3.328160
 23
1.037080
  0
POLYLINE
  8
0
  6
CONTINUOUS
 66
     1
 40
0.000000
 41
0.000000
  0
VERTEX
  8
0
  6
CONTINUOUS
 10
2.865720
 20
1.482800
  0
VERTEX
  8
0
  6
CONTINUOUS
 10
3.506800
 20
1.104840
  0
VERTEX
  8
0
  6
CONTINUOUS
 10
3.328160
 20
1.037080
  0
VERTEX
  8
0
  6
CONTINUOUS
 10
2.687520
 20
1.415040
  0
VERTEX
  8
0
  6
CONTINUOUS
 10
2.865720
 20
1.482800
  0
SEQEND
  8
0
  0
SOLID
  8
0
 62
    15
 10
3.441680
 20
2.174920
 11
4.082320
 21
1.796960
 12
3.374800
 22
1.994960
 13
4.015880
 23
1.617440
  0
POLYLINE
  8
0
  6
CONTINUOUS
 66
     1
 40
0.000000
 41
0.000000
  0
VERTEX
  8
0
  6
CONTINUOUS
 10
3.441680
 20
2.174920
  0
VERTEX
  8
0
  6
CONTINUOUS
 10
4.082320
 20
1.796960
  0
VERTEX
  8
0
  6
CONTINUOUS
 10
4.015880
 20
1.617440
  0
VERTEX
  8
0
  6
CONTINUOUS
 10
3.374800
 20
1.994960
  0
VERTEX
  8
0
  6
CONTINUOUS
 10
3.441680
 20
2.174920
  0
SEQEND
  8
0
  0
SOLID
  8
0
 62
    15
 10
3.374800
 20
1.994960
 11
4.015880
 21
1.617440
 12
3.281960
 22
1.834360
 13
3.923040
 23
1.456400
  0
POLYLINE
  8
0
  6
CONTINUOUS
 66
     1
 40
0.000000
 41
0.000000
  0
VERTEX
  8
0
  6
CONTINUOUS
 10
3.374800
 20
1.994960
  0
VERTEX
  8
0
  6
CONTINUOUS
 10
4.015880
 20
1.617440
  0
VERTEX
  8
0
  6
CONTINUOUS
 10
3.923040
 20
1.456400
  0
VERTEX
  8
0
  6
CONTINUOUS
 10
3.281960
 20
1.834360
  0
VERTEX
  8
0
  6
CONTINUOUS
 10
3.374800
 20
1.994960
  0
SEQEND
  8
0
  0
SOLID
  8
0
 62
    15
 10
3.281960
 20
1.834360
 11
3.923040
 21
1.456400
 12
3.164920
 22
1.694000
 13
3.806000
 23
1.316480
  0
POLYLINE
  8
0
  6
CONTINUOUS
 66
     1
 40
0.000000
 41
0.000000
  0
VERTEX
  8
0
  6
CONTINUOUS
 10
3.281960
 20
1.834360
  0
VERTEX
  8
0
  6
CONTINUOUS
 10
3.923040
 20
1.456400
  0
VERTEX
  8
0
  6
CONTINUOUS
 10
3.806000
 20
1.316480
  0
VERTEX
  8
0
  6
CONTINUOUS
 10
3.164920
 20
1.694000
  0
VERTEX
  8
0
  6
CONTINUOUS
 10
3.281960
 20
1.834360
  0
SEQEND
  8
0
  0
SOLID
  8
0
 62
    15
 10
3.164920
 20
1.694000
 11
3.806000
 21
1.316480
 12
3.025880
 22
1.576520
 13
3.666520
 23
1.198560
  0
POLYLINE
  8
0
  6
CONTINUOUS
 66
     1
 40
0.000000
 41
0.000000
  0
VERTEX
  8
0
  6
CONTINUOUS
 10
3.164920
 20
1.694000
  0
VERTEX
  8
0
  6
CONTINUOUS
 10
3.806000
 20
1.316480
  0
VERTEX
  8
0
  6
CONTINUOUS
 10
3.666520
 20
1.198560
  0
VERTEX
  8
0
  6
CONTINUOUS
 10
3.025880
 20
1.576520
  0
VERTEX
  8
0
  6
CONTINUOUS
 10
3.164920
 20
1.694000
  0
SEQEND
  8
0
  0
SOLID
  8
0
 62
    15
 10
3.025880
 20
1.576520
 11
3.666520
 21
1.198560
 12
2.865720
 22
1.482800
 13
3.506800
 23
1.104840
  0
POLYLINE
  8
0
  6
CONTINUOUS
 66
     1
 40
0.000000
 41
0.000000
  0
VERTEX
  8
0
  6
CONTINUOUS
 10
3.025880
 20
1.576520
  0
VERTEX
  8
0
  6
CONTINUOUS
 10
3.666520
 20
1.198560
  0
VERTEX
  8
0
  6
CONTINUOUS
 10
3.506800
 20
1.104840
  0
VERTEX
  8
0
  6
CONTINUOUS
 10
2.865720
 20
1.482800
  0
VERTEX
  8
0
  6
CONTINUOUS
 10
3.025880
 20
1.576520
  0
SEQEND
  8
0
  0
SOLID
  8
0
 62
    15
 10
3.480400
 20
2.371600
 11
4.121040
 21
1.993640
 12
3.441680
 22
2.174920
 13
4.082320
 23
1.796960
  0
POLYLINE
  8
0
  6
CONTINUOUS
 66
     1
 40
0.000000
 41
0.000000
  0
VERTEX
  8
0
  6
CONTINUOUS
 10
3.480400
 20
2.371600
  0
VERTEX
  8
0
  6
CONTINUOUS
 10
4.121040
 20
1.993640
  0
VERTEX
  8
0
  6
CONTINUOUS
 10
4.082320
 20
1.796960
  0
VERTEX
  8
0
  6
CONTINUOUS
 10
3.441680
 20
2.174920
  0
VERTEX
  8
0
  6
CONTINUOUS
 10
3.480400
 20
2.371600
  0
SEQEND
  8
0
  0
SOLID
  8
0
 62
    15
 10
2.687520
 20
1.415040
 11
3.328160
 21
1.037080
 12
2.492160
 22
1.374560
 13
3.132800
 23
0.997040
  0
POLYLINE
  8
0
  6
CONTINUOUS
 66
     1
 40
0.000000
 41
0.000000
  0
VERTEX
  8
0
  6
CONTINUOUS
 10
2.687520
 20
1.415040
  0
VERTEX
  8
0
  6
CONTINUOUS
 10
3.328160
 20
1.037080
  0
VERTEX
  8
0
  6
CONTINUOUS
 10
3.132800
 20
0.997040
  0
VERTEX
  8
0
  6
CONTINUOUS
 10
2.492160
 20
1.374560
  0
VERTEX
  8
0
  6
CONTINUOUS
 10
2.687520
 20
1.415040
  0
SEQEND
  8
0
  0
SOLID
  8
0
 62
    15
 10
2.492160
 20
1.374560
 11
3.132800
 21
0.997040
 12
2.479400
 22
0.828960
 13
3.120040
 23
0.451440
  0
POLYLINE
  8
0
  6
CONTINUOUS
 66
     1
 40
0.000000
 41
0.000000
  0
VERTEX
  8
0
  6
CONTINUOUS
 10
2.492160
 20
1.374560
  0
VERTEX
  8
0
  6
CONTINUOUS
 10
3.132800
 20
0.997040
  0
VERTEX
  8
0
  6
CONTINUOUS
 10
3.120040
 20
0.451440
  0
VERTEX
  8
0
  6
CONTINUOUS
 10
2.479400
 20
0.828960
  0
VERTEX
  8
0
  6
CONTINUOUS
 10
2.492160
 20
1.374560
  0
SEQEND
  8
0
  0
SOLID
  8
0
 62
    15
 10
2.479400
 20
0.828960
 11
3.120040
 21
0.451440
 12
1.985280
 22
0.824560
 13
2.625920
 23
0.447040
  0
POLYLINE
  8
0
  6
CONTINUOUS
 66
     1
 40
0.000000
 41
0.000000
  0
VERTEX
  8
0
  6
CONTINUOUS
 10
2.479400
 20
0.828960
  0
VERTEX
  8
0
  6
CONTINUOUS
 10
3.120040
 20
0.451440
  0
VERTEX
  8
0
  6
CONTINUOUS
 10
2.625920
 20
0.447040
  0
VERTEX
  8
0
  6
CONTINUOUS
 10
1.985280
 20
0.824560
  0
VERTEX
  8
0
  6
CONTINUOUS
 10
2.479400
 20
0.828960
  0
SEQEND
  8
0
  0
SOLID
  8
0
 62
    15
 10
4.017200
 20
2.848120
 11
4.658280
 21
2.470600
 12
4.021600
 22
2.362800
 13
4.662240
 23
1.984840
  0
POLYLINE
  8
0
  6
CONTINUOUS
 66
     1
 40
0.000000
 41
0.000000
  0
VERTEX
  8
0
  6
CONTINUOUS
 10
4.017200
 20
2.848120
  0
VERTEX
  8
0
  6
CONTINUOUS
 10
4.658280
 20
2.470600
  0
VERTEX
  8
0
  6
CONTINUOUS
 10
4.662240
 20
1.984840
  0
VERTEX
  8
0
  6
CONTINUOUS
 10
4.021600
 20
2.362800
  0
VERTEX
  8
0
  6
CONTINUOUS
 10
4.017200
 20
2.848120
  0
SEQEND
  8
0
  0
SOLID
  8
0
 62
    15
 10
4.021600
 20
2.362800
 11
4.662240
 21
1.984840
 12
3.751000
 22
2.367200
 13
4.391640
 23
1.989240
  0
POLYLINE
  8
0
  6
CONTINUOUS
 66
     1
 40
0.000000
 41
0.000000
  0
VERTEX
  8
0
  6
CONTINUOUS
 10
4.021600
 20
2.362800
  0
VERTEX
  8
0
  6
CONTINUOUS
 10
4.662240
 20
1.984840
  0
VERTEX
  8
0
  6
CONTINUOUS
 10
4.391640
 20
1.989240
  0
VERTEX
  8
0
  6
CONTINUOUS
 10
3.751000
 20
2.367200
  0
VERTEX
  8
0
  6
CONTINUOUS
 10
4.021600
 20
2.362800
  0
SEQEND
  8
0
  0
SOLID
  8
0
 62
    15
 10
3.751000
 20
2.367200
 11
4.391640
 21
1.989240
 12
3.480400
 22
2.371600
 13
4.121040
 23
1.993640
  0
POLYLINE
  8
0
  6
CONTINUOUS
 66
     1
 40
0.000000
 41
0.000000
  0
VERTEX
  8
0
  6
CONTINUOUS
 10
3.751000
 20
2.367200
  0
VERTEX
  8
0
  6
CONTINUOUS
 10
4.391640
 20
1.989240
  0
VERTEX
  8
0
  6
CONTINUOUS
 10
4.121040
 20
1.993640
  0
VERTEX
  8
0
  6
CONTINUOUS
 10
3.480400
 20
2.371600
  0
VERTEX
  8
0
  6
CONTINUOUS
 10
3.751000
 20
2.367200
  0
SEQEND
  8
0
  0
POLYLINE
  8
0
  6
CONTINUOUS
 66
     1
 40
0.000000
 41
0.000000
  0
VERTEX
  8
0
  6
CONTINUOUS
 10
3.480400
 20
2.371600
  0
VERTEX
  8
0
  6
CONTINUOUS
 10
3.441680
 20
2.174920
  0
VERTEX
  8
0
  6
CONTINUOUS
 10
3.374800
 20
1.994960
  0
VERTEX
  8
0
  6
CONTINUOUS
 10
3.281960
 20
1.834360
  0
VERTEX
  8
0
  6
CONTINUOUS
 10
3.164920
 20
1.694000
  0
VERTEX
  8
0
  6
CONTINUOUS
 10
3.025880
 20
1.576520
  0
VERTEX
  8
0
  6
CONTINUOUS
 10
2.865720
 20
1.482800
  0
VERTEX
  8
0
  6
CONTINUOUS
 10
2.687520
 20
1.415040
  0
VERTEX
  8
0
  6
CONTINUOUS
 10
2.492160
 20
1.374560
  0
VERTEX
  8
0
  6
CONTINUOUS
 10
2.479400
 20
0.828960
  0
VERTEX
  8
0
  6
CONTINUOUS
 10
1.985280
 20
0.824560
  0
VERTEX
  8
0
  6
CONTINUOUS
 10
1.985280
 20
1.383360
  0
VERTEX
  8
0
  6
CONTINUOUS
 10
3.450040
 20
2.848120
  0
VERTEX
  8
0
  6
CONTINUOUS
 10
4.017200
 20
2.848120
  0
VERTEX
  8
0
  6
CONTINUOUS
 10
4.021600
 20
2.362800
  0
VERTEX
  8
0
  6
CONTINUOUS
 10
3.751000
 20
2.367200
  0
VERTEX
  8
0
  6
CONTINUOUS
 10
3.480400
 20
2.371600
  0
SEQEND
  8
0
  0
TEXT
  8
0
 10
3.470720
 20
0.646800
 40
0.138282
  1
BA  504
 41
1.000000
  7
SN0
 71
     0
 72
     5
 11
4.061874
 21
0.646800
  0
TEXT
  8
0
 10
3.314960
 20
0.455400
 40
0.138282
  1
3/4" x 2-7/8"
 41
1.000000
  7
SN0
 71
     0
 72
     5
 11
4.216590
 21
0.455400
  0
ENDSEC
  0
EOF
