  0
SECTION
  2
HEADER
  9
$ACADVER
  1
AC1006
  9
$EXTMIN
 10
1.948760
 20
0.682440
  9
$EXTMAX
 10
7.083120
 20
6.640920
  9
$LTSCALE
 40
0.044000
  9
$PDMODE
 70
    35
  9
$PDSIZE
 40
0.035200
  0
ENDSEC
  0
SECTION
  2
TABLES
  0
TABLE
  2
LTYPE
 70
     9
  0
LTYPE
  2
CONTINUOUS
 70
    64
  3
Solid line
 72
    65
 73
     0
 40
0.000000
  0
LTYPE
  2
DASHED
 70
    64
  3
__ __ __ __ __ __ __ __ __ __ __ __ __ __ __
 72
    65
 73
     2
 40
0.000330
 49
0.000220
 49
-0.000110
  0
LTYPE
  2
HIDDEN
 70
    64
  3
 _ _ _ _ _ _ _ _ _ _ _ _ _ _ _ _ _ _ _ _ _ _
 72
    65
 73
     2
 40
0.000165
 49
0.000110
 49
-0.000055
  0
LTYPE
  2
CENTER
 70
    64
  3
____ _ ____ _ ____ _ ____ _ ____ _ ____ _ ____
 72
    65
 73
     4
 40
0.000880
 49
0.000550
 49
-0.000110
 49
0.000110
 49
-0.000110
  0
LTYPE
  2
PHANTOM
 70
    64
  3
_____ _ _ _____ _ _ _____ _ _ _____ _ _ ____
 72
    65
 73
     6
 40
0.001100
 49
0.000550
 49
-0.000110
 49
0.000110
 49
-0.000110
 49
0.000110
 49
-0.000110
  0
LTYPE
  2
DOT
 70
    64
  3
...............................................
 72
    65
 73
     2
 40
0.000110
 49
0.000000
 49
-0.000110
  0
LTYPE
  2
DASHDOT
 70
    64
  3
__ . __ . __ . __ . __ . __ . __ . __ . __ . __
 72
    65
 73
     4
 40
0.000440
 49
0.000220
 49
-0.000110
 49
0.000000
 49
-0.000110
  0
LTYPE
  2
BORDER
 70
    64
  3
__ __ . __ __ . __ __ . __ __ . __ __ . __ __
 72
    65
 73
     6
 40
0.000770
 49
0.000220
 49
-0.000110
 49
0.000220
 49
-0.000110
 49
0.000000
 49
-0.000110
  0
LTYPE
  2
DIVIDE
 70
    64
  3
__ . . __ . . __ . . __ . . __ . . __ . . __
 72
    65
 73
     6
 40
0.000550
 49
0.000220
 49
-0.000110
 49
0.000000
 49
-0.000110
 49
0.000000
 49
-0.000110
  0
LTYPE
  2
DOTDOT
 70
    64
  3
 . .  . .  . .  . .  . .  . . 
 72
    65
 73
     5
 40
0.000242
 49
-0.000110
 49
0.000000
 49
-0.000110
 49
0.000000
 49
-0.000110
  0
ENDTAB
  0
TABLE
  2
STYLE
 70
     2
  0
STYLE
 70
     0
  2
SN0
 40
0.000000
 41
0.000440
 50
0.000000
 71
     0
 42
0.000000
  3
ROMAND
  0
STYLE
 70
    68
  2
SV0
 40
0.000000
 41
0.000440
 50
0.000000
 71
     0
 42
0.000000
  3
ROMAND
  0
ENDTAB
  0
TABLE
  2
LAYER
 70
     3
  0
LAYER
  2
FOREGROUND
 70
    64
 62
     7
  6
CONTINUOUS
  0
LAYER
  2
BACKGROUND
 70
    65
 62
    -7
  6
CONTINUOUS
  0
LAYER
  2
0
 70
    64
 62
     7
  6
CONTINUOUS
  0
ENDTAB
  0
ENDSEC
  0
SECTION
  2
ENTITIES
  0
POLYLINE
  8
FOREGROUND
  6
CONTINUOUS
 66
     1
 40
0.000000
 41
0.000000
  0
VERTEX
  8
FOREGROUND
  6
CONTINUOUS
 10
0.000000
 20
7.323360
  0
VERTEX
  8
FOREGROUND
  6
CONTINUOUS
 10
8.499920
 20
7.323360
  0
VERTEX
  8
FOREGROUND
  6
CONTINUOUS
 10
8.499920
 20
-3.676640
  0
VERTEX
  8
FOREGROUND
  6
CONTINUOUS
 10
0.000000
 20
-3.676640
  0
VERTEX
  8
FOREGROUND
  6
CONTINUOUS
 10
0.000000
 20
7.323360
  0
SEQEND
  8
0
  0
POLYLINE
  8
FOREGROUND
  6
CONTINUOUS
 66
     1
 40
0.000000
 41
0.000000
  0
VERTEX
  8
FOREGROUND
  6
CONTINUOUS
 10
0.000000
 20
7.323360
  0
VERTEX
  8
FOREGROUND
  6
CONTINUOUS
 10
8.499920
 20
7.323360
  0
VERTEX
  8
FOREGROUND
  6
CONTINUOUS
 10
8.499920
 20
-3.676640
  0
VERTEX
  8
FOREGROUND
  6
CONTINUOUS
 10
0.000000
 20
-3.676640
  0
VERTEX
  8
FOREGROUND
  6
CONTINUOUS
 10
0.000000
 20
7.323360
  0
SEQEND
  8
0
  0
POLYLINE
  8
0
  6
CONTINUOUS
 66
     1
 40
0.014080
 41
0.014080
  0
VERTEX
  8
0
  6
CONTINUOUS
 10
2.463560
 20
6.521240
  0
VERTEX
  8
0
  6
CONTINUOUS
 10
2.545400
 20
6.455680
  0
VERTEX
  8
0
  6
CONTINUOUS
 10
2.586320
 20
6.426640
  0
VERTEX
  8
0
  6
CONTINUOUS
 10
2.667720
 20
6.375600
  0
VERTEX
  8
0
  6
CONTINUOUS
 10
2.748240
 20
6.332920
  0
VERTEX
  8
0
  6
CONTINUOUS
 10
2.788720
 20
6.314440
  0
VERTEX
  8
0
  6
CONTINUOUS
 10
2.868360
 20
6.283640
  0
VERTEX
  8
0
  6
CONTINUOUS
 10
2.907960
 20
6.270880
  0
VERTEX
  8
0
  6
CONTINUOUS
 10
2.986720
 20
6.250640
  0
VERTEX
  8
0
  6
CONTINUOUS
 10
3.025440
 20
6.242720
  0
VERTEX
  8
0
  6
CONTINUOUS
 10
3.102440
 20
6.231720
  0
VERTEX
  8
0
  6
CONTINUOUS
 10
3.178120
 20
6.226440
  0
VERTEX
  8
0
  6
CONTINUOUS
 10
3.215080
 20
6.225120
  0
VERTEX
  8
0
  6
CONTINUOUS
 10
3.289000
 20
6.226880
  0
VERTEX
  8
0
  6
CONTINUOUS
 10
3.360720
 20
6.232160
  0
VERTEX
  8
0
  6
CONTINUOUS
 10
3.431120
 20
6.240960
  0
VERTEX
  8
0
  6
CONTINUOUS
 10
3.533200
 20
6.259440
  0
VERTEX
  8
0
  6
CONTINUOUS
 10
3.630880
 20
6.282320
  0
VERTEX
  8
0
  6
CONTINUOUS
 10
3.724160
 20
6.308720
  0
VERTEX
  8
0
  6
CONTINUOUS
 10
3.976280
 20
6.394080
  0
VERTEX
  8
0
  6
CONTINUOUS
 10
4.075280
 20
6.422680
  0
VERTEX
  8
0
  6
CONTINUOUS
 10
4.143480
 20
6.438080
  0
VERTEX
  8
0
  6
CONTINUOUS
 10
4.213440
 20
6.449520
  0
VERTEX
  8
0
  6
CONTINUOUS
 10
4.286040
 20
6.456120
  0
VERTEX
  8
0
  6
CONTINUOUS
 10
4.323440
 20
6.457440
  0
VERTEX
  8
0
  6
CONTINUOUS
 10
4.400000
 20
6.455240
  0
VERTEX
  8
0
  6
CONTINUOUS
 10
4.439160
 20
6.451280
  0
VERTEX
  8
0
  6
CONTINUOUS
 10
4.479640
 20
6.445560
  0
VERTEX
  8
0
  6
CONTINUOUS
 10
4.521000
 20
6.438080
  0
VERTEX
  8
0
  6
CONTINUOUS
 10
4.605920
 20
6.416080
  0
VERTEX
  8
0
  6
CONTINUOUS
 10
4.672360
 20
6.393200
  0
VERTEX
  8
0
  6
CONTINUOUS
 10
4.764320
 20
6.354040
  0
VERTEX
  8
0
  6
CONTINUOUS
 10
4.836480
 20
6.317080
  0
VERTEX
  8
0
  6
CONTINUOUS
 10
5.307720
 20
6.633000
  0
VERTEX
  8
0
  6
CONTINUOUS
 10
5.339400
 20
6.586800
  0
VERTEX
  8
0
  6
CONTINUOUS
 10
5.374160
 20
6.545880
  0
VERTEX
  8
0
  6
CONTINUOUS
 10
5.412440
 20
6.509360
  0
VERTEX
  8
0
  6
CONTINUOUS
 10
5.453360
 20
6.477680
  0
VERTEX
  8
0
  6
CONTINUOUS
 10
5.496920
 20
6.450840
  0
VERTEX
  8
0
  6
CONTINUOUS
 10
5.542680
 20
6.429280
  0
VERTEX
  8
0
  6
CONTINUOUS
 10
5.566000
 20
6.420040
  0
VERTEX
  8
0
  6
CONTINUOUS
 10
5.614400
 20
6.405960
  0
VERTEX
  8
0
  6
CONTINUOUS
 10
5.664120
 20
6.396720
  0
VERTEX
  8
0
  6
CONTINUOUS
 10
5.714720
 20
6.392760
  0
VERTEX
  8
0
  6
CONTINUOUS
 10
5.766200
 20
6.394080
  0
VERTEX
  8
0
  6
CONTINUOUS
 10
5.817680
 20
6.400680
  0
VERTEX
  8
0
  6
CONTINUOUS
 10
5.843640
 20
6.405520
  0
VERTEX
  8
0
  6
CONTINUOUS
 10
5.895120
 20
6.420040
  0
VERTEX
  8
0
  6
CONTINUOUS
 10
5.946160
 20
6.439840
  0
VERTEX
  8
0
  6
CONTINUOUS
 10
5.996320
 20
6.465360
  0
VERTEX
  8
0
  6
CONTINUOUS
 10
6.045160
 20
6.496160
  0
VERTEX
  8
0
  6
CONTINUOUS
 10
6.324560
 20
6.101040
  0
VERTEX
  8
0
  6
CONTINUOUS
 10
6.798440
 20
6.401560
  0
VERTEX
  8
0
  6
CONTINUOUS
 10
7.073000
 20
6.001160
  0
VERTEX
  8
0
  6
CONTINUOUS
 10
6.831000
 20
5.843200
  0
VERTEX
  8
0
  6
CONTINUOUS
 10
2.200000
 20
5.843200
  0
VERTEX
  8
0
  6
CONTINUOUS
 10
1.959320
 20
6.188160
  0
VERTEX
  8
0
  6
CONTINUOUS
 10
2.463560
 20
6.521240
  0
SEQEND
  8
0
  0
SOLID
  8
0
 62
    15
 10
4.995760
 20
2.833600
 11
5.641680
 21
2.458280
 12
4.818440
 22
2.730640
 13
5.464800
 23
2.355320
  0
POLYLINE
  8
0
  6
CONTINUOUS
 66
     1
 40
0.000000
 41
0.000000
  0
VERTEX
  8
0
  6
CONTINUOUS
 10
4.995760
 20
2.833600
  0
VERTEX
  8
0
  6
CONTINUOUS
 10
5.641680
 20
2.458280
  0
VERTEX
  8
0
  6
CONTINUOUS
 10
5.464800
 20
2.355320
  0
VERTEX
  8
0
  6
CONTINUOUS
 10
4.818440
 20
2.730640
  0
VERTEX
  8
0
  6
CONTINUOUS
 10
4.995760
 20
2.833600
  0
SEQEND
  8
0
  0
SOLID
  8
0
 62
    15
 10
6.169240
 20
4.481840
 11
6.815160
 21
4.106080
 12
6.005560
 22
4.399560
 13
6.651480
 23
4.024240
  0
POLYLINE
  8
0
  6
CONTINUOUS
 66
     1
 40
0.000000
 41
0.000000
  0
VERTEX
  8
0
  6
CONTINUOUS
 10
6.169240
 20
4.481840
  0
VERTEX
  8
0
  6
CONTINUOUS
 10
6.815160
 20
4.106080
  0
VERTEX
  8
0
  6
CONTINUOUS
 10
6.651480
 20
4.024240
  0
VERTEX
  8
0
  6
CONTINUOUS
 10
6.005560
 20
4.399560
  0
VERTEX
  8
0
  6
CONTINUOUS
 10
6.169240
 20
4.481840
  0
SEQEND
  8
0
  0
SOLID
  8
0
 62
    15
 10
6.005560
 20
4.399560
 11
6.651480
 21
4.024240
 12
5.869160
 22
4.302320
 13
6.515080
 23
3.926560
  0
POLYLINE
  8
0
  6
CONTINUOUS
 66
     1
 40
0.000000
 41
0.000000
  0
VERTEX
  8
0
  6
CONTINUOUS
 10
6.005560
 20
4.399560
  0
VERTEX
  8
0
  6
CONTINUOUS
 10
6.651480
 20
4.024240
  0
VERTEX
  8
0
  6
CONTINUOUS
 10
6.515080
 20
3.926560
  0
VERTEX
  8
0
  6
CONTINUOUS
 10
5.869160
 20
4.302320
  0
VERTEX
  8
0
  6
CONTINUOUS
 10
6.005560
 20
4.399560
  0
SEQEND
  8
0
  0
SOLID
  8
0
 62
    15
 10
5.869160
 20
4.302320
 11
6.515080
 21
3.926560
 12
5.756080
 22
4.192320
 13
6.402000
 23
3.816560
  0
POLYLINE
  8
0
  6
CONTINUOUS
 66
     1
 40
0.000000
 41
0.000000
  0
VERTEX
  8
0
  6
CONTINUOUS
 10
5.869160
 20
4.302320
  0
VERTEX
  8
0
  6
CONTINUOUS
 10
6.515080
 20
3.926560
  0
VERTEX
  8
0
  6
CONTINUOUS
 10
6.402000
 20
3.816560
  0
VERTEX
  8
0
  6
CONTINUOUS
 10
5.756080
 20
4.192320
  0
VERTEX
  8
0
  6
CONTINUOUS
 10
5.869160
 20
4.302320
  0
SEQEND
  8
0
  0
SOLID
  8
0
 62
    15
 10
5.756080
 20
4.192320
 11
6.402000
 21
3.816560
 12
5.664120
 22
4.073960
 13
6.310040
 23
3.698200
  0
POLYLINE
  8
0
  6
CONTINUOUS
 66
     1
 40
0.000000
 41
0.000000
  0
VERTEX
  8
0
  6
CONTINUOUS
 10
5.756080
 20
4.192320
  0
VERTEX
  8
0
  6
CONTINUOUS
 10
6.402000
 20
3.816560
  0
VERTEX
  8
0
  6
CONTINUOUS
 10
6.310040
 20
3.698200
  0
VERTEX
  8
0
  6
CONTINUOUS
 10
5.664120
 20
4.073960
  0
VERTEX
  8
0
  6
CONTINUOUS
 10
5.756080
 20
4.192320
  0
SEQEND
  8
0
  0
SOLID
  8
0
 62
    15
 10
5.664120
 20
4.073960
 11
6.310040
 21
3.698200
 12
5.589320
 22
3.950320
 13
6.235240
 23
3.575000
  0
POLYLINE
  8
0
  6
CONTINUOUS
 66
     1
 40
0.000000
 41
0.000000
  0
VERTEX
  8
0
  6
CONTINUOUS
 10
5.664120
 20
4.073960
  0
VERTEX
  8
0
  6
CONTINUOUS
 10
6.310040
 20
3.698200
  0
VERTEX
  8
0
  6
CONTINUOUS
 10
6.235240
 20
3.575000
  0
VERTEX
  8
0
  6
CONTINUOUS
 10
5.589320
 20
3.950320
  0
VERTEX
  8
0
  6
CONTINUOUS
 10
5.664120
 20
4.073960
  0
SEQEND
  8
0
  0
SOLID
  8
0
 62
    15
 10
5.589320
 20
3.950320
 11
6.235240
 21
3.575000
 12
5.479320
 22
3.702600
 13
6.125240
 23
3.326840
  0
POLYLINE
  8
0
  6
CONTINUOUS
 66
     1
 40
0.000000
 41
0.000000
  0
VERTEX
  8
0
  6
CONTINUOUS
 10
5.589320
 20
3.950320
  0
VERTEX
  8
0
  6
CONTINUOUS
 10
6.235240
 20
3.575000
  0
VERTEX
  8
0
  6
CONTINUOUS
 10
6.125240
 20
3.326840
  0
VERTEX
  8
0
  6
CONTINUOUS
 10
5.479320
 20
3.702600
  0
VERTEX
  8
0
  6
CONTINUOUS
 10
5.589320
 20
3.950320
  0
SEQEND
  8
0
  0
SOLID
  8
0
 62
    15
 10
5.479320
 20
3.702600
 11
6.125240
 21
3.326840
 12
5.438400
 22
3.578960
 13
6.084320
 23
3.203200
  0
POLYLINE
  8
0
  6
CONTINUOUS
 66
     1
 40
0.000000
 41
0.000000
  0
VERTEX
  8
0
  6
CONTINUOUS
 10
5.479320
 20
3.702600
  0
VERTEX
  8
0
  6
CONTINUOUS
 10
6.125240
 20
3.326840
  0
VERTEX
  8
0
  6
CONTINUOUS
 10
6.084320
 20
3.203200
  0
VERTEX
  8
0
  6
CONTINUOUS
 10
5.438400
 20
3.578960
  0
VERTEX
  8
0
  6
CONTINUOUS
 10
5.479320
 20
3.702600
  0
SEQEND
  8
0
  0
SOLID
  8
0
 62
    15
 10
5.438400
 20
3.578960
 11
6.084320
 21
3.203200
 12
5.400560
 22
3.451360
 13
6.046480
 23
3.075600
  0
POLYLINE
  8
0
  6
CONTINUOUS
 66
     1
 40
0.000000
 41
0.000000
  0
VERTEX
  8
0
  6
CONTINUOUS
 10
5.438400
 20
3.578960
  0
VERTEX
  8
0
  6
CONTINUOUS
 10
6.084320
 20
3.203200
  0
VERTEX
  8
0
  6
CONTINUOUS
 10
6.046480
 20
3.075600
  0
VERTEX
  8
0
  6
CONTINUOUS
 10
5.400560
 20
3.451360
  0
VERTEX
  8
0
  6
CONTINUOUS
 10
5.438400
 20
3.578960
  0
SEQEND
  8
0
  0
SOLID
  8
0
 62
    15
 10
5.400560
 20
3.451360
 11
6.046480
 21
3.075600
 12
5.304640
 22
3.193080
 13
5.950560
 23
2.817320
  0
POLYLINE
  8
0
  6
CONTINUOUS
 66
     1
 40
0.000000
 41
0.000000
  0
VERTEX
  8
0
  6
CONTINUOUS
 10
5.400560
 20
3.451360
  0
VERTEX
  8
0
  6
CONTINUOUS
 10
6.046480
 20
3.075600
  0
VERTEX
  8
0
  6
CONTINUOUS
 10
5.950560
 20
2.817320
  0
VERTEX
  8
0
  6
CONTINUOUS
 10
5.304640
 20
3.193080
  0
VERTEX
  8
0
  6
CONTINUOUS
 10
5.400560
 20
3.451360
  0
SEQEND
  8
0
  0
SOLID
  8
0
 62
    15
 10
5.304640
 20
3.193080
 11
5.950560
 21
2.817320
 12
5.231160
 22
3.067240
 13
5.877080
 23
2.691480
  0
POLYLINE
  8
0
  6
CONTINUOUS
 66
     1
 40
0.000000
 41
0.000000
  0
VERTEX
  8
0
  6
CONTINUOUS
 10
5.304640
 20
3.193080
  0
VERTEX
  8
0
  6
CONTINUOUS
 10
5.950560
 20
2.817320
  0
VERTEX
  8
0
  6
CONTINUOUS
 10
5.877080
 20
2.691480
  0
VERTEX
  8
0
  6
CONTINUOUS
 10
5.231160
 20
3.067240
  0
VERTEX
  8
0
  6
CONTINUOUS
 10
5.304640
 20
3.193080
  0
SEQEND
  8
0
  0
SOLID
  8
0
 62
    15
 10
5.231160
 20
3.067240
 11
5.877080
 21
2.691480
 12
5.130400
 22
2.946680
 13
5.776320
 23
2.571360
  0
POLYLINE
  8
0
  6
CONTINUOUS
 66
     1
 40
0.000000
 41
0.000000
  0
VERTEX
  8
0
  6
CONTINUOUS
 10
5.231160
 20
3.067240
  0
VERTEX
  8
0
  6
CONTINUOUS
 10
5.877080
 20
2.691480
  0
VERTEX
  8
0
  6
CONTINUOUS
 10
5.776320
 20
2.571360
  0
VERTEX
  8
0
  6
CONTINUOUS
 10
5.130400
 20
2.946680
  0
VERTEX
  8
0
  6
CONTINUOUS
 10
5.231160
 20
3.067240
  0
SEQEND
  8
0
  0
SOLID
  8
0
 62
    15
 10
5.130400
 20
2.946680
 11
5.776320
 21
2.571360
 12
4.995760
 22
2.833600
 13
5.641680
 23
2.458280
  0
POLYLINE
  8
0
  6
CONTINUOUS
 66
     1
 40
0.000000
 41
0.000000
  0
VERTEX
  8
0
  6
CONTINUOUS
 10
5.130400
 20
2.946680
  0
VERTEX
  8
0
  6
CONTINUOUS
 10
5.776320
 20
2.571360
  0
VERTEX
  8
0
  6
CONTINUOUS
 10
5.641680
 20
2.458280
  0
VERTEX
  8
0
  6
CONTINUOUS
 10
4.995760
 20
2.833600
  0
VERTEX
  8
0
  6
CONTINUOUS
 10
5.130400
 20
2.946680
  0
SEQEND
  8
0
  0
SOLID
  8
0
 62
    15
 10
6.362840
 20
4.544320
 11
7.008760
 21
4.169000
 12
6.169240
 22
4.481840
 13
6.815160
 23
4.106080
  0
POLYLINE
  8
0
  6
CONTINUOUS
 66
     1
 40
0.000000
 41
0.000000
  0
VERTEX
  8
0
  6
CONTINUOUS
 10
6.362840
 20
4.544320
  0
VERTEX
  8
0
  6
CONTINUOUS
 10
7.008760
 20
4.169000
  0
VERTEX
  8
0
  6
CONTINUOUS
 10
6.815160
 20
4.106080
  0
VERTEX
  8
0
  6
CONTINUOUS
 10
6.169240
 20
4.481840
  0
VERTEX
  8
0
  6
CONTINUOUS
 10
6.362840
 20
4.544320
  0
SEQEND
  8
0
  0
SOLID
  8
0
 62
    15
 10
4.818440
 20
2.730640
 11
5.464800
 21
2.355320
 12
4.802160
 22
2.163480
 13
5.448080
 23
1.788160
  0
POLYLINE
  8
0
  6
CONTINUOUS
 66
     1
 40
0.000000
 41
0.000000
  0
VERTEX
  8
0
  6
CONTINUOUS
 10
4.818440
 20
2.730640
  0
VERTEX
  8
0
  6
CONTINUOUS
 10
5.464800
 20
2.355320
  0
VERTEX
  8
0
  6
CONTINUOUS
 10
5.448080
 20
1.788160
  0
VERTEX
  8
0
  6
CONTINUOUS
 10
4.802160
 20
2.163480
  0
VERTEX
  8
0
  6
CONTINUOUS
 10
4.818440
 20
2.730640
  0
SEQEND
  8
0
  0
SOLID
  8
0
 62
    15
 10
4.802160
 20
2.163480
 11
5.448080
 21
1.788160
 12
4.692600
 22
2.160400
 13
5.338520
 23
1.784640
  0
POLYLINE
  8
0
  6
CONTINUOUS
 66
     1
 40
0.000000
 41
0.000000
  0
VERTEX
  8
0
  6
CONTINUOUS
 10
4.802160
 20
2.163480
  0
VERTEX
  8
0
  6
CONTINUOUS
 10
5.448080
 20
1.788160
  0
VERTEX
  8
0
  6
CONTINUOUS
 10
5.338520
 20
1.784640
  0
VERTEX
  8
0
  6
CONTINUOUS
 10
4.692600
 20
2.160400
  0
VERTEX
  8
0
  6
CONTINUOUS
 10
4.802160
 20
2.163480
  0
SEQEND
  8
0
  0
SOLID
  8
0
 62
    15
 10
4.692600
 20
2.160400
 11
5.338520
 21
1.784640
 12
4.590960
 22
2.135320
 13
5.236880
 23
1.759560
  0
POLYLINE
  8
0
  6
CONTINUOUS
 66
     1
 40
0.000000
 41
0.000000
  0
VERTEX
  8
0
  6
CONTINUOUS
 10
4.692600
 20
2.160400
  0
VERTEX
  8
0
  6
CONTINUOUS
 10
5.338520
 20
1.784640
  0
VERTEX
  8
0
  6
CONTINUOUS
 10
5.236880
 20
1.759560
  0
VERTEX
  8
0
  6
CONTINUOUS
 10
4.590960
 20
2.135320
  0
VERTEX
  8
0
  6
CONTINUOUS
 10
4.692600
 20
2.160400
  0
SEQEND
  8
0
  0
SOLID
  8
0
 62
    15
 10
4.590960
 20
2.135320
 11
5.236880
 21
1.759560
 12
4.499880
 22
2.090880
 13
5.145800
 23
1.715560
  0
POLYLINE
  8
0
  6
CONTINUOUS
 66
     1
 40
0.000000
 41
0.000000
  0
VERTEX
  8
0
  6
CONTINUOUS
 10
4.590960
 20
2.135320
  0
VERTEX
  8
0
  6
CONTINUOUS
 10
5.236880
 20
1.759560
  0
VERTEX
  8
0
  6
CONTINUOUS
 10
5.145800
 20
1.715560
  0
VERTEX
  8
0
  6
CONTINUOUS
 10
4.499880
 20
2.090880
  0
VERTEX
  8
0
  6
CONTINUOUS
 10
4.590960
 20
2.135320
  0
SEQEND
  8
0
  0
SOLID
  8
0
 62
    15
 10
4.499880
 20
2.090880
 11
5.145800
 21
1.715560
 12
4.420680
 22
2.028840
 13
5.066600
 23
1.653520
  0
POLYLINE
  8
0
  6
CONTINUOUS
 66
     1
 40
0.000000
 41
0.000000
  0
VERTEX
  8
0
  6
CONTINUOUS
 10
4.499880
 20
2.090880
  0
VERTEX
  8
0
  6
CONTINUOUS
 10
5.145800
 20
1.715560
  0
VERTEX
  8
0
  6
CONTINUOUS
 10
5.066600
 20
1.653520
  0
VERTEX
  8
0
  6
CONTINUOUS
 10
4.420680
 20
2.028840
  0
VERTEX
  8
0
  6
CONTINUOUS
 10
4.499880
 20
2.090880
  0
SEQEND
  8
0
  0
SOLID
  8
0
 62
    15
 10
4.420680
 20
2.028840
 11
5.066600
 21
1.653520
 12
4.355560
 22
1.951400
 13
5.001480
 23
1.575640
  0
POLYLINE
  8
0
  6
CONTINUOUS
 66
     1
 40
0.000000
 41
0.000000
  0
VERTEX
  8
0
  6
CONTINUOUS
 10
4.420680
 20
2.028840
  0
VERTEX
  8
0
  6
CONTINUOUS
 10
5.066600
 20
1.653520
  0
VERTEX
  8
0
  6
CONTINUOUS
 10
5.001480
 20
1.575640
  0
VERTEX
  8
0
  6
CONTINUOUS
 10
4.355560
 20
1.951400
  0
VERTEX
  8
0
  6
CONTINUOUS
 10
4.420680
 20
2.028840
  0
SEQEND
  8
0
  0
SOLID
  8
0
 62
    15
 10
4.355560
 20
1.951400
 11
5.001480
 21
1.575640
 12
4.306280
 22
1.859440
 13
4.952200
 23
1.484120
  0
POLYLINE
  8
0
  6
CONTINUOUS
 66
     1
 40
0.000000
 41
0.000000
  0
VERTEX
  8
0
  6
CONTINUOUS
 10
4.355560
 20
1.951400
  0
VERTEX
  8
0
  6
CONTINUOUS
 10
5.001480
 20
1.575640
  0
VERTEX
  8
0
  6
CONTINUOUS
 10
4.952200
 20
1.484120
  0
VERTEX
  8
0
  6
CONTINUOUS
 10
4.306280
 20
1.859440
  0
VERTEX
  8
0
  6
CONTINUOUS
 10
4.355560
 20
1.951400
  0
SEQEND
  8
0
  0
SOLID
  8
0
 62
    15
 10
4.306280
 20
1.859440
 11
4.952200
 21
1.484120
 12
4.274600
 22
1.756040
 13
4.920520
 23
1.380720
  0
POLYLINE
  8
0
  6
CONTINUOUS
 66
     1
 40
0.000000
 41
0.000000
  0
VERTEX
  8
0
  6
CONTINUOUS
 10
4.306280
 20
1.859440
  0
VERTEX
  8
0
  6
CONTINUOUS
 10
4.952200
 20
1.484120
  0
VERTEX
  8
0
  6
CONTINUOUS
 10
4.920520
 20
1.380720
  0
VERTEX
  8
0
  6
CONTINUOUS
 10
4.274600
 20
1.756040
  0
VERTEX
  8
0
  6
CONTINUOUS
 10
4.306280
 20
1.859440
  0
SEQEND
  8
0
  0
SOLID
  8
0
 62
    15
 10
4.274600
 20
1.756040
 11
4.920520
 21
1.380720
 12
4.262280
 22
1.642520
 13
4.908640
 23
1.267200
  0
POLYLINE
  8
0
  6
CONTINUOUS
 66
     1
 40
0.000000
 41
0.000000
  0
VERTEX
  8
0
  6
CONTINUOUS
 10
4.274600
 20
1.756040
  0
VERTEX
  8
0
  6
CONTINUOUS
 10
4.920520
 20
1.380720
  0
VERTEX
  8
0
  6
CONTINUOUS
 10
4.908640
 20
1.267200
  0
VERTEX
  8
0
  6
CONTINUOUS
 10
4.262280
 20
1.642520
  0
VERTEX
  8
0
  6
CONTINUOUS
 10
4.274600
 20
1.756040
  0
SEQEND
  8
0
  0
SOLID
  8
0
 62
    15
 10
4.262280
 20
1.642520
 11
4.908640
 21
1.267200
 12
3.778720
 22
1.644720
 13
4.424640
 23
1.269400
  0
POLYLINE
  8
0
  6
CONTINUOUS
 66
     1
 40
0.000000
 41
0.000000
  0
VERTEX
  8
0
  6
CONTINUOUS
 10
4.262280
 20
1.642520
  0
VERTEX
  8
0
  6
CONTINUOUS
 10
4.908640
 20
1.267200
  0
VERTEX
  8
0
  6
CONTINUOUS
 10
4.424640
 20
1.269400
  0
VERTEX
  8
0
  6
CONTINUOUS
 10
3.778720
 20
1.644720
  0
VERTEX
  8
0
  6
CONTINUOUS
 10
4.262280
 20
1.642520
  0
SEQEND
  8
0
  0
SOLID
  8
0
 62
    15
 10
3.778720
 20
1.644720
 11
4.424640
 21
1.269400
 12
3.747920
 22
1.084600
 13
4.393840
 23
0.708840
  0
POLYLINE
  8
0
  6
CONTINUOUS
 66
     1
 40
0.000000
 41
0.000000
  0
VERTEX
  8
0
  6
CONTINUOUS
 10
3.778720
 20
1.644720
  0
VERTEX
  8
0
  6
CONTINUOUS
 10
4.424640
 20
1.269400
  0
VERTEX
  8
0
  6
CONTINUOUS
 10
4.393840
 20
0.708840
  0
VERTEX
  8
0
  6
CONTINUOUS
 10
3.747920
 20
1.084600
  0
VERTEX
  8
0
  6
CONTINUOUS
 10
3.778720
 20
1.644720
  0
SEQEND
  8
0
  0
SOLID
  8
0
 62
    15
 10
3.747920
 20
1.084600
 11
4.393840
 21
0.708840
 12
3.262600
 22
1.093400
 13
3.908520
 23
0.718080
  0
POLYLINE
  8
0
  6
CONTINUOUS
 66
     1
 40
0.000000
 41
0.000000
  0
VERTEX
  8
0
  6
CONTINUOUS
 10
3.747920
 20
1.084600
  0
VERTEX
  8
0
  6
CONTINUOUS
 10
4.393840
 20
0.708840
  0
VERTEX
  8
0
  6
CONTINUOUS
 10
3.908520
 20
0.718080
  0
VERTEX
  8
0
  6
CONTINUOUS
 10
3.262600
 20
1.093400
  0
VERTEX
  8
0
  6
CONTINUOUS
 10
3.747920
 20
1.084600
  0
SEQEND
  8
0
  0
SOLID
  8
0
 62
    15
 10
6.384400
 20
5.148000
 11
7.030320
 21
4.772680
 12
6.362840
 22
4.544320
 13
7.008760
 23
4.169000
  0
POLYLINE
  8
0
  6
CONTINUOUS
 66
     1
 40
0.000000
 41
0.000000
  0
VERTEX
  8
0
  6
CONTINUOUS
 10
6.384400
 20
5.148000
  0
VERTEX
  8
0
  6
CONTINUOUS
 10
7.030320
 20
4.772680
  0
VERTEX
  8
0
  6
CONTINUOUS
 10
7.008760
 20
4.169000
  0
VERTEX
  8
0
  6
CONTINUOUS
 10
6.362840
 20
4.544320
  0
VERTEX
  8
0
  6
CONTINUOUS
 10
6.384400
 20
5.148000
  0
SEQEND
  8
0
  0
POLYLINE
  8
0
  6
CONTINUOUS
 66
     1
 40
0.000000
 41
0.000000
  0
VERTEX
  8
0
  6
CONTINUOUS
 10
6.362840
 20
4.544320
  0
VERTEX
  8
0
  6
CONTINUOUS
 10
6.169240
 20
4.481840
  0
VERTEX
  8
0
  6
CONTINUOUS
 10
6.005560
 20
4.399560
  0
VERTEX
  8
0
  6
CONTINUOUS
 10
5.869160
 20
4.302320
  0
VERTEX
  8
0
  6
CONTINUOUS
 10
5.756080
 20
4.192320
  0
VERTEX
  8
0
  6
CONTINUOUS
 10
5.664120
 20
4.073960
  0
VERTEX
  8
0
  6
CONTINUOUS
 10
5.589320
 20
3.950320
  0
VERTEX
  8
0
  6
CONTINUOUS
 10
5.479320
 20
3.702600
  0
VERTEX
  8
0
  6
CONTINUOUS
 10
5.438400
 20
3.578960
  0
VERTEX
  8
0
  6
CONTINUOUS
 10
5.400560
 20
3.451360
  0
VERTEX
  8
0
  6
CONTINUOUS
 10
5.304640
 20
3.193080
  0
VERTEX
  8
0
  6
CONTINUOUS
 10
5.231160
 20
3.067240
  0
VERTEX
  8
0
  6
CONTINUOUS
 10
5.130400
 20
2.946680
  0
VERTEX
  8
0
  6
CONTINUOUS
 10
4.995760
 20
2.833600
  0
VERTEX
  8
0
  6
CONTINUOUS
 10
4.818440
 20
2.730640
  0
VERTEX
  8
0
  6
CONTINUOUS
 10
4.802160
 20
2.163480
  0
VERTEX
  8
0
  6
CONTINUOUS
 10
4.692600
 20
2.160400
  0
VERTEX
  8
0
  6
CONTINUOUS
 10
4.590960
 20
2.135320
  0
VERTEX
  8
0
  6
CONTINUOUS
 10
4.499880
 20
2.090880
  0
VERTEX
  8
0
  6
CONTINUOUS
 10
4.420680
 20
2.028840
  0
VERTEX
  8
0
  6
CONTINUOUS
 10
4.355560
 20
1.951400
  0
VERTEX
  8
0
  6
CONTINUOUS
 10
4.306280
 20
1.859440
  0
VERTEX
  8
0
  6
CONTINUOUS
 10
4.274600
 20
1.756040
  0
VERTEX
  8
0
  6
CONTINUOUS
 10
4.262280
 20
1.642520
  0
VERTEX
  8
0
  6
CONTINUOUS
 10
3.778720
 20
1.644720
  0
VERTEX
  8
0
  6
CONTINUOUS
 10
3.747920
 20
1.084600
  0
VERTEX
  8
0
  6
CONTINUOUS
 10
3.262600
 20
1.093400
  0
VERTEX
  8
0
  6
CONTINUOUS
 10
3.274480
 20
1.382480
  0
VERTEX
  8
0
  6
CONTINUOUS
 10
5.963760
 20
5.152840
  0
VERTEX
  8
0
  6
CONTINUOUS
 10
6.384400
 20
5.148000
  0
VERTEX
  8
0
  6
CONTINUOUS
 10
6.362840
 20
4.544320
  0
SEQEND
  8
0
  0
TEXT
  8
0
 10
5.369320
 20
0.918280
 40
0.138192
  1
BA  503
 41
1.000000
  7
SN0
 71
     0
 72
     5
 11
5.960103
 21
0.918280
  0
TEXT
  8
0
 10
5.213120
 20
0.726440
 40
0.138192
  1
3/4" x 5-1/8"
 41
1.000000
  7
SN0
 71
     0
 72
     5
 11
6.114340
 21
0.726440
  0
ENDSEC
  0
EOF
