  0
SECTION
  2
HEADER
  9
$ACADVER
  1
AC1006
  9
$EXTMIN
 10
1.056440
 20
0.533280
  9
$EXTMAX
 10
6.946720
 20
3.094960
  9
$LTSCALE
 40
0.044000
  9
$PDMODE
 70
    35
  9
$PDSIZE
 40
0.035200
  0
ENDSEC
  0
SECTION
  2
TABLES
  0
TABLE
  2
LTYPE
 70
     9
  0
LTYPE
  2
CONTINUOUS
 70
    64
  3
Solid line
 72
    65
 73
     0
 40
0.000000
  0
LTYPE
  2
DASHED
 70
    64
  3
__ __ __ __ __ __ __ __ __ __ __ __ __ __ __
 72
    65
 73
     2
 40
0.000330
 49
0.000220
 49
-0.000110
  0
LTYPE
  2
HIDDEN
 70
    64
  3
 _ _ _ _ _ _ _ _ _ _ _ _ _ _ _ _ _ _ _ _ _ _
 72
    65
 73
     2
 40
0.000165
 49
0.000110
 49
-0.000055
  0
LTYPE
  2
CENTER
 70
    64
  3
____ _ ____ _ ____ _ ____ _ ____ _ ____ _ ____
 72
    65
 73
     4
 40
0.000880
 49
0.000550
 49
-0.000110
 49
0.000110
 49
-0.000110
  0
LTYPE
  2
PHANTOM
 70
    64
  3
_____ _ _ _____ _ _ _____ _ _ _____ _ _ ____
 72
    65
 73
     6
 40
0.001100
 49
0.000550
 49
-0.000110
 49
0.000110
 49
-0.000110
 49
0.000110
 49
-0.000110
  0
LTYPE
  2
DOT
 70
    64
  3
...............................................
 72
    65
 73
     2
 40
0.000110
 49
0.000000
 49
-0.000110
  0
LTYPE
  2
DASHDOT
 70
    64
  3
__ . __ . __ . __ . __ . __ . __ . __ . __ . __
 72
    65
 73
     4
 40
0.000440
 49
0.000220
 49
-0.000110
 49
0.000000
 49
-0.000110
  0
LTYPE
  2
BORDER
 70
    64
  3
__ __ . __ __ . __ __ . __ __ . __ __ . __ __
 72
    65
 73
     6
 40
0.000770
 49
0.000220
 49
-0.000110
 49
0.000220
 49
-0.000110
 49
0.000000
 49
-0.000110
  0
LTYPE
  2
DIVIDE
 70
    64
  3
__ . . __ . . __ . . __ . . __ . . __ . . __
 72
    65
 73
     6
 40
0.000550
 49
0.000220
 49
-0.000110
 49
0.000000
 49
-0.000110
 49
0.000000
 49
-0.000110
  0
LTYPE
  2
DOTDOT
 70
    64
  3
 . .  . .  . .  . .  . .  . . 
 72
    65
 73
     5
 40
0.000242
 49
-0.000110
 49
0.000000
 49
-0.000110
 49
0.000000
 49
-0.000110
  0
ENDTAB
  0
TABLE
  2
STYLE
 70
     2
  0
STYLE
 70
     0
  2
SN0
 40
0.000000
 41
0.000440
 50
0.000000
 71
     0
 42
0.000000
  3
ROMAND
  0
STYLE
 70
    68
  2
SV0
 40
0.000000
 41
0.000440
 50
0.000000
 71
     0
 42
0.000000
  3
ROMAND
  0
ENDTAB
  0
TABLE
  2
LAYER
 70
     3
  0
LAYER
  2
FOREGROUND
 70
    64
 62
     7
  6
CONTINUOUS
  0
LAYER
  2
BACKGROUND
 70
    65
 62
    -7
  6
CONTINUOUS
  0
LAYER
  2
0
 70
    64
 62
     7
  6
CONTINUOUS
  0
ENDTAB
  0
ENDSEC
  0
SECTION
  2
ENTITIES
  0
POLYLINE
  8
FOREGROUND
  6
CONTINUOUS
 66
     1
 40
0.000000
 41
0.000000
  0
VERTEX
  8
FOREGROUND
  6
CONTINUOUS
 10
0.000000
 20
3.628240
  0
VERTEX
  8
FOREGROUND
  6
CONTINUOUS
 10
8.499920
 20
3.628240
  0
VERTEX
  8
FOREGROUND
  6
CONTINUOUS
 10
8.499920
 20
-7.371760
  0
VERTEX
  8
FOREGROUND
  6
CONTINUOUS
 10
0.000000
 20
-7.371760
  0
VERTEX
  8
FOREGROUND
  6
CONTINUOUS
 10
0.000000
 20
3.628240
  0
SEQEND
  8
0
  0
POLYLINE
  8
FOREGROUND
  6
CONTINUOUS
 66
     1
 40
0.000000
 41
0.000000
  0
VERTEX
  8
FOREGROUND
  6
CONTINUOUS
 10
0.000000
 20
3.628240
  0
VERTEX
  8
FOREGROUND
  6
CONTINUOUS
 10
8.499920
 20
3.628240
  0
VERTEX
  8
FOREGROUND
  6
CONTINUOUS
 10
8.499920
 20
-7.371760
  0
VERTEX
  8
FOREGROUND
  6
CONTINUOUS
 10
0.000000
 20
-7.371760
  0
VERTEX
  8
FOREGROUND
  6
CONTINUOUS
 10
0.000000
 20
3.628240
  0
SEQEND
  8
0
  0
POLYLINE
  8
0
  6
CONTINUOUS
 66
     1
 40
0.014080
 41
0.014080
  0
VERTEX
  8
0
  6
CONTINUOUS
 10
6.641800
 20
2.587200
  0
VERTEX
  8
0
  6
CONTINUOUS
 10
6.583720
 20
2.471480
  0
VERTEX
  8
0
  6
CONTINUOUS
 10
6.525640
 20
2.368520
  0
VERTEX
  8
0
  6
CONTINUOUS
 10
6.464920
 20
2.278320
  0
VERTEX
  8
0
  6
CONTINUOUS
 10
6.422240
 20
2.224200
  0
VERTEX
  8
0
  6
CONTINUOUS
 10
6.377360
 20
2.175360
  0
VERTEX
  8
0
  6
CONTINUOUS
 10
6.329840
 20
2.130920
  0
VERTEX
  8
0
  6
CONTINUOUS
 10
6.305200
 20
2.110240
  0
VERTEX
  8
0
  6
CONTINUOUS
 10
6.252400
 20
2.072400
  0
VERTEX
  8
0
  6
CONTINUOUS
 10
6.224680
 20
2.054800
  0
VERTEX
  8
0
  6
CONTINUOUS
 10
6.165720
 20
2.022680
  0
VERTEX
  8
0
  6
CONTINUOUS
 10
6.101920
 20
1.994520
  0
VERTEX
  8
0
  6
CONTINUOUS
 10
6.068040
 20
1.981320
  0
VERTEX
  8
0
  6
CONTINUOUS
 10
5.995880
 20
1.958000
  0
VERTEX
  8
0
  6
CONTINUOUS
 10
5.918000
 20
1.937760
  0
VERTEX
  8
0
  6
CONTINUOUS
 10
5.833520
 20
1.920160
  0
VERTEX
  8
0
  6
CONTINUOUS
 10
5.741560
 20
1.905200
  0
VERTEX
  8
0
  6
CONTINUOUS
 10
5.704600
 20
1.703680
  0
VERTEX
  8
0
  6
CONTINUOUS
 10
5.657960
 20
1.703680
  0
VERTEX
  8
0
  6
CONTINUOUS
 10
5.591080
 20
1.699720
  0
VERTEX
  8
0
  6
CONTINUOUS
 10
5.527280
 20
1.690480
  0
VERTEX
  8
0
  6
CONTINUOUS
 10
5.486800
 20
1.682120
  0
VERTEX
  8
0
  6
CONTINUOUS
 10
5.447640
 20
1.671560
  0
VERTEX
  8
0
  6
CONTINUOUS
 10
5.409800
 20
1.659240
  0
VERTEX
  8
0
  6
CONTINUOUS
 10
5.374160
 20
1.645160
  0
VERTEX
  8
0
  6
CONTINUOUS
 10
5.339400
 20
1.629320
  0
VERTEX
  8
0
  6
CONTINUOUS
 10
5.274720
 20
1.592800
  0
VERTEX
  8
0
  6
CONTINUOUS
 10
5.216200
 20
1.550120
  0
VERTEX
  8
0
  6
CONTINUOUS
 10
5.163400
 20
1.502600
  0
VERTEX
  8
0
  6
CONTINUOUS
 10
5.139200
 20
1.476640
  0
VERTEX
  8
0
  6
CONTINUOUS
 10
5.095640
 20
1.421640
  0
VERTEX
  8
0
  6
CONTINUOUS
 10
5.057360
 20
1.363120
  0
VERTEX
  8
0
  6
CONTINUOUS
 10
5.040640
 20
1.332760
  0
VERTEX
  8
0
  6
CONTINUOUS
 10
5.011600
 20
1.269400
  0
VERTEX
  8
0
  6
CONTINUOUS
 10
4.988280
 20
1.203840
  0
VERTEX
  8
0
  6
CONTINUOUS
 10
4.978600
 20
1.170400
  0
VERTEX
  8
0
  6
CONTINUOUS
 10
4.964080
 20
1.102200
  0
VERTEX
  8
0
  6
CONTINUOUS
 10
4.955280
 20
1.033560
  0
VERTEX
  8
0
  6
CONTINUOUS
 10
4.952200
 20
0.964480
  0
VERTEX
  8
0
  6
CONTINUOUS
 10
4.644200
 20
0.942040
  0
VERTEX
  8
0
  6
CONTINUOUS
 10
4.650800
 20
1.864720
  0
VERTEX
  8
0
  6
CONTINUOUS
 10
6.106760
 20
3.077800
  0
VERTEX
  8
0
  6
CONTINUOUS
 10
6.938800
 20
3.087040
  0
VERTEX
  8
0
  6
CONTINUOUS
 10
6.899200
 20
2.565640
  0
VERTEX
  8
0
  6
CONTINUOUS
 10
6.641800
 20
2.587200
  0
SEQEND
  8
0
  0
SOLID
  8
0
 62
    15
 10
1.939960
 20
1.682120
 11
2.596440
 21
1.307240
 12
1.786840
 22
1.636800
 13
2.442880
 23
1.261920
  0
POLYLINE
  8
0
  6
CONTINUOUS
 66
     1
 40
0.000000
 41
0.000000
  0
VERTEX
  8
0
  6
CONTINUOUS
 10
1.939960
 20
1.682120
  0
VERTEX
  8
0
  6
CONTINUOUS
 10
2.596440
 20
1.307240
  0
VERTEX
  8
0
  6
CONTINUOUS
 10
2.442880
 20
1.261920
  0
VERTEX
  8
0
  6
CONTINUOUS
 10
1.786840
 20
1.636800
  0
VERTEX
  8
0
  6
CONTINUOUS
 10
1.939960
 20
1.682120
  0
SEQEND
  8
0
  0
SOLID
  8
0
 62
    15
 10
2.977480
 20
2.427040
 11
3.633520
 21
2.052160
 12
2.898280
 22
2.298560
 13
3.554320
 23
1.923680
  0
POLYLINE
  8
0
  6
CONTINUOUS
 66
     1
 40
0.000000
 41
0.000000
  0
VERTEX
  8
0
  6
CONTINUOUS
 10
2.977480
 20
2.427040
  0
VERTEX
  8
0
  6
CONTINUOUS
 10
3.633520
 20
2.052160
  0
VERTEX
  8
0
  6
CONTINUOUS
 10
3.554320
 20
1.923680
  0
VERTEX
  8
0
  6
CONTINUOUS
 10
2.898280
 20
2.298560
  0
VERTEX
  8
0
  6
CONTINUOUS
 10
2.977480
 20
2.427040
  0
SEQEND
  8
0
  0
SOLID
  8
0
 62
    15
 10
2.898280
 20
2.298560
 11
3.554320
 21
1.923680
 12
2.813360
 22
2.190760
 13
3.469400
 23
1.815880
  0
POLYLINE
  8
0
  6
CONTINUOUS
 66
     1
 40
0.000000
 41
0.000000
  0
VERTEX
  8
0
  6
CONTINUOUS
 10
2.898280
 20
2.298560
  0
VERTEX
  8
0
  6
CONTINUOUS
 10
3.554320
 20
1.923680
  0
VERTEX
  8
0
  6
CONTINUOUS
 10
3.469400
 20
1.815880
  0
VERTEX
  8
0
  6
CONTINUOUS
 10
2.813360
 20
2.190760
  0
VERTEX
  8
0
  6
CONTINUOUS
 10
2.898280
 20
2.298560
  0
SEQEND
  8
0
  0
SOLID
  8
0
 62
    15
 10
2.813360
 20
2.190760
 11
3.469400
 21
1.815880
 12
2.718320
 22
2.101880
 13
3.374360
 23
1.726560
  0
POLYLINE
  8
0
  6
CONTINUOUS
 66
     1
 40
0.000000
 41
0.000000
  0
VERTEX
  8
0
  6
CONTINUOUS
 10
2.813360
 20
2.190760
  0
VERTEX
  8
0
  6
CONTINUOUS
 10
3.469400
 20
1.815880
  0
VERTEX
  8
0
  6
CONTINUOUS
 10
3.374360
 20
1.726560
  0
VERTEX
  8
0
  6
CONTINUOUS
 10
2.718320
 20
2.101880
  0
VERTEX
  8
0
  6
CONTINUOUS
 10
2.813360
 20
2.190760
  0
SEQEND
  8
0
  0
SOLID
  8
0
 62
    15
 10
2.718320
 20
2.101880
 11
3.374360
 21
1.726560
 12
2.608760
 22
2.029720
 13
3.264800
 23
1.654840
  0
POLYLINE
  8
0
  6
CONTINUOUS
 66
     1
 40
0.000000
 41
0.000000
  0
VERTEX
  8
0
  6
CONTINUOUS
 10
2.718320
 20
2.101880
  0
VERTEX
  8
0
  6
CONTINUOUS
 10
3.374360
 20
1.726560
  0
VERTEX
  8
0
  6
CONTINUOUS
 10
3.264800
 20
1.654840
  0
VERTEX
  8
0
  6
CONTINUOUS
 10
2.608760
 20
2.029720
  0
VERTEX
  8
0
  6
CONTINUOUS
 10
2.718320
 20
2.101880
  0
SEQEND
  8
0
  0
SOLID
  8
0
 62
    15
 10
2.608760
 20
2.029720
 11
3.264800
 21
1.654840
 12
2.481160
 22
1.972960
 13
3.137200
 23
1.598080
  0
POLYLINE
  8
0
  6
CONTINUOUS
 66
     1
 40
0.000000
 41
0.000000
  0
VERTEX
  8
0
  6
CONTINUOUS
 10
2.608760
 20
2.029720
  0
VERTEX
  8
0
  6
CONTINUOUS
 10
3.264800
 20
1.654840
  0
VERTEX
  8
0
  6
CONTINUOUS
 10
3.137200
 20
1.598080
  0
VERTEX
  8
0
  6
CONTINUOUS
 10
2.481160
 20
1.972960
  0
VERTEX
  8
0
  6
CONTINUOUS
 10
2.608760
 20
2.029720
  0
SEQEND
  8
0
  0
SOLID
  8
0
 62
    15
 10
2.481160
 20
1.972960
 11
3.137200
 21
1.598080
 12
2.331120
 22
1.929400
 13
2.987160
 23
1.554520
  0
POLYLINE
  8
0
  6
CONTINUOUS
 66
     1
 40
0.000000
 41
0.000000
  0
VERTEX
  8
0
  6
CONTINUOUS
 10
2.481160
 20
1.972960
  0
VERTEX
  8
0
  6
CONTINUOUS
 10
3.137200
 20
1.598080
  0
VERTEX
  8
0
  6
CONTINUOUS
 10
2.987160
 20
1.554520
  0
VERTEX
  8
0
  6
CONTINUOUS
 10
2.331120
 20
1.929400
  0
VERTEX
  8
0
  6
CONTINUOUS
 10
2.481160
 20
1.972960
  0
SEQEND
  8
0
  0
SOLID
  8
0
 62
    15
 10
2.331120
 20
1.929400
 11
2.987160
 21
1.554520
 12
2.154680
 22
1.896840
 13
2.810720
 23
1.521960
  0
POLYLINE
  8
0
  6
CONTINUOUS
 66
     1
 40
0.000000
 41
0.000000
  0
VERTEX
  8
0
  6
CONTINUOUS
 10
2.331120
 20
1.929400
  0
VERTEX
  8
0
  6
CONTINUOUS
 10
2.987160
 20
1.554520
  0
VERTEX
  8
0
  6
CONTINUOUS
 10
2.810720
 20
1.521960
  0
VERTEX
  8
0
  6
CONTINUOUS
 10
2.154680
 20
1.896840
  0
VERTEX
  8
0
  6
CONTINUOUS
 10
2.331120
 20
1.929400
  0
SEQEND
  8
0
  0
SOLID
  8
0
 62
    15
 10
2.154680
 20
1.896840
 11
2.810720
 21
1.521960
 12
2.117720
 22
1.695320
 13
2.773760
 23
1.320440
  0
POLYLINE
  8
0
  6
CONTINUOUS
 66
     1
 40
0.000000
 41
0.000000
  0
VERTEX
  8
0
  6
CONTINUOUS
 10
2.154680
 20
1.896840
  0
VERTEX
  8
0
  6
CONTINUOUS
 10
2.810720
 20
1.521960
  0
VERTEX
  8
0
  6
CONTINUOUS
 10
2.773760
 20
1.320440
  0
VERTEX
  8
0
  6
CONTINUOUS
 10
2.117720
 20
1.695320
  0
VERTEX
  8
0
  6
CONTINUOUS
 10
2.154680
 20
1.896840
  0
SEQEND
  8
0
  0
SOLID
  8
0
 62
    15
 10
2.117720
 20
1.695320
 11
2.773760
 21
1.320440
 12
2.025760
 22
1.693120
 13
2.681800
 23
1.318240
  0
POLYLINE
  8
0
  6
CONTINUOUS
 66
     1
 40
0.000000
 41
0.000000
  0
VERTEX
  8
0
  6
CONTINUOUS
 10
2.117720
 20
1.695320
  0
VERTEX
  8
0
  6
CONTINUOUS
 10
2.773760
 20
1.320440
  0
VERTEX
  8
0
  6
CONTINUOUS
 10
2.681800
 20
1.318240
  0
VERTEX
  8
0
  6
CONTINUOUS
 10
2.025760
 20
1.693120
  0
VERTEX
  8
0
  6
CONTINUOUS
 10
2.117720
 20
1.695320
  0
SEQEND
  8
0
  0
SOLID
  8
0
 62
    15
 10
2.025760
 20
1.693120
 11
2.681800
 21
1.318240
 12
1.939960
 22
1.682120
 13
2.596440
 23
1.307240
  0
POLYLINE
  8
0
  6
CONTINUOUS
 66
     1
 40
0.000000
 41
0.000000
  0
VERTEX
  8
0
  6
CONTINUOUS
 10
2.025760
 20
1.693120
  0
VERTEX
  8
0
  6
CONTINUOUS
 10
2.681800
 20
1.318240
  0
VERTEX
  8
0
  6
CONTINUOUS
 10
2.596440
 20
1.307240
  0
VERTEX
  8
0
  6
CONTINUOUS
 10
1.939960
 20
1.682120
  0
VERTEX
  8
0
  6
CONTINUOUS
 10
2.025760
 20
1.693120
  0
SEQEND
  8
0
  0
SOLID
  8
0
 62
    15
 10
3.054920
 20
2.578840
 11
3.710960
 21
2.203960
 12
2.977480
 22
2.427040
 13
3.633520
 23
2.052160
  0
POLYLINE
  8
0
  6
CONTINUOUS
 66
     1
 40
0.000000
 41
0.000000
  0
VERTEX
  8
0
  6
CONTINUOUS
 10
3.054920
 20
2.578840
  0
VERTEX
  8
0
  6
CONTINUOUS
 10
3.710960
 20
2.203960
  0
VERTEX
  8
0
  6
CONTINUOUS
 10
3.633520
 20
2.052160
  0
VERTEX
  8
0
  6
CONTINUOUS
 10
2.977480
 20
2.427040
  0
VERTEX
  8
0
  6
CONTINUOUS
 10
3.054920
 20
2.578840
  0
SEQEND
  8
0
  0
SOLID
  8
0
 62
    15
 10
1.786840
 20
1.636800
 11
2.442880
 21
1.261920
 12
1.657480
 22
1.563760
 13
2.313520
 23
1.188880
  0
POLYLINE
  8
0
  6
CONTINUOUS
 66
     1
 40
0.000000
 41
0.000000
  0
VERTEX
  8
0
  6
CONTINUOUS
 10
1.786840
 20
1.636800
  0
VERTEX
  8
0
  6
CONTINUOUS
 10
2.442880
 20
1.261920
  0
VERTEX
  8
0
  6
CONTINUOUS
 10
2.313520
 20
1.188880
  0
VERTEX
  8
0
  6
CONTINUOUS
 10
1.657480
 20
1.563760
  0
VERTEX
  8
0
  6
CONTINUOUS
 10
1.786840
 20
1.636800
  0
SEQEND
  8
0
  0
SOLID
  8
0
 62
    15
 10
1.657480
 20
1.563760
 11
2.313520
 21
1.188880
 12
1.552320
 22
1.468280
 13
2.208360
 23
1.093400
  0
POLYLINE
  8
0
  6
CONTINUOUS
 66
     1
 40
0.000000
 41
0.000000
  0
VERTEX
  8
0
  6
CONTINUOUS
 10
1.657480
 20
1.563760
  0
VERTEX
  8
0
  6
CONTINUOUS
 10
2.313520
 20
1.188880
  0
VERTEX
  8
0
  6
CONTINUOUS
 10
2.208360
 20
1.093400
  0
VERTEX
  8
0
  6
CONTINUOUS
 10
1.552320
 20
1.468280
  0
VERTEX
  8
0
  6
CONTINUOUS
 10
1.657480
 20
1.563760
  0
SEQEND
  8
0
  0
SOLID
  8
0
 62
    15
 10
1.552320
 20
1.468280
 11
2.208360
 21
1.093400
 12
1.470480
 22
1.354760
 13
2.126520
 23
0.979880
  0
POLYLINE
  8
0
  6
CONTINUOUS
 66
     1
 40
0.000000
 41
0.000000
  0
VERTEX
  8
0
  6
CONTINUOUS
 10
1.552320
 20
1.468280
  0
VERTEX
  8
0
  6
CONTINUOUS
 10
2.208360
 20
1.093400
  0
VERTEX
  8
0
  6
CONTINUOUS
 10
2.126520
 20
0.979880
  0
VERTEX
  8
0
  6
CONTINUOUS
 10
1.470480
 20
1.354760
  0
VERTEX
  8
0
  6
CONTINUOUS
 10
1.552320
 20
1.468280
  0
SEQEND
  8
0
  0
SOLID
  8
0
 62
    15
 10
1.470480
 20
1.354760
 11
2.126520
 21
0.979880
 12
1.412400
 22
1.228480
 13
2.068440
 23
0.853160
  0
POLYLINE
  8
0
  6
CONTINUOUS
 66
     1
 40
0.000000
 41
0.000000
  0
VERTEX
  8
0
  6
CONTINUOUS
 10
1.470480
 20
1.354760
  0
VERTEX
  8
0
  6
CONTINUOUS
 10
2.126520
 20
0.979880
  0
VERTEX
  8
0
  6
CONTINUOUS
 10
2.068440
 20
0.853160
  0
VERTEX
  8
0
  6
CONTINUOUS
 10
1.412400
 20
1.228480
  0
VERTEX
  8
0
  6
CONTINUOUS
 10
1.470480
 20
1.354760
  0
SEQEND
  8
0
  0
SOLID
  8
0
 62
    15
 10
1.412400
 20
1.228480
 11
2.068440
 21
0.853160
 12
1.377200
 22
1.093840
 13
2.033240
 23
0.718960
  0
POLYLINE
  8
0
  6
CONTINUOUS
 66
     1
 40
0.000000
 41
0.000000
  0
VERTEX
  8
0
  6
CONTINUOUS
 10
1.412400
 20
1.228480
  0
VERTEX
  8
0
  6
CONTINUOUS
 10
2.068440
 20
0.853160
  0
VERTEX
  8
0
  6
CONTINUOUS
 10
2.033240
 20
0.718960
  0
VERTEX
  8
0
  6
CONTINUOUS
 10
1.377200
 20
1.093840
  0
VERTEX
  8
0
  6
CONTINUOUS
 10
1.412400
 20
1.228480
  0
SEQEND
  8
0
  0
SOLID
  8
0
 62
    15
 10
1.377200
 20
1.093840
 11
2.033240
 21
0.718960
 12
1.365320
 22
0.956120
 13
2.021360
 23
0.581240
  0
POLYLINE
  8
0
  6
CONTINUOUS
 66
     1
 40
0.000000
 41
0.000000
  0
VERTEX
  8
0
  6
CONTINUOUS
 10
1.377200
 20
1.093840
  0
VERTEX
  8
0
  6
CONTINUOUS
 10
2.033240
 20
0.718960
  0
VERTEX
  8
0
  6
CONTINUOUS
 10
2.021360
 20
0.581240
  0
VERTEX
  8
0
  6
CONTINUOUS
 10
1.365320
 20
0.956120
  0
VERTEX
  8
0
  6
CONTINUOUS
 10
1.377200
 20
1.093840
  0
SEQEND
  8
0
  0
SOLID
  8
0
 62
    15
 10
1.365320
 20
0.956120
 11
2.021360
 21
0.581240
 12
1.056880
 22
0.933680
 13
1.712920
 23
0.558800
  0
POLYLINE
  8
0
  6
CONTINUOUS
 66
     1
 40
0.000000
 41
0.000000
  0
VERTEX
  8
0
  6
CONTINUOUS
 10
1.365320
 20
0.956120
  0
VERTEX
  8
0
  6
CONTINUOUS
 10
2.021360
 20
0.581240
  0
VERTEX
  8
0
  6
CONTINUOUS
 10
1.712920
 20
0.558800
  0
VERTEX
  8
0
  6
CONTINUOUS
 10
1.056880
 20
0.933680
  0
VERTEX
  8
0
  6
CONTINUOUS
 10
1.365320
 20
0.956120
  0
SEQEND
  8
0
  0
SOLID
  8
0
 62
    15
 10
3.351920
 20
3.078680
 11
4.007960
 21
2.703800
 12
3.311880
 22
2.557280
 13
3.967920
 23
2.181960
  0
POLYLINE
  8
0
  6
CONTINUOUS
 66
     1
 40
0.000000
 41
0.000000
  0
VERTEX
  8
0
  6
CONTINUOUS
 10
3.351920
 20
3.078680
  0
VERTEX
  8
0
  6
CONTINUOUS
 10
4.007960
 20
2.703800
  0
VERTEX
  8
0
  6
CONTINUOUS
 10
3.967920
 20
2.181960
  0
VERTEX
  8
0
  6
CONTINUOUS
 10
3.311880
 20
2.557280
  0
VERTEX
  8
0
  6
CONTINUOUS
 10
3.351920
 20
3.078680
  0
SEQEND
  8
0
  0
SOLID
  8
0
 62
    15
 10
3.311880
 20
2.557280
 11
3.967920
 21
2.181960
 12
3.183400
 22
2.567840
 13
3.839440
 23
2.192960
  0
POLYLINE
  8
0
  6
CONTINUOUS
 66
     1
 40
0.000000
 41
0.000000
  0
VERTEX
  8
0
  6
CONTINUOUS
 10
3.311880
 20
2.557280
  0
VERTEX
  8
0
  6
CONTINUOUS
 10
3.967920
 20
2.181960
  0
VERTEX
  8
0
  6
CONTINUOUS
 10
3.839440
 20
2.192960
  0
VERTEX
  8
0
  6
CONTINUOUS
 10
3.183400
 20
2.567840
  0
VERTEX
  8
0
  6
CONTINUOUS
 10
3.311880
 20
2.557280
  0
SEQEND
  8
0
  0
SOLID
  8
0
 62
    15
 10
3.183400
 20
2.567840
 11
3.839440
 21
2.192960
 12
3.054920
 22
2.578840
 13
3.710960
 23
2.203960
  0
POLYLINE
  8
0
  6
CONTINUOUS
 66
     1
 40
0.000000
 41
0.000000
  0
VERTEX
  8
0
  6
CONTINUOUS
 10
3.183400
 20
2.567840
  0
VERTEX
  8
0
  6
CONTINUOUS
 10
3.839440
 20
2.192960
  0
VERTEX
  8
0
  6
CONTINUOUS
 10
3.710960
 20
2.203960
  0
VERTEX
  8
0
  6
CONTINUOUS
 10
3.054920
 20
2.578840
  0
VERTEX
  8
0
  6
CONTINUOUS
 10
3.183400
 20
2.567840
  0
SEQEND
  8
0
  0
POLYLINE
  8
0
  6
CONTINUOUS
 66
     1
 40
0.000000
 41
0.000000
  0
VERTEX
  8
0
  6
CONTINUOUS
 10
3.054920
 20
2.578840
  0
VERTEX
  8
0
  6
CONTINUOUS
 10
2.977480
 20
2.427040
  0
VERTEX
  8
0
  6
CONTINUOUS
 10
2.898280
 20
2.298560
  0
VERTEX
  8
0
  6
CONTINUOUS
 10
2.813360
 20
2.190760
  0
VERTEX
  8
0
  6
CONTINUOUS
 10
2.718320
 20
2.101880
  0
VERTEX
  8
0
  6
CONTINUOUS
 10
2.608760
 20
2.029720
  0
VERTEX
  8
0
  6
CONTINUOUS
 10
2.481160
 20
1.972960
  0
VERTEX
  8
0
  6
CONTINUOUS
 10
2.331120
 20
1.929400
  0
VERTEX
  8
0
  6
CONTINUOUS
 10
2.154680
 20
1.896840
  0
VERTEX
  8
0
  6
CONTINUOUS
 10
2.117720
 20
1.695320
  0
VERTEX
  8
0
  6
CONTINUOUS
 10
2.025760
 20
1.693120
  0
VERTEX
  8
0
  6
CONTINUOUS
 10
1.939960
 20
1.682120
  0
VERTEX
  8
0
  6
CONTINUOUS
 10
1.786840
 20
1.636800
  0
VERTEX
  8
0
  6
CONTINUOUS
 10
1.657480
 20
1.563760
  0
VERTEX
  8
0
  6
CONTINUOUS
 10
1.552320
 20
1.468280
  0
VERTEX
  8
0
  6
CONTINUOUS
 10
1.470480
 20
1.354760
  0
VERTEX
  8
0
  6
CONTINUOUS
 10
1.412400
 20
1.228480
  0
VERTEX
  8
0
  6
CONTINUOUS
 10
1.377200
 20
1.093840
  0
VERTEX
  8
0
  6
CONTINUOUS
 10
1.365320
 20
0.956120
  0
VERTEX
  8
0
  6
CONTINUOUS
 10
1.056880
 20
0.933680
  0
VERTEX
  8
0
  6
CONTINUOUS
 10
1.063920
 20
1.856360
  0
VERTEX
  8
0
  6
CONTINUOUS
 10
2.519880
 20
3.069440
  0
VERTEX
  8
0
  6
CONTINUOUS
 10
3.351920
 20
3.078680
  0
VERTEX
  8
0
  6
CONTINUOUS
 10
3.311880
 20
2.557280
  0
VERTEX
  8
0
  6
CONTINUOUS
 10
3.183400
 20
2.567840
  0
VERTEX
  8
0
  6
CONTINUOUS
 10
3.054920
 20
2.578840
  0
SEQEND
  8
0
  0
TEXT
  8
0
 10
2.646600
 20
0.769120
 40
0.137960
  1
BA  501
 41
1.000000
  7
SN0
 71
     0
 72
     5
 11
3.236806
 21
0.769120
  0
TEXT
  8
0
 10
2.490840
 20
0.577720
 40
0.137960
  1
7/8" x 3-1/8"
 41
1.000000
  7
SN0
 71
     0
 72
     5
 11
3.391758
 21
0.577720
  0
ENDSEC
  0
EOF
