  0
SECTION
  2
HEADER
  9
$ACADVER
  1
AC1006
  9
$EXTMIN
 10
0.850960
 20
0.565840
  9
$EXTMAX
 10
7.152640
 20
3.641880
  9
$LTSCALE
 40
0.044000
  9
$PDMODE
 70
    35
  9
$PDSIZE
 40
0.035200
  0
ENDSEC
  0
SECTION
  2
TABLES
  0
TABLE
  2
LTYPE
 70
     9
  0
LTYPE
  2
CONTINUOUS
 70
    64
  3
Solid line
 72
    65
 73
     0
 40
0.000000
  0
LTYPE
  2
DASHED
 70
    64
  3
__ __ __ __ __ __ __ __ __ __ __ __ __ __ __
 72
    65
 73
     2
 40
0.000330
 49
0.000220
 49
-0.000110
  0
LTYPE
  2
HIDDEN
 70
    64
  3
 _ _ _ _ _ _ _ _ _ _ _ _ _ _ _ _ _ _ _ _ _ _
 72
    65
 73
     2
 40
0.000165
 49
0.000110
 49
-0.000055
  0
LTYPE
  2
CENTER
 70
    64
  3
____ _ ____ _ ____ _ ____ _ ____ _ ____ _ ____
 72
    65
 73
     4
 40
0.000880
 49
0.000550
 49
-0.000110
 49
0.000110
 49
-0.000110
  0
LTYPE
  2
PHANTOM
 70
    64
  3
_____ _ _ _____ _ _ _____ _ _ _____ _ _ ____
 72
    65
 73
     6
 40
0.001100
 49
0.000550
 49
-0.000110
 49
0.000110
 49
-0.000110
 49
0.000110
 49
-0.000110
  0
LTYPE
  2
DOT
 70
    64
  3
...............................................
 72
    65
 73
     2
 40
0.000110
 49
0.000000
 49
-0.000110
  0
LTYPE
  2
DASHDOT
 70
    64
  3
__ . __ . __ . __ . __ . __ . __ . __ . __ . __
 72
    65
 73
     4
 40
0.000440
 49
0.000220
 49
-0.000110
 49
0.000000
 49
-0.000110
  0
LTYPE
  2
BORDER
 70
    64
  3
__ __ . __ __ . __ __ . __ __ . __ __ . __ __
 72
    65
 73
     6
 40
0.000770
 49
0.000220
 49
-0.000110
 49
0.000220
 49
-0.000110
 49
0.000000
 49
-0.000110
  0
LTYPE
  2
DIVIDE
 70
    64
  3
__ . . __ . . __ . . __ . . __ . . __ . . __
 72
    65
 73
     6
 40
0.000550
 49
0.000220
 49
-0.000110
 49
0.000000
 49
-0.000110
 49
0.000000
 49
-0.000110
  0
LTYPE
  2
DOTDOT
 70
    64
  3
 . .  . .  . .  . .  . .  . . 
 72
    65
 73
     5
 40
0.000242
 49
-0.000110
 49
0.000000
 49
-0.000110
 49
0.000000
 49
-0.000110
  0
ENDTAB
  0
TABLE
  2
STYLE
 70
     2
  0
STYLE
 70
     0
  2
SN0
 40
0.000000
 41
0.000440
 50
0.000000
 71
     0
 42
0.000000
  3
ROMAND
  0
STYLE
 70
    68
  2
SV0
 40
0.000000
 41
0.000440
 50
0.000000
 71
     0
 42
0.000000
  3
ROMAND
  0
ENDTAB
  0
TABLE
  2
LAYER
 70
     3
  0
LAYER
  2
FOREGROUND
 70
    64
 62
     7
  6
CONTINUOUS
  0
LAYER
  2
BACKGROUND
 70
    65
 62
    -7
  6
CONTINUOUS
  0
LAYER
  2
0
 70
    64
 62
     7
  6
CONTINUOUS
  0
ENDTAB
  0
ENDSEC
  0
SECTION
  2
ENTITIES
  0
POLYLINE
  8
FOREGROUND
  6
CONTINUOUS
 66
     1
 40
0.000000
 41
0.000000
  0
VERTEX
  8
FOREGROUND
  6
CONTINUOUS
 10
0.000000
 20
4.207720
  0
VERTEX
  8
FOREGROUND
  6
CONTINUOUS
 10
8.499920
 20
4.207720
  0
VERTEX
  8
FOREGROUND
  6
CONTINUOUS
 10
8.499920
 20
-6.792280
  0
VERTEX
  8
FOREGROUND
  6
CONTINUOUS
 10
0.000000
 20
-6.792280
  0
VERTEX
  8
FOREGROUND
  6
CONTINUOUS
 10
0.000000
 20
4.207720
  0
SEQEND
  8
0
  0
POLYLINE
  8
FOREGROUND
  6
CONTINUOUS
 66
     1
 40
0.000000
 41
0.000000
  0
VERTEX
  8
FOREGROUND
  6
CONTINUOUS
 10
0.000000
 20
4.207720
  0
VERTEX
  8
FOREGROUND
  6
CONTINUOUS
 10
8.499920
 20
4.207720
  0
VERTEX
  8
FOREGROUND
  6
CONTINUOUS
 10
8.499920
 20
-6.792280
  0
VERTEX
  8
FOREGROUND
  6
CONTINUOUS
 10
0.000000
 20
-6.792280
  0
VERTEX
  8
FOREGROUND
  6
CONTINUOUS
 10
0.000000
 20
4.207720
  0
SEQEND
  8
0
  0
POLYLINE
  8
0
  6
CONTINUOUS
 66
     1
 40
0.014080
 41
0.014080
  0
VERTEX
  8
0
  6
CONTINUOUS
 10
4.543440
 20
0.982080
  0
VERTEX
  8
0
  6
CONTINUOUS
 10
4.554440
 20
1.031800
  0
VERTEX
  8
0
  6
CONTINUOUS
 10
4.568520
 20
1.076240
  0
VERTEX
  8
0
  6
CONTINUOUS
 10
4.585680
 20
1.115400
  0
VERTEX
  8
0
  6
CONTINUOUS
 10
4.605040
 20
1.150160
  0
VERTEX
  8
0
  6
CONTINUOUS
 10
4.638040
 20
1.193720
  0
VERTEX
  8
0
  6
CONTINUOUS
 10
4.675440
 20
1.229360
  0
VERTEX
  8
0
  6
CONTINUOUS
 10
4.702280
 20
1.249160
  0
VERTEX
  8
0
  6
CONTINUOUS
 10
4.730440
 20
1.266320
  0
VERTEX
  8
0
  6
CONTINUOUS
 10
4.759480
 20
1.281280
  0
VERTEX
  8
0
  6
CONTINUOUS
 10
4.819320
 20
1.306360
  0
VERTEX
  8
0
  6
CONTINUOUS
 10
4.954400
 20
1.353000
  0
VERTEX
  8
0
  6
CONTINUOUS
 10
4.982120
 20
1.366200
  0
VERTEX
  8
0
  6
CONTINUOUS
 10
5.020840
 20
1.391280
  0
VERTEX
  8
0
  6
CONTINUOUS
 10
5.044600
 20
1.410200
  0
VERTEX
  8
0
  6
CONTINUOUS
 10
5.088160
 20
1.453760
  0
VERTEX
  8
0
  6
CONTINUOUS
 10
5.124680
 20
1.501720
  0
VERTEX
  8
0
  6
CONTINUOUS
 10
5.154600
 20
1.551000
  0
VERTEX
  8
0
  6
CONTINUOUS
 10
5.177040
 20
1.599400
  0
VERTEX
  8
0
  6
CONTINUOUS
 10
5.192440
 20
1.643400
  0
VERTEX
  8
0
  6
CONTINUOUS
 10
5.199480
 20
1.680800
  0
VERTEX
  8
0
  6
CONTINUOUS
 10
5.452040
 20
1.722160
  0
VERTEX
  8
0
  6
CONTINUOUS
 10
5.463040
 20
2.009480
  0
VERTEX
  8
0
  6
CONTINUOUS
 10
5.525080
 20
2.007720
  0
VERTEX
  8
0
  6
CONTINUOUS
 10
5.586680
 20
2.011680
  0
VERTEX
  8
0
  6
CONTINUOUS
 10
5.648720
 20
2.020920
  0
VERTEX
  8
0
  6
CONTINUOUS
 10
5.710320
 20
2.035440
  0
VERTEX
  8
0
  6
CONTINUOUS
 10
5.771480
 20
2.055240
  0
VERTEX
  8
0
  6
CONTINUOUS
 10
5.832640
 20
2.080320
  0
VERTEX
  8
0
  6
CONTINUOUS
 10
5.892920
 20
2.110680
  0
VERTEX
  8
0
  6
CONTINUOUS
 10
5.953200
 20
2.145880
  0
VERTEX
  8
0
  6
CONTINUOUS
 10
6.012600
 20
2.186360
  0
VERTEX
  8
0
  6
CONTINUOUS
 10
6.071120
 20
2.232120
  0
VERTEX
  8
0
  6
CONTINUOUS
 10
6.129200
 20
2.283160
  0
VERTEX
  8
0
  6
CONTINUOUS
 10
6.185960
 20
2.339040
  0
VERTEX
  8
0
  6
CONTINUOUS
 10
6.242280
 20
2.400200
  0
VERTEX
  8
0
  6
CONTINUOUS
 10
6.297280
 20
2.465760
  0
VERTEX
  8
0
  6
CONTINUOUS
 10
6.377360
 20
2.574000
  0
VERTEX
  8
0
  6
CONTINUOUS
 10
6.455240
 20
2.686200
  0
VERTEX
  8
0
  6
CONTINUOUS
 10
6.505840
 20
2.750880
  0
VERTEX
  8
0
  6
CONTINUOUS
 10
6.555120
 20
2.807200
  0
VERTEX
  8
0
  6
CONTINUOUS
 10
6.603960
 20
2.856040
  0
VERTEX
  8
0
  6
CONTINUOUS
 10
6.651480
 20
2.897840
  0
VERTEX
  8
0
  6
CONTINUOUS
 10
6.698120
 20
2.933040
  0
VERTEX
  8
0
  6
CONTINUOUS
 10
6.743880
 20
2.962960
  0
VERTEX
  8
0
  6
CONTINUOUS
 10
6.789200
 20
2.988040
  0
VERTEX
  8
0
  6
CONTINUOUS
 10
6.855640
 20
3.017960
  0
VERTEX
  8
0
  6
CONTINUOUS
 10
6.920320
 20
3.040400
  0
VERTEX
  8
0
  6
CONTINUOUS
 10
7.005240
 20
3.063280
  0
VERTEX
  8
0
  6
CONTINUOUS
 10
7.129320
 20
3.093200
  0
VERTEX
  8
0
  6
CONTINUOUS
 10
7.145160
 20
3.621200
  0
VERTEX
  8
0
  6
CONTINUOUS
 10
6.365040
 20
3.615480
  0
VERTEX
  8
0
  6
CONTINUOUS
 10
4.281640
 20
1.892440
  0
VERTEX
  8
0
  6
CONTINUOUS
 10
4.280320
 20
0.997920
  0
VERTEX
  8
0
  6
CONTINUOUS
 10
4.543440
 20
0.982080
  0
SEQEND
  8
0
  0
SOLID
  8
0
 62
    15
 10
2.158200
 20
2.031920
 11
2.811600
 21
1.640320
 12
2.034120
 22
2.029720
 13
2.687960
 23
1.638120
  0
POLYLINE
  8
0
  6
CONTINUOUS
 66
     1
 40
0.000000
 41
0.000000
  0
VERTEX
  8
0
  6
CONTINUOUS
 10
2.158200
 20
2.031920
  0
VERTEX
  8
0
  6
CONTINUOUS
 10
2.811600
 20
1.640320
  0
VERTEX
  8
0
  6
CONTINUOUS
 10
2.687960
 20
1.638120
  0
VERTEX
  8
0
  6
CONTINUOUS
 10
2.034120
 20
2.029720
  0
VERTEX
  8
0
  6
CONTINUOUS
 10
2.158200
 20
2.031920
  0
SEQEND
  8
0
  0
SOLID
  8
0
 62
    15
 10
3.700400
 20
3.113440
 11
4.353800
 21
2.721840
 12
3.534080
 22
3.072960
 13
4.187480
 23
2.681360
  0
POLYLINE
  8
0
  6
CONTINUOUS
 66
     1
 40
0.000000
 41
0.000000
  0
VERTEX
  8
0
  6
CONTINUOUS
 10
3.700400
 20
3.113440
  0
VERTEX
  8
0
  6
CONTINUOUS
 10
4.353800
 20
2.721840
  0
VERTEX
  8
0
  6
CONTINUOUS
 10
4.187480
 20
2.681360
  0
VERTEX
  8
0
  6
CONTINUOUS
 10
3.534080
 20
3.072960
  0
VERTEX
  8
0
  6
CONTINUOUS
 10
3.700400
 20
3.113440
  0
SEQEND
  8
0
  0
SOLID
  8
0
 62
    15
 10
3.534080
 20
3.072960
 11
4.187480
 21
2.681360
 12
3.360280
 22
3.008280
 13
4.013680
 23
2.616680
  0
POLYLINE
  8
0
  6
CONTINUOUS
 66
     1
 40
0.000000
 41
0.000000
  0
VERTEX
  8
0
  6
CONTINUOUS
 10
3.534080
 20
3.072960
  0
VERTEX
  8
0
  6
CONTINUOUS
 10
4.187480
 20
2.681360
  0
VERTEX
  8
0
  6
CONTINUOUS
 10
4.013680
 20
2.616680
  0
VERTEX
  8
0
  6
CONTINUOUS
 10
3.360280
 20
3.008280
  0
VERTEX
  8
0
  6
CONTINUOUS
 10
3.534080
 20
3.072960
  0
SEQEND
  8
0
  0
SOLID
  8
0
 62
    15
 10
3.360280
 20
3.008280
 11
4.013680
 21
2.616680
 12
3.269200
 22
2.953280
 13
3.922600
 23
2.561680
  0
POLYLINE
  8
0
  6
CONTINUOUS
 66
     1
 40
0.000000
 41
0.000000
  0
VERTEX
  8
0
  6
CONTINUOUS
 10
3.360280
 20
3.008280
  0
VERTEX
  8
0
  6
CONTINUOUS
 10
4.013680
 20
2.616680
  0
VERTEX
  8
0
  6
CONTINUOUS
 10
3.922600
 20
2.561680
  0
VERTEX
  8
0
  6
CONTINUOUS
 10
3.269200
 20
2.953280
  0
VERTEX
  8
0
  6
CONTINUOUS
 10
3.360280
 20
3.008280
  0
SEQEND
  8
0
  0
SOLID
  8
0
 62
    15
 10
3.269200
 20
2.953280
 11
3.922600
 21
2.561680
 12
3.175040
 22
2.875840
 13
3.828440
 23
2.484240
  0
POLYLINE
  8
0
  6
CONTINUOUS
 66
     1
 40
0.000000
 41
0.000000
  0
VERTEX
  8
0
  6
CONTINUOUS
 10
3.269200
 20
2.953280
  0
VERTEX
  8
0
  6
CONTINUOUS
 10
3.922600
 20
2.561680
  0
VERTEX
  8
0
  6
CONTINUOUS
 10
3.828440
 20
2.484240
  0
VERTEX
  8
0
  6
CONTINUOUS
 10
3.175040
 20
2.875840
  0
VERTEX
  8
0
  6
CONTINUOUS
 10
3.269200
 20
2.953280
  0
SEQEND
  8
0
  0
SOLID
  8
0
 62
    15
 10
3.175040
 20
2.875840
 11
3.828440
 21
2.484240
 12
3.076920
 22
2.771120
 13
3.730320
 23
2.379520
  0
POLYLINE
  8
0
  6
CONTINUOUS
 66
     1
 40
0.000000
 41
0.000000
  0
VERTEX
  8
0
  6
CONTINUOUS
 10
3.175040
 20
2.875840
  0
VERTEX
  8
0
  6
CONTINUOUS
 10
3.828440
 20
2.484240
  0
VERTEX
  8
0
  6
CONTINUOUS
 10
3.730320
 20
2.379520
  0
VERTEX
  8
0
  6
CONTINUOUS
 10
3.076920
 20
2.771120
  0
VERTEX
  8
0
  6
CONTINUOUS
 10
3.175040
 20
2.875840
  0
SEQEND
  8
0
  0
SOLID
  8
0
 62
    15
 10
3.076920
 20
2.771120
 11
3.730320
 21
2.379520
 12
2.974840
 22
2.632520
 13
3.628680
 23
2.241360
  0
POLYLINE
  8
0
  6
CONTINUOUS
 66
     1
 40
0.000000
 41
0.000000
  0
VERTEX
  8
0
  6
CONTINUOUS
 10
3.076920
 20
2.771120
  0
VERTEX
  8
0
  6
CONTINUOUS
 10
3.730320
 20
2.379520
  0
VERTEX
  8
0
  6
CONTINUOUS
 10
3.628680
 20
2.241360
  0
VERTEX
  8
0
  6
CONTINUOUS
 10
2.974840
 20
2.632520
  0
VERTEX
  8
0
  6
CONTINUOUS
 10
3.076920
 20
2.771120
  0
SEQEND
  8
0
  0
SOLID
  8
0
 62
    15
 10
2.974840
 20
2.632520
 11
3.628680
 21
2.241360
 12
2.868360
 22
2.486000
 13
3.521760
 23
2.094400
  0
POLYLINE
  8
0
  6
CONTINUOUS
 66
     1
 40
0.000000
 41
0.000000
  0
VERTEX
  8
0
  6
CONTINUOUS
 10
2.974840
 20
2.632520
  0
VERTEX
  8
0
  6
CONTINUOUS
 10
3.628680
 20
2.241360
  0
VERTEX
  8
0
  6
CONTINUOUS
 10
3.521760
 20
2.094400
  0
VERTEX
  8
0
  6
CONTINUOUS
 10
2.868360
 20
2.486000
  0
VERTEX
  8
0
  6
CONTINUOUS
 10
2.974840
 20
2.632520
  0
SEQEND
  8
0
  0
SOLID
  8
0
 62
    15
 10
2.868360
 20
2.486000
 11
3.521760
 21
2.094400
 12
2.757040
 22
2.358840
 13
3.410880
 23
1.967680
  0
POLYLINE
  8
0
  6
CONTINUOUS
 66
     1
 40
0.000000
 41
0.000000
  0
VERTEX
  8
0
  6
CONTINUOUS
 10
2.868360
 20
2.486000
  0
VERTEX
  8
0
  6
CONTINUOUS
 10
3.521760
 20
2.094400
  0
VERTEX
  8
0
  6
CONTINUOUS
 10
3.410880
 20
1.967680
  0
VERTEX
  8
0
  6
CONTINUOUS
 10
2.757040
 20
2.358840
  0
VERTEX
  8
0
  6
CONTINUOUS
 10
2.868360
 20
2.486000
  0
SEQEND
  8
0
  0
SOLID
  8
0
 62
    15
 10
2.757040
 20
2.358840
 11
3.410880
 21
1.967680
 12
2.642200
 22
2.252360
 13
3.295600
 23
1.860760
  0
POLYLINE
  8
0
  6
CONTINUOUS
 66
     1
 40
0.000000
 41
0.000000
  0
VERTEX
  8
0
  6
CONTINUOUS
 10
2.757040
 20
2.358840
  0
VERTEX
  8
0
  6
CONTINUOUS
 10
3.410880
 20
1.967680
  0
VERTEX
  8
0
  6
CONTINUOUS
 10
3.295600
 20
1.860760
  0
VERTEX
  8
0
  6
CONTINUOUS
 10
2.642200
 20
2.252360
  0
VERTEX
  8
0
  6
CONTINUOUS
 10
2.757040
 20
2.358840
  0
SEQEND
  8
0
  0
SOLID
  8
0
 62
    15
 10
2.642200
 20
2.252360
 11
3.295600
 21
1.860760
 12
2.524280
 22
2.166120
 13
3.177680
 23
1.774520
  0
POLYLINE
  8
0
  6
CONTINUOUS
 66
     1
 40
0.000000
 41
0.000000
  0
VERTEX
  8
0
  6
CONTINUOUS
 10
2.642200
 20
2.252360
  0
VERTEX
  8
0
  6
CONTINUOUS
 10
3.295600
 20
1.860760
  0
VERTEX
  8
0
  6
CONTINUOUS
 10
3.177680
 20
1.774520
  0
VERTEX
  8
0
  6
CONTINUOUS
 10
2.524280
 20
2.166120
  0
VERTEX
  8
0
  6
CONTINUOUS
 10
2.642200
 20
2.252360
  0
SEQEND
  8
0
  0
SOLID
  8
0
 62
    15
 10
2.524280
 20
2.166120
 11
3.177680
 21
1.774520
 12
2.403720
 22
2.100120
 13
3.057120
 23
1.708960
  0
POLYLINE
  8
0
  6
CONTINUOUS
 66
     1
 40
0.000000
 41
0.000000
  0
VERTEX
  8
0
  6
CONTINUOUS
 10
2.524280
 20
2.166120
  0
VERTEX
  8
0
  6
CONTINUOUS
 10
3.177680
 20
1.774520
  0
VERTEX
  8
0
  6
CONTINUOUS
 10
3.057120
 20
1.708960
  0
VERTEX
  8
0
  6
CONTINUOUS
 10
2.403720
 20
2.100120
  0
VERTEX
  8
0
  6
CONTINUOUS
 10
2.524280
 20
2.166120
  0
SEQEND
  8
0
  0
SOLID
  8
0
 62
    15
 10
2.403720
 20
2.100120
 11
3.057120
 21
1.708960
 12
2.281400
 22
2.055680
 13
2.934800
 23
1.664080
  0
POLYLINE
  8
0
  6
CONTINUOUS
 66
     1
 40
0.000000
 41
0.000000
  0
VERTEX
  8
0
  6
CONTINUOUS
 10
2.403720
 20
2.100120
  0
VERTEX
  8
0
  6
CONTINUOUS
 10
3.057120
 20
1.708960
  0
VERTEX
  8
0
  6
CONTINUOUS
 10
2.934800
 20
1.664080
  0
VERTEX
  8
0
  6
CONTINUOUS
 10
2.281400
 20
2.055680
  0
VERTEX
  8
0
  6
CONTINUOUS
 10
2.403720
 20
2.100120
  0
SEQEND
  8
0
  0
SOLID
  8
0
 62
    15
 10
2.281400
 20
2.055680
 11
2.934800
 21
1.664080
 12
2.158200
 22
2.031920
 13
2.811600
 23
1.640320
  0
POLYLINE
  8
0
  6
CONTINUOUS
 66
     1
 40
0.000000
 41
0.000000
  0
VERTEX
  8
0
  6
CONTINUOUS
 10
2.281400
 20
2.055680
  0
VERTEX
  8
0
  6
CONTINUOUS
 10
2.934800
 20
1.664080
  0
VERTEX
  8
0
  6
CONTINUOUS
 10
2.811600
 20
1.640320
  0
VERTEX
  8
0
  6
CONTINUOUS
 10
2.158200
 20
2.031920
  0
VERTEX
  8
0
  6
CONTINUOUS
 10
2.281400
 20
2.055680
  0
SEQEND
  8
0
  0
SOLID
  8
0
 62
    15
 10
3.716240
 20
3.641440
 11
4.369640
 21
3.249840
 12
3.700400
 22
3.113440
 13
4.353800
 23
2.721840
  0
POLYLINE
  8
0
  6
CONTINUOUS
 66
     1
 40
0.000000
 41
0.000000
  0
VERTEX
  8
0
  6
CONTINUOUS
 10
3.716240
 20
3.641440
  0
VERTEX
  8
0
  6
CONTINUOUS
 10
4.369640
 20
3.249840
  0
VERTEX
  8
0
  6
CONTINUOUS
 10
4.353800
 20
2.721840
  0
VERTEX
  8
0
  6
CONTINUOUS
 10
3.700400
 20
3.113440
  0
VERTEX
  8
0
  6
CONTINUOUS
 10
3.716240
 20
3.641440
  0
SEQEND
  8
0
  0
SOLID
  8
0
 62
    15
 10
2.034120
 20
2.029720
 11
2.687960
 21
1.638120
 12
2.023120
 22
1.742400
 13
2.676520
 23
1.350800
  0
POLYLINE
  8
0
  6
CONTINUOUS
 66
     1
 40
0.000000
 41
0.000000
  0
VERTEX
  8
0
  6
CONTINUOUS
 10
2.034120
 20
2.029720
  0
VERTEX
  8
0
  6
CONTINUOUS
 10
2.687960
 20
1.638120
  0
VERTEX
  8
0
  6
CONTINUOUS
 10
2.676520
 20
1.350800
  0
VERTEX
  8
0
  6
CONTINUOUS
 10
2.023120
 20
1.742400
  0
VERTEX
  8
0
  6
CONTINUOUS
 10
2.034120
 20
2.029720
  0
SEQEND
  8
0
  0
SOLID
  8
0
 62
    15
 10
2.023120
 20
1.742400
 11
2.676520
 21
1.350800
 12
1.770560
 22
1.701040
 13
2.423960
 23
1.309440
  0
POLYLINE
  8
0
  6
CONTINUOUS
 66
     1
 40
0.000000
 41
0.000000
  0
VERTEX
  8
0
  6
CONTINUOUS
 10
2.023120
 20
1.742400
  0
VERTEX
  8
0
  6
CONTINUOUS
 10
2.676520
 20
1.350800
  0
VERTEX
  8
0
  6
CONTINUOUS
 10
2.423960
 20
1.309440
  0
VERTEX
  8
0
  6
CONTINUOUS
 10
1.770560
 20
1.701040
  0
VERTEX
  8
0
  6
CONTINUOUS
 10
2.023120
 20
1.742400
  0
SEQEND
  8
0
  0
SOLID
  8
0
 62
    15
 10
1.770560
 20
1.701040
 11
2.423960
 21
1.309440
 12
1.748120
 22
1.619200
 13
2.401520
 23
1.228040
  0
POLYLINE
  8
0
  6
CONTINUOUS
 66
     1
 40
0.000000
 41
0.000000
  0
VERTEX
  8
0
  6
CONTINUOUS
 10
1.770560
 20
1.701040
  0
VERTEX
  8
0
  6
CONTINUOUS
 10
2.423960
 20
1.309440
  0
VERTEX
  8
0
  6
CONTINUOUS
 10
2.401520
 20
1.228040
  0
VERTEX
  8
0
  6
CONTINUOUS
 10
1.748120
 20
1.619200
  0
VERTEX
  8
0
  6
CONTINUOUS
 10
1.770560
 20
1.701040
  0
SEQEND
  8
0
  0
SOLID
  8
0
 62
    15
 10
1.748120
 20
1.619200
 11
2.401520
 21
1.228040
 12
1.695760
 22
1.521960
 13
2.349160
 23
1.130360
  0
POLYLINE
  8
0
  6
CONTINUOUS
 66
     1
 40
0.000000
 41
0.000000
  0
VERTEX
  8
0
  6
CONTINUOUS
 10
1.748120
 20
1.619200
  0
VERTEX
  8
0
  6
CONTINUOUS
 10
2.401520
 20
1.228040
  0
VERTEX
  8
0
  6
CONTINUOUS
 10
2.349160
 20
1.130360
  0
VERTEX
  8
0
  6
CONTINUOUS
 10
1.695760
 20
1.521960
  0
VERTEX
  8
0
  6
CONTINUOUS
 10
1.748120
 20
1.619200
  0
SEQEND
  8
0
  0
SOLID
  8
0
 62
    15
 10
1.695760
 20
1.521960
 11
2.349160
 21
1.130360
 12
1.615680
 22
1.430440
 13
2.269520
 23
1.038840
  0
POLYLINE
  8
0
  6
CONTINUOUS
 66
     1
 40
0.000000
 41
0.000000
  0
VERTEX
  8
0
  6
CONTINUOUS
 10
1.695760
 20
1.521960
  0
VERTEX
  8
0
  6
CONTINUOUS
 10
2.349160
 20
1.130360
  0
VERTEX
  8
0
  6
CONTINUOUS
 10
2.269520
 20
1.038840
  0
VERTEX
  8
0
  6
CONTINUOUS
 10
1.615680
 20
1.430440
  0
VERTEX
  8
0
  6
CONTINUOUS
 10
1.695760
 20
1.521960
  0
SEQEND
  8
0
  0
SOLID
  8
0
 62
    15
 10
1.615680
 20
1.430440
 11
2.269520
 21
1.038840
 12
1.510960
 22
1.367080
 13
2.164360
 23
0.975480
  0
POLYLINE
  8
0
  6
CONTINUOUS
 66
     1
 40
0.000000
 41
0.000000
  0
VERTEX
  8
0
  6
CONTINUOUS
 10
1.615680
 20
1.430440
  0
VERTEX
  8
0
  6
CONTINUOUS
 10
2.269520
 20
1.038840
  0
VERTEX
  8
0
  6
CONTINUOUS
 10
2.164360
 20
0.975480
  0
VERTEX
  8
0
  6
CONTINUOUS
 10
1.510960
 20
1.367080
  0
VERTEX
  8
0
  6
CONTINUOUS
 10
1.615680
 20
1.430440
  0
SEQEND
  8
0
  0
SOLID
  8
0
 62
    15
 10
1.510960
 20
1.367080
 11
2.164360
 21
0.975480
 12
1.390400
 22
1.326600
 13
2.043800
 23
0.935000
  0
POLYLINE
  8
0
  6
CONTINUOUS
 66
     1
 40
0.000000
 41
0.000000
  0
VERTEX
  8
0
  6
CONTINUOUS
 10
1.510960
 20
1.367080
  0
VERTEX
  8
0
  6
CONTINUOUS
 10
2.164360
 20
0.975480
  0
VERTEX
  8
0
  6
CONTINUOUS
 10
2.043800
 20
0.935000
  0
VERTEX
  8
0
  6
CONTINUOUS
 10
1.390400
 20
1.326600
  0
VERTEX
  8
0
  6
CONTINUOUS
 10
1.510960
 20
1.367080
  0
SEQEND
  8
0
  0
SOLID
  8
0
 62
    15
 10
1.390400
 20
1.326600
 11
2.043800
 21
0.935000
 12
1.273360
 22
1.269400
 13
1.926760
 23
0.877800
  0
POLYLINE
  8
0
  6
CONTINUOUS
 66
     1
 40
0.000000
 41
0.000000
  0
VERTEX
  8
0
  6
CONTINUOUS
 10
1.390400
 20
1.326600
  0
VERTEX
  8
0
  6
CONTINUOUS
 10
2.043800
 20
0.935000
  0
VERTEX
  8
0
  6
CONTINUOUS
 10
1.926760
 20
0.877800
  0
VERTEX
  8
0
  6
CONTINUOUS
 10
1.273360
 20
1.269400
  0
VERTEX
  8
0
  6
CONTINUOUS
 10
1.390400
 20
1.326600
  0
SEQEND
  8
0
  0
SOLID
  8
0
 62
    15
 10
1.273360
 20
1.269400
 11
1.926760
 21
0.877800
 12
1.221440
 22
1.226720
 13
1.874840
 23
0.835120
  0
POLYLINE
  8
0
  6
CONTINUOUS
 66
     1
 40
0.000000
 41
0.000000
  0
VERTEX
  8
0
  6
CONTINUOUS
 10
1.273360
 20
1.269400
  0
VERTEX
  8
0
  6
CONTINUOUS
 10
1.926760
 20
0.877800
  0
VERTEX
  8
0
  6
CONTINUOUS
 10
1.874840
 20
0.835120
  0
VERTEX
  8
0
  6
CONTINUOUS
 10
1.221440
 20
1.226720
  0
VERTEX
  8
0
  6
CONTINUOUS
 10
1.273360
 20
1.269400
  0
SEQEND
  8
0
  0
SOLID
  8
0
 62
    15
 10
1.221440
 20
1.226720
 11
1.874840
 21
0.835120
 12
1.176120
 22
1.169960
 13
1.829520
 23
0.778360
  0
POLYLINE
  8
0
  6
CONTINUOUS
 66
     1
 40
0.000000
 41
0.000000
  0
VERTEX
  8
0
  6
CONTINUOUS
 10
1.221440
 20
1.226720
  0
VERTEX
  8
0
  6
CONTINUOUS
 10
1.874840
 20
0.835120
  0
VERTEX
  8
0
  6
CONTINUOUS
 10
1.829520
 20
0.778360
  0
VERTEX
  8
0
  6
CONTINUOUS
 10
1.176120
 20
1.169960
  0
VERTEX
  8
0
  6
CONTINUOUS
 10
1.221440
 20
1.226720
  0
SEQEND
  8
0
  0
SOLID
  8
0
 62
    15
 10
1.176120
 20
1.169960
 11
1.829520
 21
0.778360
 12
1.139600
 22
1.096480
 13
1.793440
 23
0.704880
  0
POLYLINE
  8
0
  6
CONTINUOUS
 66
     1
 40
0.000000
 41
0.000000
  0
VERTEX
  8
0
  6
CONTINUOUS
 10
1.176120
 20
1.169960
  0
VERTEX
  8
0
  6
CONTINUOUS
 10
1.829520
 20
0.778360
  0
VERTEX
  8
0
  6
CONTINUOUS
 10
1.793440
 20
0.704880
  0
VERTEX
  8
0
  6
CONTINUOUS
 10
1.139600
 20
1.096480
  0
VERTEX
  8
0
  6
CONTINUOUS
 10
1.176120
 20
1.169960
  0
SEQEND
  8
0
  0
SOLID
  8
0
 62
    15
 10
1.139600
 20
1.096480
 11
1.793440
 21
0.704880
 12
1.114520
 22
1.001880
 13
1.767920
 23
0.610720
  0
POLYLINE
  8
0
  6
CONTINUOUS
 66
     1
 40
0.000000
 41
0.000000
  0
VERTEX
  8
0
  6
CONTINUOUS
 10
1.139600
 20
1.096480
  0
VERTEX
  8
0
  6
CONTINUOUS
 10
1.793440
 20
0.704880
  0
VERTEX
  8
0
  6
CONTINUOUS
 10
1.767920
 20
0.610720
  0
VERTEX
  8
0
  6
CONTINUOUS
 10
1.114520
 20
1.001880
  0
VERTEX
  8
0
  6
CONTINUOUS
 10
1.139600
 20
1.096480
  0
SEQEND
  8
0
  0
SOLID
  8
0
 62
    15
 10
1.114520
 20
1.001880
 11
1.767920
 21
0.610720
 12
0.851400
 22
1.018160
 13
1.504800
 23
0.626560
  0
POLYLINE
  8
0
  6
CONTINUOUS
 66
     1
 40
0.000000
 41
0.000000
  0
VERTEX
  8
0
  6
CONTINUOUS
 10
1.114520
 20
1.001880
  0
VERTEX
  8
0
  6
CONTINUOUS
 10
1.767920
 20
0.610720
  0
VERTEX
  8
0
  6
CONTINUOUS
 10
1.504800
 20
0.626560
  0
VERTEX
  8
0
  6
CONTINUOUS
 10
0.851400
 20
1.018160
  0
VERTEX
  8
0
  6
CONTINUOUS
 10
1.114520
 20
1.001880
  0
SEQEND
  8
0
  0
POLYLINE
  8
0
  6
CONTINUOUS
 66
     1
 40
0.000000
 41
0.000000
  0
VERTEX
  8
0
  6
CONTINUOUS
 10
0.851400
 20
1.018160
  0
VERTEX
  8
0
  6
CONTINUOUS
 10
0.852720
 20
1.912680
  0
VERTEX
  8
0
  6
CONTINUOUS
 10
2.936120
 20
3.635720
  0
VERTEX
  8
0
  6
CONTINUOUS
 10
3.716240
 20
3.641440
  0
VERTEX
  8
0
  6
CONTINUOUS
 10
3.700400
 20
3.113440
  0
VERTEX
  8
0
  6
CONTINUOUS
 10
3.534080
 20
3.072960
  0
VERTEX
  8
0
  6
CONTINUOUS
 10
3.360280
 20
3.008280
  0
VERTEX
  8
0
  6
CONTINUOUS
 10
3.269200
 20
2.953280
  0
VERTEX
  8
0
  6
CONTINUOUS
 10
3.175040
 20
2.875840
  0
VERTEX
  8
0
  6
CONTINUOUS
 10
3.076920
 20
2.771120
  0
VERTEX
  8
0
  6
CONTINUOUS
 10
2.974840
 20
2.632520
  0
VERTEX
  8
0
  6
CONTINUOUS
 10
2.868360
 20
2.486000
  0
VERTEX
  8
0
  6
CONTINUOUS
 10
2.757040
 20
2.358840
  0
VERTEX
  8
0
  6
CONTINUOUS
 10
2.642200
 20
2.252360
  0
VERTEX
  8
0
  6
CONTINUOUS
 10
2.524280
 20
2.166120
  0
VERTEX
  8
0
  6
CONTINUOUS
 10
2.403720
 20
2.100120
  0
VERTEX
  8
0
  6
CONTINUOUS
 10
2.281400
 20
2.055680
  0
VERTEX
  8
0
  6
CONTINUOUS
 10
2.158200
 20
2.031920
  0
VERTEX
  8
0
  6
CONTINUOUS
 10
2.034120
 20
2.029720
  0
VERTEX
  8
0
  6
CONTINUOUS
 10
2.023120
 20
1.742400
  0
VERTEX
  8
0
  6
CONTINUOUS
 10
1.770560
 20
1.701040
  0
VERTEX
  8
0
  6
CONTINUOUS
 10
1.748120
 20
1.619200
  0
VERTEX
  8
0
  6
CONTINUOUS
 10
1.695760
 20
1.521960
  0
VERTEX
  8
0
  6
CONTINUOUS
 10
1.615680
 20
1.430440
  0
VERTEX
  8
0
  6
CONTINUOUS
 10
1.510960
 20
1.367080
  0
VERTEX
  8
0
  6
CONTINUOUS
 10
1.390400
 20
1.326600
  0
VERTEX
  8
0
  6
CONTINUOUS
 10
1.273360
 20
1.269400
  0
VERTEX
  8
0
  6
CONTINUOUS
 10
1.221440
 20
1.226720
  0
VERTEX
  8
0
  6
CONTINUOUS
 10
1.176120
 20
1.169960
  0
VERTEX
  8
0
  6
CONTINUOUS
 10
1.139600
 20
1.096480
  0
VERTEX
  8
0
  6
CONTINUOUS
 10
1.114520
 20
1.001880
  0
VERTEX
  8
0
  6
CONTINUOUS
 10
0.851400
 20
1.018160
  0
SEQEND
  8
0
  0
TEXT
  8
0
 10
2.469720
 20
0.801680
 40
0.138064
  1
BA  500
 41
1.000000
  7
SN0
 71
     0
 72
     5
 11
3.060187
 21
0.801680
  0
TEXT
  8
0
 10
2.240040
 20
0.610280
 40
0.138064
  1
1-1/8" x 3-7/8"
 41
1.000000
  7
SN0
 71
     0
 72
     5
 11
3.288640
 21
0.610280
  0
ENDSEC
  0
EOF
