  0
SECTION
  2
HEADER
  9
$ACADVER
  1
AC1006
  9
$EXTMIN
 10
3.447400
 20
0.499840
  9
$EXTMAX
 10
7.636640
 20
3.762000
  9
$LTSCALE
 40
0.044000
  9
$PDMODE
 70
    35
  9
$PDSIZE
 40
0.035200
  0
ENDSEC
  0
SECTION
  2
TABLES
  0
TABLE
  2
LTYPE
 70
     9
  0
LTYPE
  2
CONTINUOUS
 70
    64
  3
Solid line
 72
    65
 73
     0
 40
0.000000
  0
LTYPE
  2
DASHED
 70
    64
  3
__ __ __ __ __ __ __ __ __ __ __ __ __ __ __
 72
    65
 73
     2
 40
0.000330
 49
0.000220
 49
-0.000110
  0
LTYPE
  2
HIDDEN
 70
    64
  3
 _ _ _ _ _ _ _ _ _ _ _ _ _ _ _ _ _ _ _ _ _ _
 72
    65
 73
     2
 40
0.000165
 49
0.000110
 49
-0.000055
  0
LTYPE
  2
CENTER
 70
    64
  3
____ _ ____ _ ____ _ ____ _ ____ _ ____ _ ____
 72
    65
 73
     4
 40
0.000880
 49
0.000550
 49
-0.000110
 49
0.000110
 49
-0.000110
  0
LTYPE
  2
PHANTOM
 70
    64
  3
_____ _ _ _____ _ _ _____ _ _ _____ _ _ ____
 72
    65
 73
     6
 40
0.001100
 49
0.000550
 49
-0.000110
 49
0.000110
 49
-0.000110
 49
0.000110
 49
-0.000110
  0
LTYPE
  2
DOT
 70
    64
  3
...............................................
 72
    65
 73
     2
 40
0.000110
 49
0.000000
 49
-0.000110
  0
LTYPE
  2
DASHDOT
 70
    64
  3
__ . __ . __ . __ . __ . __ . __ . __ . __ . __
 72
    65
 73
     4
 40
0.000440
 49
0.000220
 49
-0.000110
 49
0.000000
 49
-0.000110
  0
LTYPE
  2
BORDER
 70
    64
  3
__ __ . __ __ . __ __ . __ __ . __ __ . __ __
 72
    65
 73
     6
 40
0.000770
 49
0.000220
 49
-0.000110
 49
0.000220
 49
-0.000110
 49
0.000000
 49
-0.000110
  0
LTYPE
  2
DIVIDE
 70
    64
  3
__ . . __ . . __ . . __ . . __ . . __ . . __
 72
    65
 73
     6
 40
0.000550
 49
0.000220
 49
-0.000110
 49
0.000000
 49
-0.000110
 49
0.000000
 49
-0.000110
  0
LTYPE
  2
DOTDOT
 70
    64
  3
 . .  . .  . .  . .  . .  . . 
 72
    65
 73
     5
 40
0.000242
 49
-0.000110
 49
0.000000
 49
-0.000110
 49
0.000000
 49
-0.000110
  0
ENDTAB
  0
TABLE
  2
STYLE
 70
     2
  0
STYLE
 70
     0
  2
SN0
 40
0.000000
 41
0.000440
 50
0.000000
 71
     0
 42
0.000000
  3
ROMAND
  0
STYLE
 70
    68
  2
SV0
 40
0.000000
 41
0.000440
 50
0.000000
 71
     0
 42
0.000000
  3
ROMAND
  0
ENDTAB
  0
TABLE
  2
LAYER
 70
     3
  0
LAYER
  2
FOREGROUND
 70
    64
 62
     7
  6
CONTINUOUS
  0
LAYER
  2
BACKGROUND
 70
    65
 62
    -7
  6
CONTINUOUS
  0
LAYER
  2
0
 70
    64
 62
     7
  6
CONTINUOUS
  0
ENDTAB
  0
ENDSEC
  0
SECTION
  2
ENTITIES
  0
POLYLINE
  8
FOREGROUND
  6
CONTINUOUS
 66
     1
 40
0.000000
 41
0.000000
  0
VERTEX
  8
FOREGROUND
  6
CONTINUOUS
 10
0.000000
 20
4.261840
  0
VERTEX
  8
FOREGROUND
  6
CONTINUOUS
 10
8.499920
 20
4.261840
  0
VERTEX
  8
FOREGROUND
  6
CONTINUOUS
 10
8.499920
 20
-6.738160
  0
VERTEX
  8
FOREGROUND
  6
CONTINUOUS
 10
0.000000
 20
-6.738160
  0
VERTEX
  8
FOREGROUND
  6
CONTINUOUS
 10
0.000000
 20
4.261840
  0
SEQEND
  8
0
  0
POLYLINE
  8
FOREGROUND
  6
CONTINUOUS
 66
     1
 40
0.000000
 41
0.000000
  0
VERTEX
  8
FOREGROUND
  6
CONTINUOUS
 10
0.000000
 20
4.261840
  0
VERTEX
  8
FOREGROUND
  6
CONTINUOUS
 10
8.499920
 20
4.261840
  0
VERTEX
  8
FOREGROUND
  6
CONTINUOUS
 10
8.499920
 20
-6.738160
  0
VERTEX
  8
FOREGROUND
  6
CONTINUOUS
 10
0.000000
 20
-6.738160
  0
VERTEX
  8
FOREGROUND
  6
CONTINUOUS
 10
0.000000
 20
4.261840
  0
SEQEND
  8
0
  0
POLYLINE
  8
0
  6
CONTINUOUS
 66
     1
 40
0.014080
 41
0.014080
  0
VERTEX
  8
0
  6
CONTINUOUS
 10
3.456200
 20
3.583360
  0
VERTEX
  8
0
  6
CONTINUOUS
 10
3.458400
 20
3.619880
  0
VERTEX
  8
0
  6
CONTINUOUS
 10
3.464560
 20
3.650680
  0
VERTEX
  8
0
  6
CONTINUOUS
 10
3.474680
 20
3.676200
  0
VERTEX
  8
0
  6
CONTINUOUS
 10
3.487880
 20
3.697320
  0
VERTEX
  8
0
  6
CONTINUOUS
 10
3.498440
 20
3.708760
  0
VERTEX
  8
0
  6
CONTINUOUS
 10
3.522200
 20
3.726360
  0
VERTEX
  8
0
  6
CONTINUOUS
 10
3.549480
 20
3.737800
  0
VERTEX
  8
0
  6
CONTINUOUS
 10
3.578520
 20
3.744400
  0
VERTEX
  8
0
  6
CONTINUOUS
 10
3.608880
 20
3.747040
  0
VERTEX
  8
0
  6
CONTINUOUS
 10
3.956040
 20
3.747480
  0
VERTEX
  8
0
  6
CONTINUOUS
 10
3.980240
 20
3.744400
  0
VERTEX
  8
0
  6
CONTINUOUS
 10
4.003560
 20
3.735600
  0
VERTEX
  8
0
  6
CONTINUOUS
 10
4.038760
 20
3.715360
  0
VERTEX
  8
0
  6
CONTINUOUS
 10
4.092440
 20
3.681920
  0
VERTEX
  8
0
  6
CONTINUOUS
 10
4.125000
 20
3.665200
  0
VERTEX
  8
0
  6
CONTINUOUS
 10
4.162840
 20
3.650240
  0
VERTEX
  8
0
  6
CONTINUOUS
 10
4.195400
 20
3.641000
  0
VERTEX
  8
0
  6
CONTINUOUS
 10
4.233240
 20
3.634840
  0
VERTEX
  8
0
  6
CONTINUOUS
 10
4.290880
 20
3.631760
  0
VERTEX
  8
0
  6
CONTINUOUS
 10
4.352920
 20
3.632640
  0
VERTEX
  8
0
  6
CONTINUOUS
 10
4.415840
 20
3.636600
  0
VERTEX
  8
0
  6
CONTINUOUS
 10
4.503400
 20
3.646280
  0
VERTEX
  8
0
  6
CONTINUOUS
 10
4.571600
 20
3.657720
  0
VERTEX
  8
0
  6
CONTINUOUS
 10
4.605920
 20
3.665640
  0
VERTEX
  8
0
  6
CONTINUOUS
 10
4.697440
 20
3.697760
  0
VERTEX
  8
0
  6
CONTINUOUS
 10
4.758160
 20
3.713600
  0
VERTEX
  8
0
  6
CONTINUOUS
 10
4.809200
 20
3.721520
  0
VERTEX
  8
0
  6
CONTINUOUS
 10
4.845720
 20
3.724160
  0
VERTEX
  8
0
  6
CONTINUOUS
 10
4.884000
 20
3.724160
  0
VERTEX
  8
0
  6
CONTINUOUS
 10
4.923160
 20
3.720200
  0
VERTEX
  8
0
  6
CONTINUOUS
 10
4.963200
 20
3.712280
  0
VERTEX
  8
0
  6
CONTINUOUS
 10
5.003680
 20
3.699520
  0
VERTEX
  8
0
  6
CONTINUOUS
 10
5.045040
 20
3.681480
  0
VERTEX
  8
0
  6
CONTINUOUS
 10
5.085960
 20
3.657720
  0
VERTEX
  8
0
  6
CONTINUOUS
 10
5.106640
 20
3.643640
  0
VERTEX
  8
0
  6
CONTINUOUS
 10
5.105760
 20
3.643640
  0
VERTEX
  8
0
  6
CONTINUOUS
 10
5.129080
 20
3.674880
  0
VERTEX
  8
0
  6
CONTINUOUS
 10
5.145800
 20
3.691160
  0
VERTEX
  8
0
  6
CONTINUOUS
 10
5.173520
 20
3.710080
  0
VERTEX
  8
0
  6
CONTINUOUS
 10
5.202560
 20
3.721960
  0
VERTEX
  8
0
  6
CONTINUOUS
 10
5.222360
 20
3.726360
  0
VERTEX
  8
0
  6
CONTINUOUS
 10
5.252280
 20
3.727680
  0
VERTEX
  8
0
  6
CONTINUOUS
 10
5.272080
 20
3.725040
  0
VERTEX
  8
0
  6
CONTINUOUS
 10
5.300680
 20
3.716680
  0
VERTEX
  8
0
  6
CONTINUOUS
 10
5.327520
 20
3.703040
  0
VERTEX
  8
0
  6
CONTINUOUS
 10
5.344240
 20
3.691160
  0
VERTEX
  8
0
  6
CONTINUOUS
 10
5.366240
 20
3.669160
  0
VERTEX
  8
0
  6
CONTINUOUS
 10
5.384280
 20
3.643200
  0
VERTEX
  8
0
  6
CONTINUOUS
 10
5.425640
 20
3.670040
  0
VERTEX
  8
0
  6
CONTINUOUS
 10
5.467440
 20
3.691160
  0
VERTEX
  8
0
  6
CONTINUOUS
 10
5.508800
 20
3.706560
  0
VERTEX
  8
0
  6
CONTINUOUS
 10
5.550160
 20
3.718000
  0
VERTEX
  8
0
  6
CONTINUOUS
 10
5.610440
 20
3.726800
  0
VERTEX
  8
0
  6
CONTINUOUS
 10
5.649600
 20
3.728560
  0
VERTEX
  8
0
  6
CONTINUOUS
 10
5.705920
 20
3.725920
  0
VERTEX
  8
0
  6
CONTINUOUS
 10
5.757840
 20
3.718880
  0
VERTEX
  8
0
  6
CONTINUOUS
 10
5.833520
 20
3.702160
  0
VERTEX
  8
0
  6
CONTINUOUS
 10
5.907440
 20
3.682360
  0
VERTEX
  8
0
  6
CONTINUOUS
 10
6.073760
 20
3.654200
  0
VERTEX
  8
0
  6
CONTINUOUS
 10
6.164400
 20
3.643640
  0
VERTEX
  8
0
  6
CONTINUOUS
 10
6.224240
 20
3.640560
  0
VERTEX
  8
0
  6
CONTINUOUS
 10
6.252840
 20
3.640560
  0
VERTEX
  8
0
  6
CONTINUOUS
 10
6.293320
 20
3.643640
  0
VERTEX
  8
0
  6
CONTINUOUS
 10
6.328960
 20
3.650240
  0
VERTEX
  8
0
  6
CONTINUOUS
 10
6.369880
 20
3.663880
  0
VERTEX
  8
0
  6
CONTINUOUS
 10
6.404640
 20
3.679720
  0
VERTEX
  8
0
  6
CONTINUOUS
 10
6.497920
 20
3.736920
  0
VERTEX
  8
0
  6
CONTINUOUS
 10
6.521240
 20
3.747480
  0
VERTEX
  8
0
  6
CONTINUOUS
 10
6.532680
 20
3.751440
  0
VERTEX
  8
0
  6
CONTINUOUS
 10
6.556880
 20
3.754520
  0
VERTEX
  8
0
  6
CONTINUOUS
 10
6.904480
 20
3.754080
  0
VERTEX
  8
0
  6
CONTINUOUS
 10
6.935720
 20
3.751440
  0
VERTEX
  8
0
  6
CONTINUOUS
 10
6.966520
 20
3.744400
  0
VERTEX
  8
0
  6
CONTINUOUS
 10
6.995560
 20
3.732520
  0
VERTEX
  8
0
  6
CONTINUOUS
 10
7.009200
 20
3.724160
  0
VERTEX
  8
0
  6
CONTINUOUS
 10
7.021520
 20
3.714480
  0
VERTEX
  8
0
  6
CONTINUOUS
 10
7.032960
 20
3.702600
  0
VERTEX
  8
0
  6
CONTINUOUS
 10
7.047920
 20
3.681480
  0
VERTEX
  8
0
  6
CONTINUOUS
 10
7.058920
 20
3.655960
  0
VERTEX
  8
0
  6
CONTINUOUS
 10
7.064200
 20
3.635720
  0
VERTEX
  8
0
  6
CONTINUOUS
 10
7.068160
 20
3.600960
  0
VERTEX
  8
0
  6
CONTINUOUS
 10
7.068600
 20
2.999920
  0
VERTEX
  8
0
  6
CONTINUOUS
 10
3.454880
 20
2.999920
  0
VERTEX
  8
0
  6
CONTINUOUS
 10
3.454880
 20
3.581160
  0
VERTEX
  8
0
  6
CONTINUOUS
 10
3.456200
 20
3.583360
  0
SEQEND
  8
0
  0
SOLID
  8
0
 62
    15
 10
5.859480
 20
1.702360
 11
5.849360
 21
2.438920
 12
5.896000
 22
1.685200
 13
5.885440
 23
2.421760
  0
POLYLINE
  8
0
  6
CONTINUOUS
 66
     1
 40
0.000000
 41
0.000000
  0
VERTEX
  8
0
  6
CONTINUOUS
 10
5.859480
 20
1.702360
  0
VERTEX
  8
0
  6
CONTINUOUS
 10
5.849360
 20
2.438920
  0
VERTEX
  8
0
  6
CONTINUOUS
 10
5.885440
 20
2.421760
  0
VERTEX
  8
0
  6
CONTINUOUS
 10
5.896000
 20
1.685200
  0
VERTEX
  8
0
  6
CONTINUOUS
 10
5.859480
 20
1.702360
  0
SEQEND
  8
0
  0
SOLID
  8
0
 62
    15
 10
4.022920
 20
0.982080
 11
4.012800
 21
1.718640
 12
4.022920
 22
1.563760
 13
4.012800
 23
2.300320
  0
POLYLINE
  8
0
  6
CONTINUOUS
 66
     1
 40
0.000000
 41
0.000000
  0
VERTEX
  8
0
  6
CONTINUOUS
 10
4.022920
 20
0.982080
  0
VERTEX
  8
0
  6
CONTINUOUS
 10
4.012800
 20
1.718640
  0
VERTEX
  8
0
  6
CONTINUOUS
 10
4.012800
 20
2.300320
  0
VERTEX
  8
0
  6
CONTINUOUS
 10
4.022920
 20
1.563760
  0
VERTEX
  8
0
  6
CONTINUOUS
 10
4.022920
 20
0.982080
  0
SEQEND
  8
0
  0
SOLID
  8
0
 62
    15
 10
4.039200
 20
1.650880
 11
4.029080
 21
2.387440
 12
4.055920
 22
1.679480
 13
4.045800
 23
2.416040
  0
POLYLINE
  8
0
  6
CONTINUOUS
 66
     1
 40
0.000000
 41
0.000000
  0
VERTEX
  8
0
  6
CONTINUOUS
 10
4.039200
 20
1.650880
  0
VERTEX
  8
0
  6
CONTINUOUS
 10
4.029080
 20
2.387440
  0
VERTEX
  8
0
  6
CONTINUOUS
 10
4.045800
 20
2.416040
  0
VERTEX
  8
0
  6
CONTINUOUS
 10
4.055920
 20
1.679480
  0
VERTEX
  8
0
  6
CONTINUOUS
 10
4.039200
 20
1.650880
  0
SEQEND
  8
0
  0
SOLID
  8
0
 62
    15
 10
4.055920
 20
1.679480
 11
4.045800
 21
2.416040
 12
4.077920
 22
1.700600
 13
4.067800
 23
2.437160
  0
POLYLINE
  8
0
  6
CONTINUOUS
 66
     1
 40
0.000000
 41
0.000000
  0
VERTEX
  8
0
  6
CONTINUOUS
 10
4.055920
 20
1.679480
  0
VERTEX
  8
0
  6
CONTINUOUS
 10
4.045800
 20
2.416040
  0
VERTEX
  8
0
  6
CONTINUOUS
 10
4.067800
 20
2.437160
  0
VERTEX
  8
0
  6
CONTINUOUS
 10
4.077920
 20
1.700600
  0
VERTEX
  8
0
  6
CONTINUOUS
 10
4.055920
 20
1.679480
  0
SEQEND
  8
0
  0
SOLID
  8
0
 62
    15
 10
4.077920
 20
1.700600
 11
4.067800
 21
2.437160
 12
4.103440
 22
1.715120
 13
4.093320
 23
2.451680
  0
POLYLINE
  8
0
  6
CONTINUOUS
 66
     1
 40
0.000000
 41
0.000000
  0
VERTEX
  8
0
  6
CONTINUOUS
 10
4.077920
 20
1.700600
  0
VERTEX
  8
0
  6
CONTINUOUS
 10
4.067800
 20
2.437160
  0
VERTEX
  8
0
  6
CONTINUOUS
 10
4.093320
 20
2.451680
  0
VERTEX
  8
0
  6
CONTINUOUS
 10
4.103440
 20
1.715120
  0
VERTEX
  8
0
  6
CONTINUOUS
 10
4.077920
 20
1.700600
  0
SEQEND
  8
0
  0
SOLID
  8
0
 62
    15
 10
4.103440
 20
1.715120
 11
4.093320
 21
2.451680
 12
4.131600
 22
1.723920
 13
4.121480
 23
2.460480
  0
POLYLINE
  8
0
  6
CONTINUOUS
 66
     1
 40
0.000000
 41
0.000000
  0
VERTEX
  8
0
  6
CONTINUOUS
 10
4.103440
 20
1.715120
  0
VERTEX
  8
0
  6
CONTINUOUS
 10
4.093320
 20
2.451680
  0
VERTEX
  8
0
  6
CONTINUOUS
 10
4.121480
 20
2.460480
  0
VERTEX
  8
0
  6
CONTINUOUS
 10
4.131600
 20
1.723920
  0
VERTEX
  8
0
  6
CONTINUOUS
 10
4.103440
 20
1.715120
  0
SEQEND
  8
0
  0
SOLID
  8
0
 62
    15
 10
4.131600
 20
1.723920
 11
4.121480
 21
2.460480
 12
4.191880
 22
1.730080
 13
4.181760
 23
2.466640
  0
POLYLINE
  8
0
  6
CONTINUOUS
 66
     1
 40
0.000000
 41
0.000000
  0
VERTEX
  8
0
  6
CONTINUOUS
 10
4.131600
 20
1.723920
  0
VERTEX
  8
0
  6
CONTINUOUS
 10
4.121480
 20
2.460480
  0
VERTEX
  8
0
  6
CONTINUOUS
 10
4.181760
 20
2.466640
  0
VERTEX
  8
0
  6
CONTINUOUS
 10
4.191880
 20
1.730080
  0
VERTEX
  8
0
  6
CONTINUOUS
 10
4.131600
 20
1.723920
  0
SEQEND
  8
0
  0
SOLID
  8
0
 62
    15
 10
4.191880
 20
1.730080
 11
4.181760
 21
2.466640
 12
4.524080
 22
1.730080
 13
4.513960
 23
2.466640
  0
POLYLINE
  8
0
  6
CONTINUOUS
 66
     1
 40
0.000000
 41
0.000000
  0
VERTEX
  8
0
  6
CONTINUOUS
 10
4.191880
 20
1.730080
  0
VERTEX
  8
0
  6
CONTINUOUS
 10
4.181760
 20
2.466640
  0
VERTEX
  8
0
  6
CONTINUOUS
 10
4.513960
 20
2.466640
  0
VERTEX
  8
0
  6
CONTINUOUS
 10
4.524080
 20
1.730080
  0
VERTEX
  8
0
  6
CONTINUOUS
 10
4.191880
 20
1.730080
  0
SEQEND
  8
0
  0
SOLID
  8
0
 62
    15
 10
4.524080
 20
1.730080
 11
4.513960
 21
2.466640
 12
4.548280
 22
1.727000
 13
4.538160
 23
2.463120
  0
POLYLINE
  8
0
  6
CONTINUOUS
 66
     1
 40
0.000000
 41
0.000000
  0
VERTEX
  8
0
  6
CONTINUOUS
 10
4.524080
 20
1.730080
  0
VERTEX
  8
0
  6
CONTINUOUS
 10
4.513960
 20
2.466640
  0
VERTEX
  8
0
  6
CONTINUOUS
 10
4.538160
 20
2.463120
  0
VERTEX
  8
0
  6
CONTINUOUS
 10
4.548280
 20
1.727000
  0
VERTEX
  8
0
  6
CONTINUOUS
 10
4.524080
 20
1.730080
  0
SEQEND
  8
0
  0
SOLID
  8
0
 62
    15
 10
4.548280
 20
1.727000
 11
4.538160
 21
2.463120
 12
4.571160
 22
1.718200
 13
4.561040
 23
2.454760
  0
POLYLINE
  8
0
  6
CONTINUOUS
 66
     1
 40
0.000000
 41
0.000000
  0
VERTEX
  8
0
  6
CONTINUOUS
 10
4.548280
 20
1.727000
  0
VERTEX
  8
0
  6
CONTINUOUS
 10
4.538160
 20
2.463120
  0
VERTEX
  8
0
  6
CONTINUOUS
 10
4.561040
 20
2.454760
  0
VERTEX
  8
0
  6
CONTINUOUS
 10
4.571160
 20
1.718200
  0
VERTEX
  8
0
  6
CONTINUOUS
 10
4.548280
 20
1.727000
  0
SEQEND
  8
0
  0
SOLID
  8
0
 62
    15
 10
4.571160
 20
1.718200
 11
4.561040
 21
2.454760
 12
4.619120
 22
1.689600
 13
4.609000
 23
2.426160
  0
POLYLINE
  8
0
  6
CONTINUOUS
 66
     1
 40
0.000000
 41
0.000000
  0
VERTEX
  8
0
  6
CONTINUOUS
 10
4.571160
 20
1.718200
  0
VERTEX
  8
0
  6
CONTINUOUS
 10
4.561040
 20
2.454760
  0
VERTEX
  8
0
  6
CONTINUOUS
 10
4.609000
 20
2.426160
  0
VERTEX
  8
0
  6
CONTINUOUS
 10
4.619120
 20
1.689600
  0
VERTEX
  8
0
  6
CONTINUOUS
 10
4.571160
 20
1.718200
  0
SEQEND
  8
0
  0
SOLID
  8
0
 62
    15
 10
4.619120
 20
1.689600
 11
4.609000
 21
2.426160
 12
4.676320
 22
1.655720
 13
4.666200
 23
2.392280
  0
POLYLINE
  8
0
  6
CONTINUOUS
 66
     1
 40
0.000000
 41
0.000000
  0
VERTEX
  8
0
  6
CONTINUOUS
 10
4.619120
 20
1.689600
  0
VERTEX
  8
0
  6
CONTINUOUS
 10
4.609000
 20
2.426160
  0
VERTEX
  8
0
  6
CONTINUOUS
 10
4.666200
 20
2.392280
  0
VERTEX
  8
0
  6
CONTINUOUS
 10
4.676320
 20
1.655720
  0
VERTEX
  8
0
  6
CONTINUOUS
 10
4.619120
 20
1.689600
  0
SEQEND
  8
0
  0
SOLID
  8
0
 62
    15
 10
4.676320
 20
1.655720
 11
4.666200
 21
2.392280
 12
4.711080
 22
1.639440
 13
4.700960
 23
2.376000
  0
POLYLINE
  8
0
  6
CONTINUOUS
 66
     1
 40
0.000000
 41
0.000000
  0
VERTEX
  8
0
  6
CONTINUOUS
 10
4.676320
 20
1.655720
  0
VERTEX
  8
0
  6
CONTINUOUS
 10
4.666200
 20
2.392280
  0
VERTEX
  8
0
  6
CONTINUOUS
 10
4.700960
 20
2.376000
  0
VERTEX
  8
0
  6
CONTINUOUS
 10
4.711080
 20
1.639440
  0
VERTEX
  8
0
  6
CONTINUOUS
 10
4.676320
 20
1.655720
  0
SEQEND
  8
0
  0
SOLID
  8
0
 62
    15
 10
4.711080
 20
1.639440
 11
4.700960
 21
2.376000
 12
4.752000
 22
1.625800
 13
4.741880
 23
2.362360
  0
POLYLINE
  8
0
  6
CONTINUOUS
 66
     1
 40
0.000000
 41
0.000000
  0
VERTEX
  8
0
  6
CONTINUOUS
 10
4.711080
 20
1.639440
  0
VERTEX
  8
0
  6
CONTINUOUS
 10
4.700960
 20
2.376000
  0
VERTEX
  8
0
  6
CONTINUOUS
 10
4.741880
 20
2.362360
  0
VERTEX
  8
0
  6
CONTINUOUS
 10
4.752000
 20
1.625800
  0
VERTEX
  8
0
  6
CONTINUOUS
 10
4.711080
 20
1.639440
  0
SEQEND
  8
0
  0
SOLID
  8
0
 62
    15
 10
4.752000
 20
1.625800
 11
4.741880
 21
2.362360
 12
4.801280
 22
1.617440
 13
4.791160
 23
2.353560
  0
POLYLINE
  8
0
  6
CONTINUOUS
 66
     1
 40
0.000000
 41
0.000000
  0
VERTEX
  8
0
  6
CONTINUOUS
 10
4.752000
 20
1.625800
  0
VERTEX
  8
0
  6
CONTINUOUS
 10
4.741880
 20
2.362360
  0
VERTEX
  8
0
  6
CONTINUOUS
 10
4.791160
 20
2.353560
  0
VERTEX
  8
0
  6
CONTINUOUS
 10
4.801280
 20
1.617440
  0
VERTEX
  8
0
  6
CONTINUOUS
 10
4.752000
 20
1.625800
  0
SEQEND
  8
0
  0
SOLID
  8
0
 62
    15
 10
4.801280
 20
1.617440
 11
4.791160
 21
2.353560
 12
4.858920
 22
1.613920
 13
4.848800
 23
2.350480
  0
POLYLINE
  8
0
  6
CONTINUOUS
 66
     1
 40
0.000000
 41
0.000000
  0
VERTEX
  8
0
  6
CONTINUOUS
 10
4.801280
 20
1.617440
  0
VERTEX
  8
0
  6
CONTINUOUS
 10
4.791160
 20
2.353560
  0
VERTEX
  8
0
  6
CONTINUOUS
 10
4.848800
 20
2.350480
  0
VERTEX
  8
0
  6
CONTINUOUS
 10
4.858920
 20
1.613920
  0
VERTEX
  8
0
  6
CONTINUOUS
 10
4.801280
 20
1.617440
  0
SEQEND
  8
0
  0
SOLID
  8
0
 62
    15
 10
4.858920
 20
1.613920
 11
4.848800
 21
2.350480
 12
4.983880
 22
1.618760
 13
4.973760
 23
2.355320
  0
POLYLINE
  8
0
  6
CONTINUOUS
 66
     1
 40
0.000000
 41
0.000000
  0
VERTEX
  8
0
  6
CONTINUOUS
 10
4.858920
 20
1.613920
  0
VERTEX
  8
0
  6
CONTINUOUS
 10
4.848800
 20
2.350480
  0
VERTEX
  8
0
  6
CONTINUOUS
 10
4.973760
 20
2.355320
  0
VERTEX
  8
0
  6
CONTINUOUS
 10
4.983880
 20
1.618760
  0
VERTEX
  8
0
  6
CONTINUOUS
 10
4.858920
 20
1.613920
  0
SEQEND
  8
0
  0
SOLID
  8
0
 62
    15
 10
4.983880
 20
1.618760
 11
4.973760
 21
2.355320
 12
5.043720
 22
1.624920
 13
5.033600
 23
2.361480
  0
POLYLINE
  8
0
  6
CONTINUOUS
 66
     1
 40
0.000000
 41
0.000000
  0
VERTEX
  8
0
  6
CONTINUOUS
 10
4.983880
 20
1.618760
  0
VERTEX
  8
0
  6
CONTINUOUS
 10
4.973760
 20
2.355320
  0
VERTEX
  8
0
  6
CONTINUOUS
 10
5.033600
 20
2.361480
  0
VERTEX
  8
0
  6
CONTINUOUS
 10
5.043720
 20
1.624920
  0
VERTEX
  8
0
  6
CONTINUOUS
 10
4.983880
 20
1.618760
  0
SEQEND
  8
0
  0
SOLID
  8
0
 62
    15
 10
5.043720
 20
1.624920
 11
5.033600
 21
2.361480
 12
5.096960
 22
1.632400
 13
5.086840
 23
2.368960
  0
POLYLINE
  8
0
  6
CONTINUOUS
 66
     1
 40
0.000000
 41
0.000000
  0
VERTEX
  8
0
  6
CONTINUOUS
 10
5.043720
 20
1.624920
  0
VERTEX
  8
0
  6
CONTINUOUS
 10
5.033600
 20
2.361480
  0
VERTEX
  8
0
  6
CONTINUOUS
 10
5.086840
 20
2.368960
  0
VERTEX
  8
0
  6
CONTINUOUS
 10
5.096960
 20
1.632400
  0
VERTEX
  8
0
  6
CONTINUOUS
 10
5.043720
 20
1.624920
  0
SEQEND
  8
0
  0
SOLID
  8
0
 62
    15
 10
5.096960
 20
1.632400
 11
5.086840
 21
2.368960
 12
5.139640
 22
1.639880
 13
5.129520
 23
2.376440
  0
POLYLINE
  8
0
  6
CONTINUOUS
 66
     1
 40
0.000000
 41
0.000000
  0
VERTEX
  8
0
  6
CONTINUOUS
 10
5.096960
 20
1.632400
  0
VERTEX
  8
0
  6
CONTINUOUS
 10
5.086840
 20
2.368960
  0
VERTEX
  8
0
  6
CONTINUOUS
 10
5.129520
 20
2.376440
  0
VERTEX
  8
0
  6
CONTINUOUS
 10
5.139640
 20
1.639880
  0
VERTEX
  8
0
  6
CONTINUOUS
 10
5.096960
 20
1.632400
  0
SEQEND
  8
0
  0
SOLID
  8
0
 62
    15
 10
5.139640
 20
1.639880
 11
5.129520
 21
2.376440
 12
5.155920
 22
1.642960
 13
5.145800
 23
2.379520
  0
POLYLINE
  8
0
  6
CONTINUOUS
 66
     1
 40
0.000000
 41
0.000000
  0
VERTEX
  8
0
  6
CONTINUOUS
 10
5.139640
 20
1.639880
  0
VERTEX
  8
0
  6
CONTINUOUS
 10
5.129520
 20
2.376440
  0
VERTEX
  8
0
  6
CONTINUOUS
 10
5.145800
 20
2.379520
  0
VERTEX
  8
0
  6
CONTINUOUS
 10
5.155920
 20
1.642960
  0
VERTEX
  8
0
  6
CONTINUOUS
 10
5.139640
 20
1.639880
  0
SEQEND
  8
0
  0
SOLID
  8
0
 62
    15
 10
5.155920
 20
1.642960
 11
5.145800
 21
2.379520
 12
5.167800
 22
1.646040
 13
5.157680
 23
2.382600
  0
POLYLINE
  8
0
  6
CONTINUOUS
 66
     1
 40
0.000000
 41
0.000000
  0
VERTEX
  8
0
  6
CONTINUOUS
 10
5.155920
 20
1.642960
  0
VERTEX
  8
0
  6
CONTINUOUS
 10
5.145800
 20
2.379520
  0
VERTEX
  8
0
  6
CONTINUOUS
 10
5.157680
 20
2.382600
  0
VERTEX
  8
0
  6
CONTINUOUS
 10
5.167800
 20
1.646040
  0
VERTEX
  8
0
  6
CONTINUOUS
 10
5.155920
 20
1.642960
  0
SEQEND
  8
0
  0
SOLID
  8
0
 62
    15
 10
5.167800
 20
1.646040
 11
5.157680
 21
2.382600
 12
5.180120
 22
1.650000
 13
5.170000
 23
2.386560
  0
POLYLINE
  8
0
  6
CONTINUOUS
 66
     1
 40
0.000000
 41
0.000000
  0
VERTEX
  8
0
  6
CONTINUOUS
 10
5.167800
 20
1.646040
  0
VERTEX
  8
0
  6
CONTINUOUS
 10
5.157680
 20
2.382600
  0
VERTEX
  8
0
  6
CONTINUOUS
 10
5.170000
 20
2.386560
  0
VERTEX
  8
0
  6
CONTINUOUS
 10
5.180120
 20
1.650000
  0
VERTEX
  8
0
  6
CONTINUOUS
 10
5.167800
 20
1.646040
  0
SEQEND
  8
0
  0
SOLID
  8
0
 62
    15
 10
5.180120
 20
1.650000
 11
5.170000
 21
2.386560
 12
5.216200
 22
1.663200
 13
5.205640
 23
2.399760
  0
POLYLINE
  8
0
  6
CONTINUOUS
 66
     1
 40
0.000000
 41
0.000000
  0
VERTEX
  8
0
  6
CONTINUOUS
 10
5.180120
 20
1.650000
  0
VERTEX
  8
0
  6
CONTINUOUS
 10
5.170000
 20
2.386560
  0
VERTEX
  8
0
  6
CONTINUOUS
 10
5.205640
 20
2.399760
  0
VERTEX
  8
0
  6
CONTINUOUS
 10
5.216200
 20
1.663200
  0
VERTEX
  8
0
  6
CONTINUOUS
 10
5.180120
 20
1.650000
  0
SEQEND
  8
0
  0
SOLID
  8
0
 62
    15
 10
5.216200
 20
1.663200
 11
5.205640
 21
2.399760
 12
5.239080
 22
1.671560
 13
5.228960
 23
2.408120
  0
POLYLINE
  8
0
  6
CONTINUOUS
 66
     1
 40
0.000000
 41
0.000000
  0
VERTEX
  8
0
  6
CONTINUOUS
 10
5.216200
 20
1.663200
  0
VERTEX
  8
0
  6
CONTINUOUS
 10
5.205640
 20
2.399760
  0
VERTEX
  8
0
  6
CONTINUOUS
 10
5.228960
 20
2.408120
  0
VERTEX
  8
0
  6
CONTINUOUS
 10
5.239080
 20
1.671560
  0
VERTEX
  8
0
  6
CONTINUOUS
 10
5.216200
 20
1.663200
  0
SEQEND
  8
0
  0
SOLID
  8
0
 62
    15
 10
5.239080
 20
1.671560
 11
5.228960
 21
2.408120
 12
5.294520
 22
1.688280
 13
5.283960
 23
2.424840
  0
POLYLINE
  8
0
  6
CONTINUOUS
 66
     1
 40
0.000000
 41
0.000000
  0
VERTEX
  8
0
  6
CONTINUOUS
 10
5.239080
 20
1.671560
  0
VERTEX
  8
0
  6
CONTINUOUS
 10
5.228960
 20
2.408120
  0
VERTEX
  8
0
  6
CONTINUOUS
 10
5.283960
 20
2.424840
  0
VERTEX
  8
0
  6
CONTINUOUS
 10
5.294520
 20
1.688280
  0
VERTEX
  8
0
  6
CONTINUOUS
 10
5.239080
 20
1.671560
  0
SEQEND
  8
0
  0
SOLID
  8
0
 62
    15
 10
5.294520
 20
1.688280
 11
5.283960
 21
2.424840
 12
5.359640
 22
1.701920
 13
5.349520
 23
2.438480
  0
POLYLINE
  8
0
  6
CONTINUOUS
 66
     1
 40
0.000000
 41
0.000000
  0
VERTEX
  8
0
  6
CONTINUOUS
 10
5.294520
 20
1.688280
  0
VERTEX
  8
0
  6
CONTINUOUS
 10
5.283960
 20
2.424840
  0
VERTEX
  8
0
  6
CONTINUOUS
 10
5.349520
 20
2.438480
  0
VERTEX
  8
0
  6
CONTINUOUS
 10
5.359640
 20
1.701920
  0
VERTEX
  8
0
  6
CONTINUOUS
 10
5.294520
 20
1.688280
  0
SEQEND
  8
0
  0
SOLID
  8
0
 62
    15
 10
5.359640
 20
1.701920
 11
5.349520
 21
2.438480
 12
5.432680
 22
1.706760
 13
5.422120
 23
2.443320
  0
POLYLINE
  8
0
  6
CONTINUOUS
 66
     1
 40
0.000000
 41
0.000000
  0
VERTEX
  8
0
  6
CONTINUOUS
 10
5.359640
 20
1.701920
  0
VERTEX
  8
0
  6
CONTINUOUS
 10
5.349520
 20
2.438480
  0
VERTEX
  8
0
  6
CONTINUOUS
 10
5.422120
 20
2.443320
  0
VERTEX
  8
0
  6
CONTINUOUS
 10
5.432680
 20
1.706760
  0
VERTEX
  8
0
  6
CONTINUOUS
 10
5.359640
 20
1.701920
  0
SEQEND
  8
0
  0
SOLID
  8
0
 62
    15
 10
5.432680
 20
1.706760
 11
5.422120
 21
2.443320
 12
5.471400
 22
1.705000
 13
5.460840
 23
2.441560
  0
POLYLINE
  8
0
  6
CONTINUOUS
 66
     1
 40
0.000000
 41
0.000000
  0
VERTEX
  8
0
  6
CONTINUOUS
 10
5.432680
 20
1.706760
  0
VERTEX
  8
0
  6
CONTINUOUS
 10
5.422120
 20
2.443320
  0
VERTEX
  8
0
  6
CONTINUOUS
 10
5.460840
 20
2.441560
  0
VERTEX
  8
0
  6
CONTINUOUS
 10
5.471400
 20
1.705000
  0
VERTEX
  8
0
  6
CONTINUOUS
 10
5.432680
 20
1.706760
  0
SEQEND
  8
0
  0
SOLID
  8
0
 62
    15
 10
5.471400
 20
1.705000
 11
5.460840
 21
2.441560
 12
5.511000
 22
1.698840
 13
5.500880
 23
2.435400
  0
POLYLINE
  8
0
  6
CONTINUOUS
 66
     1
 40
0.000000
 41
0.000000
  0
VERTEX
  8
0
  6
CONTINUOUS
 10
5.471400
 20
1.705000
  0
VERTEX
  8
0
  6
CONTINUOUS
 10
5.460840
 20
2.441560
  0
VERTEX
  8
0
  6
CONTINUOUS
 10
5.500880
 20
2.435400
  0
VERTEX
  8
0
  6
CONTINUOUS
 10
5.511000
 20
1.698840
  0
VERTEX
  8
0
  6
CONTINUOUS
 10
5.471400
 20
1.705000
  0
SEQEND
  8
0
  0
SOLID
  8
0
 62
    15
 10
5.511000
 20
1.698840
 11
5.500880
 21
2.435400
 12
5.551480
 22
1.688720
 13
5.541360
 23
2.425280
  0
POLYLINE
  8
0
  6
CONTINUOUS
 66
     1
 40
0.000000
 41
0.000000
  0
VERTEX
  8
0
  6
CONTINUOUS
 10
5.511000
 20
1.698840
  0
VERTEX
  8
0
  6
CONTINUOUS
 10
5.500880
 20
2.435400
  0
VERTEX
  8
0
  6
CONTINUOUS
 10
5.541360
 20
2.425280
  0
VERTEX
  8
0
  6
CONTINUOUS
 10
5.551480
 20
1.688720
  0
VERTEX
  8
0
  6
CONTINUOUS
 10
5.511000
 20
1.698840
  0
SEQEND
  8
0
  0
SOLID
  8
0
 62
    15
 10
5.551480
 20
1.688720
 11
5.541360
 21
2.425280
 12
5.592400
 22
1.673760
 13
5.582280
 23
2.410320
  0
POLYLINE
  8
0
  6
CONTINUOUS
 66
     1
 40
0.000000
 41
0.000000
  0
VERTEX
  8
0
  6
CONTINUOUS
 10
5.551480
 20
1.688720
  0
VERTEX
  8
0
  6
CONTINUOUS
 10
5.541360
 20
2.425280
  0
VERTEX
  8
0
  6
CONTINUOUS
 10
5.582280
 20
2.410320
  0
VERTEX
  8
0
  6
CONTINUOUS
 10
5.592400
 20
1.673760
  0
VERTEX
  8
0
  6
CONTINUOUS
 10
5.551480
 20
1.688720
  0
SEQEND
  8
0
  0
SOLID
  8
0
 62
    15
 10
5.592400
 20
1.673760
 11
5.582280
 21
2.410320
 12
5.633320
 22
1.653080
 13
5.623200
 23
2.389640
  0
POLYLINE
  8
0
  6
CONTINUOUS
 66
     1
 40
0.000000
 41
0.000000
  0
VERTEX
  8
0
  6
CONTINUOUS
 10
5.592400
 20
1.673760
  0
VERTEX
  8
0
  6
CONTINUOUS
 10
5.582280
 20
2.410320
  0
VERTEX
  8
0
  6
CONTINUOUS
 10
5.623200
 20
2.389640
  0
VERTEX
  8
0
  6
CONTINUOUS
 10
5.633320
 20
1.653080
  0
VERTEX
  8
0
  6
CONTINUOUS
 10
5.592400
 20
1.673760
  0
SEQEND
  8
0
  0
SOLID
  8
0
 62
    15
 10
5.663680
 20
2.362800
 11
5.664120
 21
2.362360
 12
5.673800
 22
1.626240
 13
5.674240
 23
1.625800
  0
POLYLINE
  8
0
  6
CONTINUOUS
 66
     1
 40
0.000000
 41
0.000000
  0
VERTEX
  8
0
  6
CONTINUOUS
 10
5.663680
 20
2.362800
  0
VERTEX
  8
0
  6
CONTINUOUS
 10
5.664120
 20
2.362360
  0
VERTEX
  8
0
  6
CONTINUOUS
 10
5.674240
 20
1.625800
  0
VERTEX
  8
0
  6
CONTINUOUS
 10
5.673800
 20
1.626240
  0
VERTEX
  8
0
  6
CONTINUOUS
 10
5.663680
 20
2.362800
  0
SEQEND
  8
0
  0
SOLID
  8
0
 62
    15
 10
5.673800
 20
1.625800
 11
5.663240
 21
2.362360
 12
5.688760
 22
1.647800
 13
5.678640
 23
2.384360
  0
POLYLINE
  8
0
  6
CONTINUOUS
 66
     1
 40
0.000000
 41
0.000000
  0
VERTEX
  8
0
  6
CONTINUOUS
 10
5.673800
 20
1.625800
  0
VERTEX
  8
0
  6
CONTINUOUS
 10
5.663240
 20
2.362360
  0
VERTEX
  8
0
  6
CONTINUOUS
 10
5.678640
 20
2.384360
  0
VERTEX
  8
0
  6
CONTINUOUS
 10
5.688760
 20
1.647800
  0
VERTEX
  8
0
  6
CONTINUOUS
 10
5.673800
 20
1.625800
  0
SEQEND
  8
0
  0
SOLID
  8
0
 62
    15
 10
5.633320
 20
1.653080
 11
5.623200
 21
2.389640
 12
5.673800
 22
1.626240
 13
5.663680
 23
2.362800
  0
POLYLINE
  8
0
  6
CONTINUOUS
 66
     1
 40
0.000000
 41
0.000000
  0
VERTEX
  8
0
  6
CONTINUOUS
 10
5.633320
 20
1.653080
  0
VERTEX
  8
0
  6
CONTINUOUS
 10
5.623200
 20
2.389640
  0
VERTEX
  8
0
  6
CONTINUOUS
 10
5.663680
 20
2.362800
  0
VERTEX
  8
0
  6
CONTINUOUS
 10
5.673800
 20
1.626240
  0
VERTEX
  8
0
  6
CONTINUOUS
 10
5.633320
 20
1.653080
  0
SEQEND
  8
0
  0
SOLID
  8
0
 62
    15
 10
5.688760
 20
1.647800
 11
5.678640
 21
2.384360
 12
5.705040
 22
1.665840
 13
5.694920
 23
2.402400
  0
POLYLINE
  8
0
  6
CONTINUOUS
 66
     1
 40
0.000000
 41
0.000000
  0
VERTEX
  8
0
  6
CONTINUOUS
 10
5.688760
 20
1.647800
  0
VERTEX
  8
0
  6
CONTINUOUS
 10
5.678640
 20
2.384360
  0
VERTEX
  8
0
  6
CONTINUOUS
 10
5.694920
 20
2.402400
  0
VERTEX
  8
0
  6
CONTINUOUS
 10
5.705040
 20
1.665840
  0
VERTEX
  8
0
  6
CONTINUOUS
 10
5.688760
 20
1.647800
  0
SEQEND
  8
0
  0
SOLID
  8
0
 62
    15
 10
5.705040
 20
1.665840
 11
5.694920
 21
2.402400
 12
5.741560
 22
1.692680
 13
5.731440
 23
2.429240
  0
POLYLINE
  8
0
  6
CONTINUOUS
 66
     1
 40
0.000000
 41
0.000000
  0
VERTEX
  8
0
  6
CONTINUOUS
 10
5.705040
 20
1.665840
  0
VERTEX
  8
0
  6
CONTINUOUS
 10
5.694920
 20
2.402400
  0
VERTEX
  8
0
  6
CONTINUOUS
 10
5.731440
 20
2.429240
  0
VERTEX
  8
0
  6
CONTINUOUS
 10
5.741560
 20
1.692680
  0
VERTEX
  8
0
  6
CONTINUOUS
 10
5.705040
 20
1.665840
  0
SEQEND
  8
0
  0
SOLID
  8
0
 62
    15
 10
5.741560
 20
1.692680
 11
5.731440
 21
2.429240
 12
5.780280
 22
1.706760
 13
5.770160
 23
2.443320
  0
POLYLINE
  8
0
  6
CONTINUOUS
 66
     1
 40
0.000000
 41
0.000000
  0
VERTEX
  8
0
  6
CONTINUOUS
 10
5.741560
 20
1.692680
  0
VERTEX
  8
0
  6
CONTINUOUS
 10
5.731440
 20
2.429240
  0
VERTEX
  8
0
  6
CONTINUOUS
 10
5.770160
 20
2.443320
  0
VERTEX
  8
0
  6
CONTINUOUS
 10
5.780280
 20
1.706760
  0
VERTEX
  8
0
  6
CONTINUOUS
 10
5.741560
 20
1.692680
  0
SEQEND
  8
0
  0
SOLID
  8
0
 62
    15
 10
5.780280
 20
1.706760
 11
5.770160
 21
2.443320
 12
5.820320
 22
1.709840
 13
5.810200
 23
2.446400
  0
POLYLINE
  8
0
  6
CONTINUOUS
 66
     1
 40
0.000000
 41
0.000000
  0
VERTEX
  8
0
  6
CONTINUOUS
 10
5.780280
 20
1.706760
  0
VERTEX
  8
0
  6
CONTINUOUS
 10
5.770160
 20
2.443320
  0
VERTEX
  8
0
  6
CONTINUOUS
 10
5.810200
 20
2.446400
  0
VERTEX
  8
0
  6
CONTINUOUS
 10
5.820320
 20
1.709840
  0
VERTEX
  8
0
  6
CONTINUOUS
 10
5.780280
 20
1.706760
  0
SEQEND
  8
0
  0
SOLID
  8
0
 62
    15
 10
5.820320
 20
1.709840
 11
5.810200
 21
2.446400
 12
5.859480
 22
1.702360
 13
5.849360
 23
2.438920
  0
POLYLINE
  8
0
  6
CONTINUOUS
 66
     1
 40
0.000000
 41
0.000000
  0
VERTEX
  8
0
  6
CONTINUOUS
 10
5.820320
 20
1.709840
  0
VERTEX
  8
0
  6
CONTINUOUS
 10
5.810200
 20
2.446400
  0
VERTEX
  8
0
  6
CONTINUOUS
 10
5.849360
 20
2.438920
  0
VERTEX
  8
0
  6
CONTINUOUS
 10
5.859480
 20
1.702360
  0
VERTEX
  8
0
  6
CONTINUOUS
 10
5.820320
 20
1.709840
  0
SEQEND
  8
0
  0
SOLID
  8
0
 62
    15
 10
4.022920
 20
1.563760
 11
4.012800
 21
2.300320
 12
4.024240
 22
1.565520
 13
4.014120
 23
2.302080
  0
POLYLINE
  8
0
  6
CONTINUOUS
 66
     1
 40
0.000000
 41
0.000000
  0
VERTEX
  8
0
  6
CONTINUOUS
 10
4.022920
 20
1.563760
  0
VERTEX
  8
0
  6
CONTINUOUS
 10
4.012800
 20
2.300320
  0
VERTEX
  8
0
  6
CONTINUOUS
 10
4.014120
 20
2.302080
  0
VERTEX
  8
0
  6
CONTINUOUS
 10
4.024240
 20
1.565520
  0
VERTEX
  8
0
  6
CONTINUOUS
 10
4.022920
 20
1.563760
  0
SEQEND
  8
0
  0
SOLID
  8
0
 62
    15
 10
5.896000
 20
1.685200
 11
5.885440
 21
2.421760
 12
5.927240
 22
1.659240
 13
5.917120
 23
2.395800
  0
POLYLINE
  8
0
  6
CONTINUOUS
 66
     1
 40
0.000000
 41
0.000000
  0
VERTEX
  8
0
  6
CONTINUOUS
 10
5.896000
 20
1.685200
  0
VERTEX
  8
0
  6
CONTINUOUS
 10
5.885440
 20
2.421760
  0
VERTEX
  8
0
  6
CONTINUOUS
 10
5.917120
 20
2.395800
  0
VERTEX
  8
0
  6
CONTINUOUS
 10
5.927240
 20
1.659240
  0
VERTEX
  8
0
  6
CONTINUOUS
 10
5.896000
 20
1.685200
  0
SEQEND
  8
0
  0
SOLID
  8
0
 62
    15
 10
5.927240
 20
1.659240
 11
5.917120
 21
2.395800
 12
5.952320
 22
1.625800
 13
5.942200
 23
2.362360
  0
POLYLINE
  8
0
  6
CONTINUOUS
 66
     1
 40
0.000000
 41
0.000000
  0
VERTEX
  8
0
  6
CONTINUOUS
 10
5.927240
 20
1.659240
  0
VERTEX
  8
0
  6
CONTINUOUS
 10
5.917120
 20
2.395800
  0
VERTEX
  8
0
  6
CONTINUOUS
 10
5.942200
 20
2.362360
  0
VERTEX
  8
0
  6
CONTINUOUS
 10
5.952320
 20
1.625800
  0
VERTEX
  8
0
  6
CONTINUOUS
 10
5.927240
 20
1.659240
  0
SEQEND
  8
0
  0
SOLID
  8
0
 62
    15
 10
5.952320
 20
1.625800
 11
5.942200
 21
2.362360
 12
5.993680
 22
1.652640
 13
5.983560
 23
2.388760
  0
POLYLINE
  8
0
  6
CONTINUOUS
 66
     1
 40
0.000000
 41
0.000000
  0
VERTEX
  8
0
  6
CONTINUOUS
 10
5.952320
 20
1.625800
  0
VERTEX
  8
0
  6
CONTINUOUS
 10
5.942200
 20
2.362360
  0
VERTEX
  8
0
  6
CONTINUOUS
 10
5.983560
 20
2.388760
  0
VERTEX
  8
0
  6
CONTINUOUS
 10
5.993680
 20
1.652640
  0
VERTEX
  8
0
  6
CONTINUOUS
 10
5.952320
 20
1.625800
  0
SEQEND
  8
0
  0
SOLID
  8
0
 62
    15
 10
5.993680
 20
1.652640
 11
5.983560
 21
2.388760
 12
6.035480
 22
1.673320
 13
6.025360
 23
2.409880
  0
POLYLINE
  8
0
  6
CONTINUOUS
 66
     1
 40
0.000000
 41
0.000000
  0
VERTEX
  8
0
  6
CONTINUOUS
 10
5.993680
 20
1.652640
  0
VERTEX
  8
0
  6
CONTINUOUS
 10
5.983560
 20
2.388760
  0
VERTEX
  8
0
  6
CONTINUOUS
 10
6.025360
 20
2.409880
  0
VERTEX
  8
0
  6
CONTINUOUS
 10
6.035480
 20
1.673320
  0
VERTEX
  8
0
  6
CONTINUOUS
 10
5.993680
 20
1.652640
  0
SEQEND
  8
0
  0
SOLID
  8
0
 62
    15
 10
6.035480
 20
1.673320
 11
6.025360
 21
2.409880
 12
6.076840
 22
1.689160
 13
6.066720
 23
2.425720
  0
POLYLINE
  8
0
  6
CONTINUOUS
 66
     1
 40
0.000000
 41
0.000000
  0
VERTEX
  8
0
  6
CONTINUOUS
 10
6.035480
 20
1.673320
  0
VERTEX
  8
0
  6
CONTINUOUS
 10
6.025360
 20
2.409880
  0
VERTEX
  8
0
  6
CONTINUOUS
 10
6.066720
 20
2.425720
  0
VERTEX
  8
0
  6
CONTINUOUS
 10
6.076840
 20
1.689160
  0
VERTEX
  8
0
  6
CONTINUOUS
 10
6.035480
 20
1.673320
  0
SEQEND
  8
0
  0
SOLID
  8
0
 62
    15
 10
6.076840
 20
1.689160
 11
6.066720
 21
2.425720
 12
6.118200
 22
1.700160
 13
6.108080
 23
2.436720
  0
POLYLINE
  8
0
  6
CONTINUOUS
 66
     1
 40
0.000000
 41
0.000000
  0
VERTEX
  8
0
  6
CONTINUOUS
 10
6.076840
 20
1.689160
  0
VERTEX
  8
0
  6
CONTINUOUS
 10
6.066720
 20
2.425720
  0
VERTEX
  8
0
  6
CONTINUOUS
 10
6.108080
 20
2.436720
  0
VERTEX
  8
0
  6
CONTINUOUS
 10
6.118200
 20
1.700160
  0
VERTEX
  8
0
  6
CONTINUOUS
 10
6.076840
 20
1.689160
  0
SEQEND
  8
0
  0
SOLID
  8
0
 62
    15
 10
6.118200
 20
1.700160
 11
6.108080
 21
2.436720
 12
6.158680
 22
1.707200
 13
6.148560
 23
2.443320
  0
POLYLINE
  8
0
  6
CONTINUOUS
 66
     1
 40
0.000000
 41
0.000000
  0
VERTEX
  8
0
  6
CONTINUOUS
 10
6.118200
 20
1.700160
  0
VERTEX
  8
0
  6
CONTINUOUS
 10
6.108080
 20
2.436720
  0
VERTEX
  8
0
  6
CONTINUOUS
 10
6.148560
 20
2.443320
  0
VERTEX
  8
0
  6
CONTINUOUS
 10
6.158680
 20
1.707200
  0
VERTEX
  8
0
  6
CONTINUOUS
 10
6.118200
 20
1.700160
  0
SEQEND
  8
0
  0
SOLID
  8
0
 62
    15
 10
6.158680
 20
1.707200
 11
6.148560
 21
2.443320
 12
6.198280
 22
1.710280
 13
6.188160
 23
2.446840
  0
POLYLINE
  8
0
  6
CONTINUOUS
 66
     1
 40
0.000000
 41
0.000000
  0
VERTEX
  8
0
  6
CONTINUOUS
 10
6.158680
 20
1.707200
  0
VERTEX
  8
0
  6
CONTINUOUS
 10
6.148560
 20
2.443320
  0
VERTEX
  8
0
  6
CONTINUOUS
 10
6.188160
 20
2.446840
  0
VERTEX
  8
0
  6
CONTINUOUS
 10
6.198280
 20
1.710280
  0
VERTEX
  8
0
  6
CONTINUOUS
 10
6.158680
 20
1.707200
  0
SEQEND
  8
0
  0
SOLID
  8
0
 62
    15
 10
6.198280
 20
1.710280
 11
6.188160
 21
2.446840
 12
6.273960
 22
1.708080
 13
6.263840
 23
2.444640
  0
POLYLINE
  8
0
  6
CONTINUOUS
 66
     1
 40
0.000000
 41
0.000000
  0
VERTEX
  8
0
  6
CONTINUOUS
 10
6.198280
 20
1.710280
  0
VERTEX
  8
0
  6
CONTINUOUS
 10
6.188160
 20
2.446840
  0
VERTEX
  8
0
  6
CONTINUOUS
 10
6.263840
 20
2.444640
  0
VERTEX
  8
0
  6
CONTINUOUS
 10
6.273960
 20
1.708080
  0
VERTEX
  8
0
  6
CONTINUOUS
 10
6.198280
 20
1.710280
  0
SEQEND
  8
0
  0
SOLID
  8
0
 62
    15
 10
6.273960
 20
1.708080
 11
6.263840
 21
2.444640
 12
6.342160
 22
1.697960
 13
6.332040
 23
2.434520
  0
POLYLINE
  8
0
  6
CONTINUOUS
 66
     1
 40
0.000000
 41
0.000000
  0
VERTEX
  8
0
  6
CONTINUOUS
 10
6.273960
 20
1.708080
  0
VERTEX
  8
0
  6
CONTINUOUS
 10
6.263840
 20
2.444640
  0
VERTEX
  8
0
  6
CONTINUOUS
 10
6.332040
 20
2.434520
  0
VERTEX
  8
0
  6
CONTINUOUS
 10
6.342160
 20
1.697960
  0
VERTEX
  8
0
  6
CONTINUOUS
 10
6.273960
 20
1.708080
  0
SEQEND
  8
0
  0
SOLID
  8
0
 62
    15
 10
6.342160
 20
1.697960
 11
6.332040
 21
2.434520
 12
6.401120
 22
1.684320
 13
6.391000
 23
2.420880
  0
POLYLINE
  8
0
  6
CONTINUOUS
 66
     1
 40
0.000000
 41
0.000000
  0
VERTEX
  8
0
  6
CONTINUOUS
 10
6.342160
 20
1.697960
  0
VERTEX
  8
0
  6
CONTINUOUS
 10
6.332040
 20
2.434520
  0
VERTEX
  8
0
  6
CONTINUOUS
 10
6.391000
 20
2.420880
  0
VERTEX
  8
0
  6
CONTINUOUS
 10
6.401120
 20
1.684320
  0
VERTEX
  8
0
  6
CONTINUOUS
 10
6.342160
 20
1.697960
  0
SEQEND
  8
0
  0
SOLID
  8
0
 62
    15
 10
6.401120
 20
1.684320
 11
6.391000
 21
2.420880
 12
6.432360
 22
1.675960
 13
6.422240
 23
2.412520
  0
POLYLINE
  8
0
  6
CONTINUOUS
 66
     1
 40
0.000000
 41
0.000000
  0
VERTEX
  8
0
  6
CONTINUOUS
 10
6.401120
 20
1.684320
  0
VERTEX
  8
0
  6
CONTINUOUS
 10
6.391000
 20
2.420880
  0
VERTEX
  8
0
  6
CONTINUOUS
 10
6.422240
 20
2.412520
  0
VERTEX
  8
0
  6
CONTINUOUS
 10
6.432360
 20
1.675960
  0
VERTEX
  8
0
  6
CONTINUOUS
 10
6.401120
 20
1.684320
  0
SEQEND
  8
0
  0
SOLID
  8
0
 62
    15
 10
6.432360
 20
1.675960
 11
6.422240
 21
2.412520
 12
6.448640
 22
1.671560
 13
6.438520
 23
2.408120
  0
POLYLINE
  8
0
  6
CONTINUOUS
 66
     1
 40
0.000000
 41
0.000000
  0
VERTEX
  8
0
  6
CONTINUOUS
 10
6.432360
 20
1.675960
  0
VERTEX
  8
0
  6
CONTINUOUS
 10
6.422240
 20
2.412520
  0
VERTEX
  8
0
  6
CONTINUOUS
 10
6.438520
 20
2.408120
  0
VERTEX
  8
0
  6
CONTINUOUS
 10
6.448640
 20
1.671560
  0
VERTEX
  8
0
  6
CONTINUOUS
 10
6.432360
 20
1.675960
  0
SEQEND
  8
0
  0
SOLID
  8
0
 62
    15
 10
6.448640
 20
1.671560
 11
6.438520
 21
2.408120
 12
6.467560
 22
1.666720
 13
6.457000
 23
2.403280
  0
POLYLINE
  8
0
  6
CONTINUOUS
 66
     1
 40
0.000000
 41
0.000000
  0
VERTEX
  8
0
  6
CONTINUOUS
 10
6.448640
 20
1.671560
  0
VERTEX
  8
0
  6
CONTINUOUS
 10
6.438520
 20
2.408120
  0
VERTEX
  8
0
  6
CONTINUOUS
 10
6.457000
 20
2.403280
  0
VERTEX
  8
0
  6
CONTINUOUS
 10
6.467560
 20
1.666720
  0
VERTEX
  8
0
  6
CONTINUOUS
 10
6.448640
 20
1.671560
  0
SEQEND
  8
0
  0
SOLID
  8
0
 62
    15
 10
6.467560
 20
1.666720
 11
6.457000
 21
2.403280
 12
6.482080
 22
1.663640
 13
6.471960
 23
2.400200
  0
POLYLINE
  8
0
  6
CONTINUOUS
 66
     1
 40
0.000000
 41
0.000000
  0
VERTEX
  8
0
  6
CONTINUOUS
 10
6.467560
 20
1.666720
  0
VERTEX
  8
0
  6
CONTINUOUS
 10
6.457000
 20
2.403280
  0
VERTEX
  8
0
  6
CONTINUOUS
 10
6.471960
 20
2.400200
  0
VERTEX
  8
0
  6
CONTINUOUS
 10
6.482080
 20
1.663640
  0
VERTEX
  8
0
  6
CONTINUOUS
 10
6.467560
 20
1.666720
  0
SEQEND
  8
0
  0
SOLID
  8
0
 62
    15
 10
6.482080
 20
1.663640
 11
6.471960
 21
2.400200
 12
6.519920
 22
1.657040
 13
6.509800
 23
2.393600
  0
POLYLINE
  8
0
  6
CONTINUOUS
 66
     1
 40
0.000000
 41
0.000000
  0
VERTEX
  8
0
  6
CONTINUOUS
 10
6.482080
 20
1.663640
  0
VERTEX
  8
0
  6
CONTINUOUS
 10
6.471960
 20
2.400200
  0
VERTEX
  8
0
  6
CONTINUOUS
 10
6.509800
 20
2.393600
  0
VERTEX
  8
0
  6
CONTINUOUS
 10
6.519920
 20
1.657040
  0
VERTEX
  8
0
  6
CONTINUOUS
 10
6.482080
 20
1.663640
  0
SEQEND
  8
0
  0
SOLID
  8
0
 62
    15
 10
6.519920
 20
1.657040
 11
6.509800
 21
2.393600
 12
6.559520
 22
1.650000
 13
6.549400
 23
2.386560
  0
POLYLINE
  8
0
  6
CONTINUOUS
 66
     1
 40
0.000000
 41
0.000000
  0
VERTEX
  8
0
  6
CONTINUOUS
 10
6.519920
 20
1.657040
  0
VERTEX
  8
0
  6
CONTINUOUS
 10
6.509800
 20
2.393600
  0
VERTEX
  8
0
  6
CONTINUOUS
 10
6.549400
 20
2.386560
  0
VERTEX
  8
0
  6
CONTINUOUS
 10
6.559520
 20
1.650000
  0
VERTEX
  8
0
  6
CONTINUOUS
 10
6.519920
 20
1.657040
  0
SEQEND
  8
0
  0
SOLID
  8
0
 62
    15
 10
6.559520
 20
1.650000
 11
6.549400
 21
2.386560
 12
6.612760
 22
1.640760
 13
6.602640
 23
2.377320
  0
POLYLINE
  8
0
  6
CONTINUOUS
 66
     1
 40
0.000000
 41
0.000000
  0
VERTEX
  8
0
  6
CONTINUOUS
 10
6.559520
 20
1.650000
  0
VERTEX
  8
0
  6
CONTINUOUS
 10
6.549400
 20
2.386560
  0
VERTEX
  8
0
  6
CONTINUOUS
 10
6.602640
 20
2.377320
  0
VERTEX
  8
0
  6
CONTINUOUS
 10
6.612760
 20
1.640760
  0
VERTEX
  8
0
  6
CONTINUOUS
 10
6.559520
 20
1.650000
  0
SEQEND
  8
0
  0
SOLID
  8
0
 62
    15
 10
6.612760
 20
1.640760
 11
6.602640
 21
2.377320
 12
6.671280
 22
1.632400
 13
6.661160
 23
2.368960
  0
POLYLINE
  8
0
  6
CONTINUOUS
 66
     1
 40
0.000000
 41
0.000000
  0
VERTEX
  8
0
  6
CONTINUOUS
 10
6.612760
 20
1.640760
  0
VERTEX
  8
0
  6
CONTINUOUS
 10
6.602640
 20
2.377320
  0
VERTEX
  8
0
  6
CONTINUOUS
 10
6.661160
 20
2.368960
  0
VERTEX
  8
0
  6
CONTINUOUS
 10
6.671280
 20
1.632400
  0
VERTEX
  8
0
  6
CONTINUOUS
 10
6.612760
 20
1.640760
  0
SEQEND
  8
0
  0
SOLID
  8
0
 62
    15
 10
6.671280
 20
1.632400
 11
6.661160
 21
2.368960
 12
6.732440
 22
1.625800
 13
6.721880
 23
2.362360
  0
POLYLINE
  8
0
  6
CONTINUOUS
 66
     1
 40
0.000000
 41
0.000000
  0
VERTEX
  8
0
  6
CONTINUOUS
 10
6.671280
 20
1.632400
  0
VERTEX
  8
0
  6
CONTINUOUS
 10
6.661160
 20
2.368960
  0
VERTEX
  8
0
  6
CONTINUOUS
 10
6.721880
 20
2.362360
  0
VERTEX
  8
0
  6
CONTINUOUS
 10
6.732440
 20
1.625800
  0
VERTEX
  8
0
  6
CONTINUOUS
 10
6.671280
 20
1.632400
  0
SEQEND
  8
0
  0
SOLID
  8
0
 62
    15
 10
6.732440
 20
1.625800
 11
6.721880
 21
2.362360
 12
6.792280
 22
1.622720
 13
6.782160
 23
2.359280
  0
POLYLINE
  8
0
  6
CONTINUOUS
 66
     1
 40
0.000000
 41
0.000000
  0
VERTEX
  8
0
  6
CONTINUOUS
 10
6.732440
 20
1.625800
  0
VERTEX
  8
0
  6
CONTINUOUS
 10
6.721880
 20
2.362360
  0
VERTEX
  8
0
  6
CONTINUOUS
 10
6.782160
 20
2.359280
  0
VERTEX
  8
0
  6
CONTINUOUS
 10
6.792280
 20
1.622720
  0
VERTEX
  8
0
  6
CONTINUOUS
 10
6.732440
 20
1.625800
  0
SEQEND
  8
0
  0
SOLID
  8
0
 62
    15
 10
6.792280
 20
1.622720
 11
6.782160
 21
2.359280
 12
6.848160
 22
1.624480
 13
6.838040
 23
2.361040
  0
POLYLINE
  8
0
  6
CONTINUOUS
 66
     1
 40
0.000000
 41
0.000000
  0
VERTEX
  8
0
  6
CONTINUOUS
 10
6.792280
 20
1.622720
  0
VERTEX
  8
0
  6
CONTINUOUS
 10
6.782160
 20
2.359280
  0
VERTEX
  8
0
  6
CONTINUOUS
 10
6.838040
 20
2.361040
  0
VERTEX
  8
0
  6
CONTINUOUS
 10
6.848160
 20
1.624480
  0
VERTEX
  8
0
  6
CONTINUOUS
 10
6.792280
 20
1.622720
  0
SEQEND
  8
0
  0
SOLID
  8
0
 62
    15
 10
6.848160
 20
1.624480
 11
6.838040
 21
2.361040
 12
6.897000
 22
1.632840
 13
6.886880
 23
2.369400
  0
POLYLINE
  8
0
  6
CONTINUOUS
 66
     1
 40
0.000000
 41
0.000000
  0
VERTEX
  8
0
  6
CONTINUOUS
 10
6.848160
 20
1.624480
  0
VERTEX
  8
0
  6
CONTINUOUS
 10
6.838040
 20
2.361040
  0
VERTEX
  8
0
  6
CONTINUOUS
 10
6.886880
 20
2.369400
  0
VERTEX
  8
0
  6
CONTINUOUS
 10
6.897000
 20
1.632840
  0
VERTEX
  8
0
  6
CONTINUOUS
 10
6.848160
 20
1.624480
  0
SEQEND
  8
0
  0
SOLID
  8
0
 62
    15
 10
6.897000
 20
1.632840
 11
6.886880
 21
2.369400
 12
6.937480
 22
1.646480
 13
6.927360
 23
2.383040
  0
POLYLINE
  8
0
  6
CONTINUOUS
 66
     1
 40
0.000000
 41
0.000000
  0
VERTEX
  8
0
  6
CONTINUOUS
 10
6.897000
 20
1.632840
  0
VERTEX
  8
0
  6
CONTINUOUS
 10
6.886880
 20
2.369400
  0
VERTEX
  8
0
  6
CONTINUOUS
 10
6.927360
 20
2.383040
  0
VERTEX
  8
0
  6
CONTINUOUS
 10
6.937480
 20
1.646480
  0
VERTEX
  8
0
  6
CONTINUOUS
 10
6.897000
 20
1.632840
  0
SEQEND
  8
0
  0
SOLID
  8
0
 62
    15
 10
6.937480
 20
1.646480
 11
6.927360
 21
2.383040
 12
6.972680
 22
1.662320
 13
6.962560
 23
2.398880
  0
POLYLINE
  8
0
  6
CONTINUOUS
 66
     1
 40
0.000000
 41
0.000000
  0
VERTEX
  8
0
  6
CONTINUOUS
 10
6.937480
 20
1.646480
  0
VERTEX
  8
0
  6
CONTINUOUS
 10
6.927360
 20
2.383040
  0
VERTEX
  8
0
  6
CONTINUOUS
 10
6.962560
 20
2.398880
  0
VERTEX
  8
0
  6
CONTINUOUS
 10
6.972680
 20
1.662320
  0
VERTEX
  8
0
  6
CONTINUOUS
 10
6.937480
 20
1.646480
  0
SEQEND
  8
0
  0
SOLID
  8
0
 62
    15
 10
6.972680
 20
1.662320
 11
6.962560
 21
2.398880
 12
7.029880
 22
1.696640
 13
7.019760
 23
2.433200
  0
POLYLINE
  8
0
  6
CONTINUOUS
 66
     1
 40
0.000000
 41
0.000000
  0
VERTEX
  8
0
  6
CONTINUOUS
 10
6.972680
 20
1.662320
  0
VERTEX
  8
0
  6
CONTINUOUS
 10
6.962560
 20
2.398880
  0
VERTEX
  8
0
  6
CONTINUOUS
 10
7.019760
 20
2.433200
  0
VERTEX
  8
0
  6
CONTINUOUS
 10
7.029880
 20
1.696640
  0
VERTEX
  8
0
  6
CONTINUOUS
 10
6.972680
 20
1.662320
  0
SEQEND
  8
0
  0
SOLID
  8
0
 62
    15
 10
7.029880
 20
1.696640
 11
7.019760
 21
2.433200
 12
7.077400
 22
1.724800
 13
7.067280
 23
2.461360
  0
POLYLINE
  8
0
  6
CONTINUOUS
 66
     1
 40
0.000000
 41
0.000000
  0
VERTEX
  8
0
  6
CONTINUOUS
 10
7.029880
 20
1.696640
  0
VERTEX
  8
0
  6
CONTINUOUS
 10
7.019760
 20
2.433200
  0
VERTEX
  8
0
  6
CONTINUOUS
 10
7.067280
 20
2.461360
  0
VERTEX
  8
0
  6
CONTINUOUS
 10
7.077400
 20
1.724800
  0
VERTEX
  8
0
  6
CONTINUOUS
 10
7.029880
 20
1.696640
  0
SEQEND
  8
0
  0
SOLID
  8
0
 62
    15
 10
7.077400
 20
1.724800
 11
7.067280
 21
2.461360
 12
7.100720
 22
1.733600
 13
7.090600
 23
2.470160
  0
POLYLINE
  8
0
  6
CONTINUOUS
 66
     1
 40
0.000000
 41
0.000000
  0
VERTEX
  8
0
  6
CONTINUOUS
 10
7.077400
 20
1.724800
  0
VERTEX
  8
0
  6
CONTINUOUS
 10
7.067280
 20
2.461360
  0
VERTEX
  8
0
  6
CONTINUOUS
 10
7.090600
 20
2.470160
  0
VERTEX
  8
0
  6
CONTINUOUS
 10
7.100720
 20
1.733600
  0
VERTEX
  8
0
  6
CONTINUOUS
 10
7.077400
 20
1.724800
  0
SEQEND
  8
0
  0
SOLID
  8
0
 62
    15
 10
7.100720
 20
1.733600
 11
7.090600
 21
2.470160
 12
7.124920
 22
1.736680
 13
7.114800
 23
2.473240
  0
POLYLINE
  8
0
  6
CONTINUOUS
 66
     1
 40
0.000000
 41
0.000000
  0
VERTEX
  8
0
  6
CONTINUOUS
 10
7.100720
 20
1.733600
  0
VERTEX
  8
0
  6
CONTINUOUS
 10
7.090600
 20
2.470160
  0
VERTEX
  8
0
  6
CONTINUOUS
 10
7.114800
 20
2.473240
  0
VERTEX
  8
0
  6
CONTINUOUS
 10
7.124920
 20
1.736680
  0
VERTEX
  8
0
  6
CONTINUOUS
 10
7.100720
 20
1.733600
  0
SEQEND
  8
0
  0
SOLID
  8
0
 62
    15
 10
7.124920
 20
1.736680
 11
7.114800
 21
2.473240
 12
7.457120
 22
1.736680
 13
7.447000
 23
2.473240
  0
POLYLINE
  8
0
  6
CONTINUOUS
 66
     1
 40
0.000000
 41
0.000000
  0
VERTEX
  8
0
  6
CONTINUOUS
 10
7.124920
 20
1.736680
  0
VERTEX
  8
0
  6
CONTINUOUS
 10
7.114800
 20
2.473240
  0
VERTEX
  8
0
  6
CONTINUOUS
 10
7.447000
 20
2.473240
  0
VERTEX
  8
0
  6
CONTINUOUS
 10
7.457120
 20
1.736680
  0
VERTEX
  8
0
  6
CONTINUOUS
 10
7.124920
 20
1.736680
  0
SEQEND
  8
0
  0
SOLID
  8
0
 62
    15
 10
7.457120
 20
1.736680
 11
7.447000
 21
2.473240
 12
7.519160
 22
1.730520
 13
7.508600
 23
2.467080
  0
POLYLINE
  8
0
  6
CONTINUOUS
 66
     1
 40
0.000000
 41
0.000000
  0
VERTEX
  8
0
  6
CONTINUOUS
 10
7.457120
 20
1.736680
  0
VERTEX
  8
0
  6
CONTINUOUS
 10
7.447000
 20
2.473240
  0
VERTEX
  8
0
  6
CONTINUOUS
 10
7.508600
 20
2.467080
  0
VERTEX
  8
0
  6
CONTINUOUS
 10
7.519160
 20
1.730520
  0
VERTEX
  8
0
  6
CONTINUOUS
 10
7.457120
 20
1.736680
  0
SEQEND
  8
0
  0
SOLID
  8
0
 62
    15
 10
7.519160
 20
1.730520
 11
7.508600
 21
2.467080
 12
7.549080
 22
1.721280
 13
7.538960
 23
2.457840
  0
POLYLINE
  8
0
  6
CONTINUOUS
 66
     1
 40
0.000000
 41
0.000000
  0
VERTEX
  8
0
  6
CONTINUOUS
 10
7.519160
 20
1.730520
  0
VERTEX
  8
0
  6
CONTINUOUS
 10
7.508600
 20
2.467080
  0
VERTEX
  8
0
  6
CONTINUOUS
 10
7.538960
 20
2.457840
  0
VERTEX
  8
0
  6
CONTINUOUS
 10
7.549080
 20
1.721280
  0
VERTEX
  8
0
  6
CONTINUOUS
 10
7.519160
 20
1.730520
  0
SEQEND
  8
0
  0
SOLID
  8
0
 62
    15
 10
7.549080
 20
1.721280
 11
7.538960
 21
2.457840
 12
7.576800
 22
1.706320
 13
7.566680
 23
2.442880
  0
POLYLINE
  8
0
  6
CONTINUOUS
 66
     1
 40
0.000000
 41
0.000000
  0
VERTEX
  8
0
  6
CONTINUOUS
 10
7.549080
 20
1.721280
  0
VERTEX
  8
0
  6
CONTINUOUS
 10
7.538960
 20
2.457840
  0
VERTEX
  8
0
  6
CONTINUOUS
 10
7.566680
 20
2.442880
  0
VERTEX
  8
0
  6
CONTINUOUS
 10
7.576800
 20
1.706320
  0
VERTEX
  8
0
  6
CONTINUOUS
 10
7.549080
 20
1.721280
  0
SEQEND
  8
0
  0
SOLID
  8
0
 62
    15
 10
7.576800
 20
1.706320
 11
7.566680
 21
2.442880
 12
7.601000
 22
1.685200
 13
7.590880
 23
2.421760
  0
POLYLINE
  8
0
  6
CONTINUOUS
 66
     1
 40
0.000000
 41
0.000000
  0
VERTEX
  8
0
  6
CONTINUOUS
 10
7.576800
 20
1.706320
  0
VERTEX
  8
0
  6
CONTINUOUS
 10
7.566680
 20
2.442880
  0
VERTEX
  8
0
  6
CONTINUOUS
 10
7.590880
 20
2.421760
  0
VERTEX
  8
0
  6
CONTINUOUS
 10
7.601000
 20
1.685200
  0
VERTEX
  8
0
  6
CONTINUOUS
 10
7.576800
 20
1.706320
  0
SEQEND
  8
0
  0
SOLID
  8
0
 62
    15
 10
7.601000
 20
1.685200
 11
7.590880
 21
2.421760
 12
7.619920
 22
1.656160
 13
7.609800
 23
2.392720
  0
POLYLINE
  8
0
  6
CONTINUOUS
 66
     1
 40
0.000000
 41
0.000000
  0
VERTEX
  8
0
  6
CONTINUOUS
 10
7.601000
 20
1.685200
  0
VERTEX
  8
0
  6
CONTINUOUS
 10
7.590880
 20
2.421760
  0
VERTEX
  8
0
  6
CONTINUOUS
 10
7.609800
 20
2.392720
  0
VERTEX
  8
0
  6
CONTINUOUS
 10
7.619920
 20
1.656160
  0
VERTEX
  8
0
  6
CONTINUOUS
 10
7.601000
 20
1.685200
  0
SEQEND
  8
0
  0
SOLID
  8
0
 62
    15
 10
7.632240
 20
1.618320
 11
7.622120
 21
2.354880
 12
7.636640
 22
1.570800
 13
7.626520
 23
2.306920
  0
POLYLINE
  8
0
  6
CONTINUOUS
 66
     1
 40
0.000000
 41
0.000000
  0
VERTEX
  8
0
  6
CONTINUOUS
 10
7.632240
 20
1.618320
  0
VERTEX
  8
0
  6
CONTINUOUS
 10
7.622120
 20
2.354880
  0
VERTEX
  8
0
  6
CONTINUOUS
 10
7.626520
 20
2.306920
  0
VERTEX
  8
0
  6
CONTINUOUS
 10
7.636640
 20
1.570800
  0
VERTEX
  8
0
  6
CONTINUOUS
 10
7.632240
 20
1.618320
  0
SEQEND
  8
0
  0
SOLID
  8
0
 62
    15
 10
7.619920
 20
1.656160
 11
7.609800
 21
2.392720
 12
7.632240
 22
1.618320
 13
7.622120
 23
2.354880
  0
POLYLINE
  8
0
  6
CONTINUOUS
 66
     1
 40
0.000000
 41
0.000000
  0
VERTEX
  8
0
  6
CONTINUOUS
 10
7.619920
 20
1.656160
  0
VERTEX
  8
0
  6
CONTINUOUS
 10
7.609800
 20
2.392720
  0
VERTEX
  8
0
  6
CONTINUOUS
 10
7.622120
 20
2.354880
  0
VERTEX
  8
0
  6
CONTINUOUS
 10
7.632240
 20
1.618320
  0
VERTEX
  8
0
  6
CONTINUOUS
 10
7.619920
 20
1.656160
  0
SEQEND
  8
0
  0
SOLID
  8
0
 62
    15
 10
4.024240
 20
1.565520
 11
4.014120
 21
2.302080
 12
4.028200
 22
1.613040
 13
4.018080
 23
2.349600
  0
POLYLINE
  8
0
  6
CONTINUOUS
 66
     1
 40
0.000000
 41
0.000000
  0
VERTEX
  8
0
  6
CONTINUOUS
 10
4.024240
 20
1.565520
  0
VERTEX
  8
0
  6
CONTINUOUS
 10
4.014120
 20
2.302080
  0
VERTEX
  8
0
  6
CONTINUOUS
 10
4.018080
 20
2.349600
  0
VERTEX
  8
0
  6
CONTINUOUS
 10
4.028200
 20
1.613040
  0
VERTEX
  8
0
  6
CONTINUOUS
 10
4.024240
 20
1.565520
  0
SEQEND
  8
0
  0
SOLID
  8
0
 62
    15
 10
4.028200
 20
1.613040
 11
4.018080
 21
2.349600
 12
4.039200
 22
1.650880
 13
4.029080
 23
2.387440
  0
POLYLINE
  8
0
  6
CONTINUOUS
 66
     1
 40
0.000000
 41
0.000000
  0
VERTEX
  8
0
  6
CONTINUOUS
 10
4.028200
 20
1.613040
  0
VERTEX
  8
0
  6
CONTINUOUS
 10
4.018080
 20
2.349600
  0
VERTEX
  8
0
  6
CONTINUOUS
 10
4.029080
 20
2.387440
  0
VERTEX
  8
0
  6
CONTINUOUS
 10
4.039200
 20
1.650880
  0
VERTEX
  8
0
  6
CONTINUOUS
 10
4.028200
 20
1.613040
  0
SEQEND
  8
0
  0
POLYLINE
  8
0
  6
CONTINUOUS
 66
     1
 40
0.000000
 41
0.000000
  0
VERTEX
  8
0
  6
CONTINUOUS
 10
4.024240
 20
1.565520
  0
VERTEX
  8
0
  6
CONTINUOUS
 10
4.028200
 20
1.613040
  0
VERTEX
  8
0
  6
CONTINUOUS
 10
4.039200
 20
1.650880
  0
VERTEX
  8
0
  6
CONTINUOUS
 10
4.055920
 20
1.679480
  0
VERTEX
  8
0
  6
CONTINUOUS
 10
4.077920
 20
1.700600
  0
VERTEX
  8
0
  6
CONTINUOUS
 10
4.103440
 20
1.715120
  0
VERTEX
  8
0
  6
CONTINUOUS
 10
4.131600
 20
1.723920
  0
VERTEX
  8
0
  6
CONTINUOUS
 10
4.191880
 20
1.730080
  0
VERTEX
  8
0
  6
CONTINUOUS
 10
4.524080
 20
1.730080
  0
VERTEX
  8
0
  6
CONTINUOUS
 10
4.548280
 20
1.727000
  0
VERTEX
  8
0
  6
CONTINUOUS
 10
4.571160
 20
1.718200
  0
VERTEX
  8
0
  6
CONTINUOUS
 10
4.676320
 20
1.655720
  0
VERTEX
  8
0
  6
CONTINUOUS
 10
4.711080
 20
1.639440
  0
VERTEX
  8
0
  6
CONTINUOUS
 10
4.752000
 20
1.625800
  0
VERTEX
  8
0
  6
CONTINUOUS
 10
4.801280
 20
1.617440
  0
VERTEX
  8
0
  6
CONTINUOUS
 10
4.858920
 20
1.613920
  0
VERTEX
  8
0
  6
CONTINUOUS
 10
4.983880
 20
1.618760
  0
VERTEX
  8
0
  6
CONTINUOUS
 10
5.043720
 20
1.624920
  0
VERTEX
  8
0
  6
CONTINUOUS
 10
5.096960
 20
1.632400
  0
VERTEX
  8
0
  6
CONTINUOUS
 10
5.155920
 20
1.642960
  0
VERTEX
  8
0
  6
CONTINUOUS
 10
5.180120
 20
1.650000
  0
VERTEX
  8
0
  6
CONTINUOUS
 10
5.239080
 20
1.671560
  0
VERTEX
  8
0
  6
CONTINUOUS
 10
5.294520
 20
1.688280
  0
VERTEX
  8
0
  6
CONTINUOUS
 10
5.359640
 20
1.701920
  0
VERTEX
  8
0
  6
CONTINUOUS
 10
5.432680
 20
1.706760
  0
VERTEX
  8
0
  6
CONTINUOUS
 10
5.471400
 20
1.705000
  0
VERTEX
  8
0
  6
CONTINUOUS
 10
5.511000
 20
1.698840
  0
VERTEX
  8
0
  6
CONTINUOUS
 10
5.551480
 20
1.688720
  0
VERTEX
  8
0
  6
CONTINUOUS
 10
5.592400
 20
1.673760
  0
VERTEX
  8
0
  6
CONTINUOUS
 10
5.633320
 20
1.653080
  0
VERTEX
  8
0
  6
CONTINUOUS
 10
5.674240
 20
1.625800
  0
VERTEX
  8
0
  6
CONTINUOUS
 10
5.673800
 20
1.625800
  0
VERTEX
  8
0
  6
CONTINUOUS
 10
5.688760
 20
1.647800
  0
VERTEX
  8
0
  6
CONTINUOUS
 10
5.705040
 20
1.665840
  0
VERTEX
  8
0
  6
CONTINUOUS
 10
5.741560
 20
1.692680
  0
VERTEX
  8
0
  6
CONTINUOUS
 10
5.780280
 20
1.706760
  0
VERTEX
  8
0
  6
CONTINUOUS
 10
5.820320
 20
1.709840
  0
VERTEX
  8
0
  6
CONTINUOUS
 10
5.859480
 20
1.702360
  0
VERTEX
  8
0
  6
CONTINUOUS
 10
5.896000
 20
1.685200
  0
VERTEX
  8
0
  6
CONTINUOUS
 10
5.927240
 20
1.659240
  0
VERTEX
  8
0
  6
CONTINUOUS
 10
5.952320
 20
1.625800
  0
VERTEX
  8
0
  6
CONTINUOUS
 10
5.993680
 20
1.652640
  0
VERTEX
  8
0
  6
CONTINUOUS
 10
6.035480
 20
1.673320
  0
VERTEX
  8
0
  6
CONTINUOUS
 10
6.076840
 20
1.689160
  0
VERTEX
  8
0
  6
CONTINUOUS
 10
6.118200
 20
1.700160
  0
VERTEX
  8
0
  6
CONTINUOUS
 10
6.158680
 20
1.707200
  0
VERTEX
  8
0
  6
CONTINUOUS
 10
6.198280
 20
1.710280
  0
VERTEX
  8
0
  6
CONTINUOUS
 10
6.273960
 20
1.708080
  0
VERTEX
  8
0
  6
CONTINUOUS
 10
6.342160
 20
1.697960
  0
VERTEX
  8
0
  6
CONTINUOUS
 10
6.432360
 20
1.675960
  0
VERTEX
  8
0
  6
CONTINUOUS
 10
6.482080
 20
1.663640
  0
VERTEX
  8
0
  6
CONTINUOUS
 10
6.612760
 20
1.640760
  0
VERTEX
  8
0
  6
CONTINUOUS
 10
6.671280
 20
1.632400
  0
VERTEX
  8
0
  6
CONTINUOUS
 10
6.732440
 20
1.625800
  0
VERTEX
  8
0
  6
CONTINUOUS
 10
6.792280
 20
1.622720
  0
VERTEX
  8
0
  6
CONTINUOUS
 10
6.848160
 20
1.624480
  0
VERTEX
  8
0
  6
CONTINUOUS
 10
6.897000
 20
1.632840
  0
VERTEX
  8
0
  6
CONTINUOUS
 10
6.937480
 20
1.646480
  0
VERTEX
  8
0
  6
CONTINUOUS
 10
6.972680
 20
1.662320
  0
VERTEX
  8
0
  6
CONTINUOUS
 10
7.077400
 20
1.724800
  0
VERTEX
  8
0
  6
CONTINUOUS
 10
7.100720
 20
1.733600
  0
VERTEX
  8
0
  6
CONTINUOUS
 10
7.124920
 20
1.736680
  0
VERTEX
  8
0
  6
CONTINUOUS
 10
7.457120
 20
1.736680
  0
VERTEX
  8
0
  6
CONTINUOUS
 10
7.519160
 20
1.730520
  0
VERTEX
  8
0
  6
CONTINUOUS
 10
7.549080
 20
1.721280
  0
VERTEX
  8
0
  6
CONTINUOUS
 10
7.576800
 20
1.706320
  0
VERTEX
  8
0
  6
CONTINUOUS
 10
7.601000
 20
1.685200
  0
VERTEX
  8
0
  6
CONTINUOUS
 10
7.619920
 20
1.656160
  0
VERTEX
  8
0
  6
CONTINUOUS
 10
7.632240
 20
1.618320
  0
VERTEX
  8
0
  6
CONTINUOUS
 10
7.636640
 20
1.570800
  0
VERTEX
  8
0
  6
CONTINUOUS
 10
7.636640
 20
0.982080
  0
VERTEX
  8
0
  6
CONTINUOUS
 10
4.022920
 20
0.982080
  0
VERTEX
  8
0
  6
CONTINUOUS
 10
4.022920
 20
1.563760
  0
VERTEX
  8
0
  6
CONTINUOUS
 10
4.024240
 20
1.565520
  0
SEQEND
  8
0
  0
TEXT
  8
0
 10
5.531240
 20
0.735680
 40
0.138250
  1
BA  489
 41
1.000000
  7
SN0
 71
     0
 72
     5
 11
6.121085
 21
0.735680
  0
TEXT
  8
0
 10
5.444560
 20
0.544280
 40
0.138250
  1
1" x 3-5/8"
 41
1.000000
  7
SN0
 71
     0
 72
     5
 11
6.206583
 21
0.544280
  0
ENDSEC
  0
EOF
