  0
SECTION
  2
HEADER
  9
$ACADVER
  1
AC1006
  9
$EXTMIN
 10
3.949880
 20
0.692560
  9
$EXTMAX
 10
7.528400
 20
5.110160
  9
$LTSCALE
 40
0.044000
  9
$PDMODE
 70
    35
  9
$PDSIZE
 40
0.035200
  0
ENDSEC
  0
SECTION
  2
TABLES
  0
TABLE
  2
LTYPE
 70
     9
  0
LTYPE
  2
CONTINUOUS
 70
    64
  3
Solid line
 72
    65
 73
     0
 40
0.000000
  0
LTYPE
  2
DASHED
 70
    64
  3
__ __ __ __ __ __ __ __ __ __ __ __ __ __ __
 72
    65
 73
     2
 40
0.000330
 49
0.000220
 49
-0.000110
  0
LTYPE
  2
HIDDEN
 70
    64
  3
 _ _ _ _ _ _ _ _ _ _ _ _ _ _ _ _ _ _ _ _ _ _
 72
    65
 73
     2
 40
0.000165
 49
0.000110
 49
-0.000055
  0
LTYPE
  2
CENTER
 70
    64
  3
____ _ ____ _ ____ _ ____ _ ____ _ ____ _ ____
 72
    65
 73
     4
 40
0.000880
 49
0.000550
 49
-0.000110
 49
0.000110
 49
-0.000110
  0
LTYPE
  2
PHANTOM
 70
    64
  3
_____ _ _ _____ _ _ _____ _ _ _____ _ _ ____
 72
    65
 73
     6
 40
0.001100
 49
0.000550
 49
-0.000110
 49
0.000110
 49
-0.000110
 49
0.000110
 49
-0.000110
  0
LTYPE
  2
DOT
 70
    64
  3
...............................................
 72
    65
 73
     2
 40
0.000110
 49
0.000000
 49
-0.000110
  0
LTYPE
  2
DASHDOT
 70
    64
  3
__ . __ . __ . __ . __ . __ . __ . __ . __ . __
 72
    65
 73
     4
 40
0.000440
 49
0.000220
 49
-0.000110
 49
0.000000
 49
-0.000110
  0
LTYPE
  2
BORDER
 70
    64
  3
__ __ . __ __ . __ __ . __ __ . __ __ . __ __
 72
    65
 73
     6
 40
0.000770
 49
0.000220
 49
-0.000110
 49
0.000220
 49
-0.000110
 49
0.000000
 49
-0.000110
  0
LTYPE
  2
DIVIDE
 70
    64
  3
__ . . __ . . __ . . __ . . __ . . __ . . __
 72
    65
 73
     6
 40
0.000550
 49
0.000220
 49
-0.000110
 49
0.000000
 49
-0.000110
 49
0.000000
 49
-0.000110
  0
LTYPE
  2
DOTDOT
 70
    64
  3
 . .  . .  . .  . .  . .  . . 
 72
    65
 73
     5
 40
0.000242
 49
-0.000110
 49
0.000000
 49
-0.000110
 49
0.000000
 49
-0.000110
  0
ENDTAB
  0
TABLE
  2
STYLE
 70
     2
  0
STYLE
 70
     0
  2
SN0
 40
0.000000
 41
0.000440
 50
0.000000
 71
     0
 42
0.000000
  3
ROMAND
  0
STYLE
 70
    68
  2
SV0
 40
0.000000
 41
0.000440
 50
0.000000
 71
     0
 42
0.000000
  3
ROMAND
  0
ENDTAB
  0
TABLE
  2
LAYER
 70
     3
  0
LAYER
  2
FOREGROUND
 70
    64
 62
     7
  6
CONTINUOUS
  0
LAYER
  2
BACKGROUND
 70
    65
 62
    -7
  6
CONTINUOUS
  0
LAYER
  2
0
 70
    64
 62
     7
  6
CONTINUOUS
  0
ENDTAB
  0
ENDSEC
  0
SECTION
  2
ENTITIES
  0
POLYLINE
  8
FOREGROUND
  6
CONTINUOUS
 66
     1
 40
0.000000
 41
0.000000
  0
VERTEX
  8
FOREGROUND
  6
CONTINUOUS
 10
0.000000
 20
5.802720
  0
VERTEX
  8
FOREGROUND
  6
CONTINUOUS
 10
8.499920
 20
5.802720
  0
VERTEX
  8
FOREGROUND
  6
CONTINUOUS
 10
8.499920
 20
-5.197280
  0
VERTEX
  8
FOREGROUND
  6
CONTINUOUS
 10
0.000000
 20
-5.197280
  0
VERTEX
  8
FOREGROUND
  6
CONTINUOUS
 10
0.000000
 20
5.802720
  0
SEQEND
  8
0
  0
POLYLINE
  8
FOREGROUND
  6
CONTINUOUS
 66
     1
 40
0.000000
 41
0.000000
  0
VERTEX
  8
FOREGROUND
  6
CONTINUOUS
 10
0.000000
 20
5.802720
  0
VERTEX
  8
FOREGROUND
  6
CONTINUOUS
 10
8.499920
 20
5.802720
  0
VERTEX
  8
FOREGROUND
  6
CONTINUOUS
 10
8.499920
 20
-5.197280
  0
VERTEX
  8
FOREGROUND
  6
CONTINUOUS
 10
0.000000
 20
-5.197280
  0
VERTEX
  8
FOREGROUND
  6
CONTINUOUS
 10
0.000000
 20
5.802720
  0
SEQEND
  8
0
  0
POLYLINE
  8
0
  6
CONTINUOUS
 66
     1
 40
0.014080
 41
0.014080
  0
VERTEX
  8
0
  6
CONTINUOUS
 10
3.956920
 20
4.698760
  0
VERTEX
  8
0
  6
CONTINUOUS
 10
3.994320
 20
4.707120
  0
VERTEX
  8
0
  6
CONTINUOUS
 10
4.029080
 20
4.721200
  0
VERTEX
  8
0
  6
CONTINUOUS
 10
4.050640
 20
4.733520
  0
VERTEX
  8
0
  6
CONTINUOUS
 10
4.071320
 20
4.747600
  0
VERTEX
  8
0
  6
CONTINUOUS
 10
4.109160
 20
4.781480
  0
VERTEX
  8
0
  6
CONTINUOUS
 10
4.143920
 20
4.820200
  0
VERTEX
  8
0
  6
CONTINUOUS
 10
4.175600
 20
4.863320
  0
VERTEX
  8
0
  6
CONTINUOUS
 10
4.257880
 20
4.996200
  0
VERTEX
  8
0
  6
CONTINUOUS
 10
4.272400
 20
5.015560
  0
VERTEX
  8
0
  6
CONTINUOUS
 10
4.297480
 20
5.040640
  0
VERTEX
  8
0
  6
CONTINUOUS
 10
4.324760
 20
5.060880
  0
VERTEX
  8
0
  6
CONTINUOUS
 10
4.334440
 20
5.066600
  0
VERTEX
  8
0
  6
CONTINUOUS
 10
4.354680
 20
5.075400
  0
VERTEX
  8
0
  6
CONTINUOUS
 10
4.386800
 20
5.082880
  0
VERTEX
  8
0
  6
CONTINUOUS
 10
4.408800
 20
5.084200
  0
VERTEX
  8
0
  6
CONTINUOUS
 10
4.431680
 20
5.082000
  0
VERTEX
  8
0
  6
CONTINUOUS
 10
4.455000
 20
5.075840
  0
VERTEX
  8
0
  6
CONTINUOUS
 10
4.479200
 20
5.066160
  0
VERTEX
  8
0
  6
CONTINUOUS
 10
4.515720
 20
5.043720
  0
VERTEX
  8
0
  6
CONTINUOUS
 10
4.552680
 20
5.011160
  0
VERTEX
  8
0
  6
CONTINUOUS
 10
4.577760
 20
4.983440
  0
VERTEX
  8
0
  6
CONTINUOUS
 10
4.653880
 20
5.102680
  0
VERTEX
  8
0
  6
CONTINUOUS
 10
4.857160
 20
5.102680
  0
VERTEX
  8
0
  6
CONTINUOUS
 10
4.893240
 20
5.055600
  0
VERTEX
  8
0
  6
CONTINUOUS
 10
4.919640
 20
5.028760
  0
VERTEX
  8
0
  6
CONTINUOUS
 10
4.945600
 20
5.008080
  0
VERTEX
  8
0
  6
CONTINUOUS
 10
4.963200
 20
4.997960
  0
VERTEX
  8
0
  6
CONTINUOUS
 10
4.980800
 20
4.990040
  0
VERTEX
  8
0
  6
CONTINUOUS
 10
4.998840
 20
4.984760
  0
VERTEX
  8
0
  6
CONTINUOUS
 10
5.017320
 20
4.981240
  0
VERTEX
  8
0
  6
CONTINUOUS
 10
5.036240
 20
4.979920
  0
VERTEX
  8
0
  6
CONTINUOUS
 10
5.075840
 20
4.982120
  0
VERTEX
  8
0
  6
CONTINUOUS
 10
5.119400
 20
4.990040
  0
VERTEX
  8
0
  6
CONTINUOUS
 10
5.220600
 20
5.017320
  0
VERTEX
  8
0
  6
CONTINUOUS
 10
5.319160
 20
5.047680
  0
VERTEX
  8
0
  6
CONTINUOUS
 10
5.357000
 20
5.055600
  0
VERTEX
  8
0
  6
CONTINUOUS
 10
5.403200
 20
5.059120
  0
VERTEX
  8
0
  6
CONTINUOUS
 10
5.478000
 20
5.058240
  0
VERTEX
  8
0
  6
CONTINUOUS
 10
5.511440
 20
5.055600
  0
VERTEX
  8
0
  6
CONTINUOUS
 10
5.577440
 20
5.045480
  0
VERTEX
  8
0
  6
CONTINUOUS
 10
5.641680
 20
5.031840
  0
VERTEX
  8
0
  6
CONTINUOUS
 10
5.833520
 20
4.981680
  0
VERTEX
  8
0
  6
CONTINUOUS
 10
5.874880
 20
4.975520
  0
VERTEX
  8
0
  6
CONTINUOUS
 10
5.892920
 20
4.975080
  0
VERTEX
  8
0
  6
CONTINUOUS
 10
5.909200
 20
4.976400
  0
VERTEX
  8
0
  6
CONTINUOUS
 10
5.937800
 20
4.984760
  0
VERTEX
  8
0
  6
CONTINUOUS
 10
5.962440
 20
4.998400
  0
VERTEX
  8
0
  6
CONTINUOUS
 10
5.984440
 20
5.016000
  0
VERTEX
  8
0
  6
CONTINUOUS
 10
6.053520
 20
5.086400
  0
VERTEX
  8
0
  6
CONTINUOUS
 10
6.074640
 20
5.102680
  0
VERTEX
  8
0
  6
CONTINUOUS
 10
6.253280
 20
5.102680
  0
VERTEX
  8
0
  6
CONTINUOUS
 10
6.340400
 20
4.988720
  0
VERTEX
  8
0
  6
CONTINUOUS
 10
6.356240
 20
4.991360
  0
VERTEX
  8
0
  6
CONTINUOUS
 10
6.372960
 20
5.008960
  0
VERTEX
  8
0
  6
CONTINUOUS
 10
6.391000
 20
5.025240
  0
VERTEX
  8
0
  6
CONTINUOUS
 10
6.409920
 20
5.039760
  0
VERTEX
  8
0
  6
CONTINUOUS
 10
6.440720
 20
5.057800
  0
VERTEX
  8
0
  6
CONTINUOUS
 10
6.472840
 20
5.070560
  0
VERTEX
  8
0
  6
CONTINUOUS
 10
6.506280
 20
5.076280
  0
VERTEX
  8
0
  6
CONTINUOUS
 10
6.529160
 20
5.076280
  0
VERTEX
  8
0
  6
CONTINUOUS
 10
6.551600
 20
5.072760
  0
VERTEX
  8
0
  6
CONTINUOUS
 10
6.574480
 20
5.065280
  0
VERTEX
  8
0
  6
CONTINUOUS
 10
6.596920
 20
5.053840
  0
VERTEX
  8
0
  6
CONTINUOUS
 10
6.629920
 20
5.027880
  0
VERTEX
  8
0
  6
CONTINUOUS
 10
6.661160
 20
4.991360
  0
VERTEX
  8
0
  6
CONTINUOUS
 10
6.680960
 20
4.960120
  0
VERTEX
  8
0
  6
CONTINUOUS
 10
6.718800
 20
4.891480
  0
VERTEX
  8
0
  6
CONTINUOUS
 10
6.746960
 20
4.847480
  0
VERTEX
  8
0
  6
CONTINUOUS
 10
6.774680
 20
4.810520
  0
VERTEX
  8
0
  6
CONTINUOUS
 10
6.810320
 20
4.770480
  0
VERTEX
  8
0
  6
CONTINUOUS
 10
6.835840
 20
4.747160
  0
VERTEX
  8
0
  6
CONTINUOUS
 10
6.867960
 20
4.723840
  0
VERTEX
  8
0
  6
CONTINUOUS
 10
6.897000
 20
4.708440
  0
VERTEX
  8
0
  6
CONTINUOUS
 10
6.922080
 20
4.699640
  0
VERTEX
  8
0
  6
CONTINUOUS
 10
6.942760
 20
4.696120
  0
VERTEX
  8
0
  6
CONTINUOUS
 10
6.942760
 20
4.473480
  0
VERTEX
  8
0
  6
CONTINUOUS
 10
3.957360
 20
4.473480
  0
VERTEX
  8
0
  6
CONTINUOUS
 10
3.956920
 20
4.698760
  0
SEQEND
  8
0
  0
SOLID
  8
0
 62
    15
 10
6.718360
 20
2.798840
 11
7.471200
 21
2.797960
 12
6.728040
 22
2.732400
 13
7.480880
 23
2.731960
  0
POLYLINE
  8
0
  6
CONTINUOUS
 66
     1
 40
0.000000
 41
0.000000
  0
VERTEX
  8
0
  6
CONTINUOUS
 10
6.718360
 20
2.798840
  0
VERTEX
  8
0
  6
CONTINUOUS
 10
7.471200
 20
2.797960
  0
VERTEX
  8
0
  6
CONTINUOUS
 10
7.480880
 20
2.731960
  0
VERTEX
  8
0
  6
CONTINUOUS
 10
6.728040
 20
2.732400
  0
VERTEX
  8
0
  6
CONTINUOUS
 10
6.718360
 20
2.798840
  0
SEQEND
  8
0
  0
SOLID
  8
0
 62
    15
 10
6.368560
 20
4.163720
 11
7.121400
 21
4.163280
 12
6.371640
 22
4.143040
 13
7.124920
 23
4.142600
  0
POLYLINE
  8
0
  6
CONTINUOUS
 66
     1
 40
0.000000
 41
0.000000
  0
VERTEX
  8
0
  6
CONTINUOUS
 10
6.368560
 20
4.163720
  0
VERTEX
  8
0
  6
CONTINUOUS
 10
7.121400
 20
4.163280
  0
VERTEX
  8
0
  6
CONTINUOUS
 10
7.124920
 20
4.142600
  0
VERTEX
  8
0
  6
CONTINUOUS
 10
6.371640
 20
4.143040
  0
VERTEX
  8
0
  6
CONTINUOUS
 10
6.368560
 20
4.163720
  0
SEQEND
  8
0
  0
SOLID
  8
0
 62
    15
 10
6.371640
 20
4.143040
 11
7.124920
 21
4.142600
 12
6.380880
 22
4.117960
 13
7.133720
 23
4.117080
  0
POLYLINE
  8
0
  6
CONTINUOUS
 66
     1
 40
0.000000
 41
0.000000
  0
VERTEX
  8
0
  6
CONTINUOUS
 10
6.371640
 20
4.143040
  0
VERTEX
  8
0
  6
CONTINUOUS
 10
7.124920
 20
4.142600
  0
VERTEX
  8
0
  6
CONTINUOUS
 10
7.133720
 20
4.117080
  0
VERTEX
  8
0
  6
CONTINUOUS
 10
6.380880
 20
4.117960
  0
VERTEX
  8
0
  6
CONTINUOUS
 10
6.371640
 20
4.143040
  0
SEQEND
  8
0
  0
SOLID
  8
0
 62
    15
 10
6.380880
 20
4.117960
 11
7.133720
 21
4.117080
 12
6.396280
 22
4.088920
 13
7.149120
 23
4.088480
  0
POLYLINE
  8
0
  6
CONTINUOUS
 66
     1
 40
0.000000
 41
0.000000
  0
VERTEX
  8
0
  6
CONTINUOUS
 10
6.380880
 20
4.117960
  0
VERTEX
  8
0
  6
CONTINUOUS
 10
7.133720
 20
4.117080
  0
VERTEX
  8
0
  6
CONTINUOUS
 10
7.149120
 20
4.088480
  0
VERTEX
  8
0
  6
CONTINUOUS
 10
6.396280
 20
4.088920
  0
VERTEX
  8
0
  6
CONTINUOUS
 10
6.380880
 20
4.117960
  0
SEQEND
  8
0
  0
SOLID
  8
0
 62
    15
 10
6.396280
 20
4.088920
 11
7.149120
 21
4.088480
 12
6.419600
 22
4.057240
 13
7.172440
 23
4.056360
  0
POLYLINE
  8
0
  6
CONTINUOUS
 66
     1
 40
0.000000
 41
0.000000
  0
VERTEX
  8
0
  6
CONTINUOUS
 10
6.396280
 20
4.088920
  0
VERTEX
  8
0
  6
CONTINUOUS
 10
7.149120
 20
4.088480
  0
VERTEX
  8
0
  6
CONTINUOUS
 10
7.172440
 20
4.056360
  0
VERTEX
  8
0
  6
CONTINUOUS
 10
6.419600
 20
4.057240
  0
VERTEX
  8
0
  6
CONTINUOUS
 10
6.396280
 20
4.088920
  0
SEQEND
  8
0
  0
SOLID
  8
0
 62
    15
 10
6.419600
 20
4.057240
 11
7.172440
 21
4.056360
 12
6.452160
 22
4.022920
 13
7.205000
 23
4.022040
  0
POLYLINE
  8
0
  6
CONTINUOUS
 66
     1
 40
0.000000
 41
0.000000
  0
VERTEX
  8
0
  6
CONTINUOUS
 10
6.419600
 20
4.057240
  0
VERTEX
  8
0
  6
CONTINUOUS
 10
7.172440
 20
4.056360
  0
VERTEX
  8
0
  6
CONTINUOUS
 10
7.205000
 20
4.022040
  0
VERTEX
  8
0
  6
CONTINUOUS
 10
6.452160
 20
4.022920
  0
VERTEX
  8
0
  6
CONTINUOUS
 10
6.419600
 20
4.057240
  0
SEQEND
  8
0
  0
SOLID
  8
0
 62
    15
 10
6.452160
 20
4.022920
 11
7.205000
 21
4.022040
 12
6.494840
 22
3.986400
 13
7.247680
 23
3.985960
  0
POLYLINE
  8
0
  6
CONTINUOUS
 66
     1
 40
0.000000
 41
0.000000
  0
VERTEX
  8
0
  6
CONTINUOUS
 10
6.452160
 20
4.022920
  0
VERTEX
  8
0
  6
CONTINUOUS
 10
7.205000
 20
4.022040
  0
VERTEX
  8
0
  6
CONTINUOUS
 10
7.247680
 20
3.985960
  0
VERTEX
  8
0
  6
CONTINUOUS
 10
6.494840
 20
3.986400
  0
VERTEX
  8
0
  6
CONTINUOUS
 10
6.452160
 20
4.022920
  0
SEQEND
  8
0
  0
SOLID
  8
0
 62
    15
 10
6.494840
 20
3.986400
 11
7.247680
 21
3.985960
 12
6.548520
 22
3.949440
 13
7.301800
 23
3.948560
  0
POLYLINE
  8
0
  6
CONTINUOUS
 66
     1
 40
0.000000
 41
0.000000
  0
VERTEX
  8
0
  6
CONTINUOUS
 10
6.494840
 20
3.986400
  0
VERTEX
  8
0
  6
CONTINUOUS
 10
7.247680
 20
3.985960
  0
VERTEX
  8
0
  6
CONTINUOUS
 10
7.301800
 20
3.948560
  0
VERTEX
  8
0
  6
CONTINUOUS
 10
6.548520
 20
3.949440
  0
VERTEX
  8
0
  6
CONTINUOUS
 10
6.494840
 20
3.986400
  0
SEQEND
  8
0
  0
SOLID
  8
0
 62
    15
 10
6.548520
 20
3.949440
 11
7.301800
 21
3.948560
 12
6.580200
 22
3.930520
 13
7.333040
 23
3.929640
  0
POLYLINE
  8
0
  6
CONTINUOUS
 66
     1
 40
0.000000
 41
0.000000
  0
VERTEX
  8
0
  6
CONTINUOUS
 10
6.548520
 20
3.949440
  0
VERTEX
  8
0
  6
CONTINUOUS
 10
7.301800
 20
3.948560
  0
VERTEX
  8
0
  6
CONTINUOUS
 10
7.333040
 20
3.929640
  0
VERTEX
  8
0
  6
CONTINUOUS
 10
6.580200
 20
3.930520
  0
VERTEX
  8
0
  6
CONTINUOUS
 10
6.548520
 20
3.949440
  0
SEQEND
  8
0
  0
SOLID
  8
0
 62
    15
 10
6.580200
 20
3.930520
 11
7.333040
 21
3.929640
 12
6.615400
 22
3.911600
 13
7.368240
 23
3.910720
  0
POLYLINE
  8
0
  6
CONTINUOUS
 66
     1
 40
0.000000
 41
0.000000
  0
VERTEX
  8
0
  6
CONTINUOUS
 10
6.580200
 20
3.930520
  0
VERTEX
  8
0
  6
CONTINUOUS
 10
7.333040
 20
3.929640
  0
VERTEX
  8
0
  6
CONTINUOUS
 10
7.368240
 20
3.910720
  0
VERTEX
  8
0
  6
CONTINUOUS
 10
6.615400
 20
3.911600
  0
VERTEX
  8
0
  6
CONTINUOUS
 10
6.580200
 20
3.930520
  0
SEQEND
  8
0
  0
SOLID
  8
0
 62
    15
 10
6.615400
 20
3.911600
 11
7.368240
 21
3.910720
 12
6.649280
 22
3.892240
 13
7.402120
 23
3.891360
  0
POLYLINE
  8
0
  6
CONTINUOUS
 66
     1
 40
0.000000
 41
0.000000
  0
VERTEX
  8
0
  6
CONTINUOUS
 10
6.615400
 20
3.911600
  0
VERTEX
  8
0
  6
CONTINUOUS
 10
7.368240
 20
3.910720
  0
VERTEX
  8
0
  6
CONTINUOUS
 10
7.402120
 20
3.891360
  0
VERTEX
  8
0
  6
CONTINUOUS
 10
6.649280
 20
3.892240
  0
VERTEX
  8
0
  6
CONTINUOUS
 10
6.615400
 20
3.911600
  0
SEQEND
  8
0
  0
SOLID
  8
0
 62
    15
 10
6.649280
 20
3.892240
 11
7.402120
 21
3.891360
 12
6.677440
 22
3.872000
 13
7.430280
 23
3.871120
  0
POLYLINE
  8
0
  6
CONTINUOUS
 66
     1
 40
0.000000
 41
0.000000
  0
VERTEX
  8
0
  6
CONTINUOUS
 10
6.649280
 20
3.892240
  0
VERTEX
  8
0
  6
CONTINUOUS
 10
7.402120
 20
3.891360
  0
VERTEX
  8
0
  6
CONTINUOUS
 10
7.430280
 20
3.871120
  0
VERTEX
  8
0
  6
CONTINUOUS
 10
6.677440
 20
3.872000
  0
VERTEX
  8
0
  6
CONTINUOUS
 10
6.649280
 20
3.892240
  0
SEQEND
  8
0
  0
SOLID
  8
0
 62
    15
 10
6.677440
 20
3.872000
 11
7.430280
 21
3.871120
 12
6.700760
 22
3.850880
 13
7.453600
 23
3.850000
  0
POLYLINE
  8
0
  6
CONTINUOUS
 66
     1
 40
0.000000
 41
0.000000
  0
VERTEX
  8
0
  6
CONTINUOUS
 10
6.677440
 20
3.872000
  0
VERTEX
  8
0
  6
CONTINUOUS
 10
7.430280
 20
3.871120
  0
VERTEX
  8
0
  6
CONTINUOUS
 10
7.453600
 20
3.850000
  0
VERTEX
  8
0
  6
CONTINUOUS
 10
6.700760
 20
3.850880
  0
VERTEX
  8
0
  6
CONTINUOUS
 10
6.677440
 20
3.872000
  0
SEQEND
  8
0
  0
SOLID
  8
0
 62
    15
 10
6.700760
 20
3.850880
 11
7.453600
 21
3.850000
 12
6.718800
 22
3.828880
 13
7.472080
 23
3.828440
  0
POLYLINE
  8
0
  6
CONTINUOUS
 66
     1
 40
0.000000
 41
0.000000
  0
VERTEX
  8
0
  6
CONTINUOUS
 10
6.700760
 20
3.850880
  0
VERTEX
  8
0
  6
CONTINUOUS
 10
7.453600
 20
3.850000
  0
VERTEX
  8
0
  6
CONTINUOUS
 10
7.472080
 20
3.828440
  0
VERTEX
  8
0
  6
CONTINUOUS
 10
6.718800
 20
3.828880
  0
VERTEX
  8
0
  6
CONTINUOUS
 10
6.700760
 20
3.850880
  0
SEQEND
  8
0
  0
SOLID
  8
0
 62
    15
 10
6.718800
 20
3.828880
 11
7.472080
 21
3.828440
 12
6.732880
 22
3.806880
 13
7.485720
 23
3.806000
  0
POLYLINE
  8
0
  6
CONTINUOUS
 66
     1
 40
0.000000
 41
0.000000
  0
VERTEX
  8
0
  6
CONTINUOUS
 10
6.718800
 20
3.828880
  0
VERTEX
  8
0
  6
CONTINUOUS
 10
7.472080
 20
3.828440
  0
VERTEX
  8
0
  6
CONTINUOUS
 10
7.485720
 20
3.806000
  0
VERTEX
  8
0
  6
CONTINUOUS
 10
6.732880
 20
3.806880
  0
VERTEX
  8
0
  6
CONTINUOUS
 10
6.718800
 20
3.828880
  0
SEQEND
  8
0
  0
SOLID
  8
0
 62
    15
 10
6.732880
 20
3.806880
 11
7.485720
 21
3.806000
 12
6.742120
 22
3.784000
 13
7.495400
 23
3.783560
  0
POLYLINE
  8
0
  6
CONTINUOUS
 66
     1
 40
0.000000
 41
0.000000
  0
VERTEX
  8
0
  6
CONTINUOUS
 10
6.732880
 20
3.806880
  0
VERTEX
  8
0
  6
CONTINUOUS
 10
7.485720
 20
3.806000
  0
VERTEX
  8
0
  6
CONTINUOUS
 10
7.495400
 20
3.783560
  0
VERTEX
  8
0
  6
CONTINUOUS
 10
6.742120
 20
3.784000
  0
VERTEX
  8
0
  6
CONTINUOUS
 10
6.732880
 20
3.806880
  0
SEQEND
  8
0
  0
SOLID
  8
0
 62
    15
 10
6.742120
 20
3.784000
 11
7.495400
 21
3.783560
 12
6.747840
 22
3.761560
 13
7.500680
 23
3.760680
  0
POLYLINE
  8
0
  6
CONTINUOUS
 66
     1
 40
0.000000
 41
0.000000
  0
VERTEX
  8
0
  6
CONTINUOUS
 10
6.742120
 20
3.784000
  0
VERTEX
  8
0
  6
CONTINUOUS
 10
7.495400
 20
3.783560
  0
VERTEX
  8
0
  6
CONTINUOUS
 10
7.500680
 20
3.760680
  0
VERTEX
  8
0
  6
CONTINUOUS
 10
6.747840
 20
3.761560
  0
VERTEX
  8
0
  6
CONTINUOUS
 10
6.742120
 20
3.784000
  0
SEQEND
  8
0
  0
SOLID
  8
0
 62
    15
 10
6.747840
 20
3.761560
 11
7.500680
 21
3.760680
 12
6.749600
 22
3.738680
 13
7.502440
 23
3.737800
  0
POLYLINE
  8
0
  6
CONTINUOUS
 66
     1
 40
0.000000
 41
0.000000
  0
VERTEX
  8
0
  6
CONTINUOUS
 10
6.747840
 20
3.761560
  0
VERTEX
  8
0
  6
CONTINUOUS
 10
7.500680
 20
3.760680
  0
VERTEX
  8
0
  6
CONTINUOUS
 10
7.502440
 20
3.737800
  0
VERTEX
  8
0
  6
CONTINUOUS
 10
6.749600
 20
3.738680
  0
VERTEX
  8
0
  6
CONTINUOUS
 10
6.747840
 20
3.761560
  0
SEQEND
  8
0
  0
SOLID
  8
0
 62
    15
 10
6.749600
 20
3.738680
 11
7.502440
 21
3.737800
 12
6.747840
 22
3.716240
 13
7.500680
 23
3.715360
  0
POLYLINE
  8
0
  6
CONTINUOUS
 66
     1
 40
0.000000
 41
0.000000
  0
VERTEX
  8
0
  6
CONTINUOUS
 10
6.749600
 20
3.738680
  0
VERTEX
  8
0
  6
CONTINUOUS
 10
7.502440
 20
3.737800
  0
VERTEX
  8
0
  6
CONTINUOUS
 10
7.500680
 20
3.715360
  0
VERTEX
  8
0
  6
CONTINUOUS
 10
6.747840
 20
3.716240
  0
VERTEX
  8
0
  6
CONTINUOUS
 10
6.749600
 20
3.738680
  0
SEQEND
  8
0
  0
SOLID
  8
0
 62
    15
 10
6.747840
 20
3.716240
 11
7.500680
 21
3.715360
 12
6.743000
 22
3.693800
 13
7.495840
 23
3.693360
  0
POLYLINE
  8
0
  6
CONTINUOUS
 66
     1
 40
0.000000
 41
0.000000
  0
VERTEX
  8
0
  6
CONTINUOUS
 10
6.747840
 20
3.716240
  0
VERTEX
  8
0
  6
CONTINUOUS
 10
7.500680
 20
3.715360
  0
VERTEX
  8
0
  6
CONTINUOUS
 10
7.495840
 20
3.693360
  0
VERTEX
  8
0
  6
CONTINUOUS
 10
6.743000
 20
3.693800
  0
VERTEX
  8
0
  6
CONTINUOUS
 10
6.747840
 20
3.716240
  0
SEQEND
  8
0
  0
SOLID
  8
0
 62
    15
 10
6.743000
 20
3.693800
 11
7.495840
 21
3.693360
 12
6.724960
 22
3.651120
 13
7.478240
 23
3.650680
  0
POLYLINE
  8
0
  6
CONTINUOUS
 66
     1
 40
0.000000
 41
0.000000
  0
VERTEX
  8
0
  6
CONTINUOUS
 10
6.743000
 20
3.693800
  0
VERTEX
  8
0
  6
CONTINUOUS
 10
7.495840
 20
3.693360
  0
VERTEX
  8
0
  6
CONTINUOUS
 10
7.478240
 20
3.650680
  0
VERTEX
  8
0
  6
CONTINUOUS
 10
6.724960
 20
3.651120
  0
VERTEX
  8
0
  6
CONTINUOUS
 10
6.743000
 20
3.693800
  0
SEQEND
  8
0
  0
SOLID
  8
0
 62
    15
 10
6.724960
 20
3.651120
 11
7.478240
 21
3.650680
 12
6.698120
 22
3.611960
 13
7.450960
 23
3.611080
  0
POLYLINE
  8
0
  6
CONTINUOUS
 66
     1
 40
0.000000
 41
0.000000
  0
VERTEX
  8
0
  6
CONTINUOUS
 10
6.724960
 20
3.651120
  0
VERTEX
  8
0
  6
CONTINUOUS
 10
7.478240
 20
3.650680
  0
VERTEX
  8
0
  6
CONTINUOUS
 10
7.450960
 20
3.611080
  0
VERTEX
  8
0
  6
CONTINUOUS
 10
6.698120
 20
3.611960
  0
VERTEX
  8
0
  6
CONTINUOUS
 10
6.724960
 20
3.651120
  0
SEQEND
  8
0
  0
SOLID
  8
0
 62
    15
 10
6.698120
 20
3.611960
 11
7.450960
 21
3.611080
 12
6.664240
 22
3.577200
 13
7.417080
 23
3.576760
  0
POLYLINE
  8
0
  6
CONTINUOUS
 66
     1
 40
0.000000
 41
0.000000
  0
VERTEX
  8
0
  6
CONTINUOUS
 10
6.698120
 20
3.611960
  0
VERTEX
  8
0
  6
CONTINUOUS
 10
7.450960
 20
3.611080
  0
VERTEX
  8
0
  6
CONTINUOUS
 10
7.417080
 20
3.576760
  0
VERTEX
  8
0
  6
CONTINUOUS
 10
6.664240
 20
3.577200
  0
VERTEX
  8
0
  6
CONTINUOUS
 10
6.698120
 20
3.611960
  0
SEQEND
  8
0
  0
SOLID
  8
0
 62
    15
 10
6.664240
 20
3.577200
 11
7.417080
 21
3.576760
 12
6.661160
 22
3.561360
 13
7.414440
 23
3.560480
  0
POLYLINE
  8
0
  6
CONTINUOUS
 66
     1
 40
0.000000
 41
0.000000
  0
VERTEX
  8
0
  6
CONTINUOUS
 10
6.664240
 20
3.577200
  0
VERTEX
  8
0
  6
CONTINUOUS
 10
7.417080
 20
3.576760
  0
VERTEX
  8
0
  6
CONTINUOUS
 10
7.414440
 20
3.560480
  0
VERTEX
  8
0
  6
CONTINUOUS
 10
6.661160
 20
3.561360
  0
VERTEX
  8
0
  6
CONTINUOUS
 10
6.664240
 20
3.577200
  0
SEQEND
  8
0
  0
SOLID
  8
0
 62
    15
 10
6.661160
 20
3.561360
 11
7.414440
 21
3.560480
 12
6.775120
 22
3.474240
 13
7.528400
 23
3.473800
  0
POLYLINE
  8
0
  6
CONTINUOUS
 66
     1
 40
0.000000
 41
0.000000
  0
VERTEX
  8
0
  6
CONTINUOUS
 10
6.661160
 20
3.561360
  0
VERTEX
  8
0
  6
CONTINUOUS
 10
7.414440
 20
3.560480
  0
VERTEX
  8
0
  6
CONTINUOUS
 10
7.528400
 20
3.473800
  0
VERTEX
  8
0
  6
CONTINUOUS
 10
6.775120
 20
3.474240
  0
VERTEX
  8
0
  6
CONTINUOUS
 10
6.661160
 20
3.561360
  0
SEQEND
  8
0
  0
SOLID
  8
0
 62
    15
 10
6.775120
 20
3.474240
 11
7.528400
 21
3.473800
 12
6.775120
 22
3.295600
 13
7.528400
 23
3.294720
  0
POLYLINE
  8
0
  6
CONTINUOUS
 66
     1
 40
0.000000
 41
0.000000
  0
VERTEX
  8
0
  6
CONTINUOUS
 10
6.775120
 20
3.474240
  0
VERTEX
  8
0
  6
CONTINUOUS
 10
7.528400
 20
3.473800
  0
VERTEX
  8
0
  6
CONTINUOUS
 10
7.528400
 20
3.294720
  0
VERTEX
  8
0
  6
CONTINUOUS
 10
6.775120
 20
3.295600
  0
VERTEX
  8
0
  6
CONTINUOUS
 10
6.775120
 20
3.474240
  0
SEQEND
  8
0
  0
SOLID
  8
0
 62
    15
 10
6.775120
 20
3.295600
 11
7.528400
 21
3.294720
 12
6.758840
 22
3.274040
 13
7.512120
 23
3.273600
  0
POLYLINE
  8
0
  6
CONTINUOUS
 66
     1
 40
0.000000
 41
0.000000
  0
VERTEX
  8
0
  6
CONTINUOUS
 10
6.775120
 20
3.295600
  0
VERTEX
  8
0
  6
CONTINUOUS
 10
7.528400
 20
3.294720
  0
VERTEX
  8
0
  6
CONTINUOUS
 10
7.512120
 20
3.273600
  0
VERTEX
  8
0
  6
CONTINUOUS
 10
6.758840
 20
3.274040
  0
VERTEX
  8
0
  6
CONTINUOUS
 10
6.775120
 20
3.295600
  0
SEQEND
  8
0
  0
SOLID
  8
0
 62
    15
 10
6.758840
 20
3.274040
 11
7.512120
 21
3.273600
 12
6.739920
 22
3.254240
 13
7.492760
 23
3.253800
  0
POLYLINE
  8
0
  6
CONTINUOUS
 66
     1
 40
0.000000
 41
0.000000
  0
VERTEX
  8
0
  6
CONTINUOUS
 10
6.758840
 20
3.274040
  0
VERTEX
  8
0
  6
CONTINUOUS
 10
7.512120
 20
3.273600
  0
VERTEX
  8
0
  6
CONTINUOUS
 10
7.492760
 20
3.253800
  0
VERTEX
  8
0
  6
CONTINUOUS
 10
6.739920
 20
3.254240
  0
VERTEX
  8
0
  6
CONTINUOUS
 10
6.758840
 20
3.274040
  0
SEQEND
  8
0
  0
SOLID
  8
0
 62
    15
 10
6.739920
 20
3.254240
 11
7.492760
 21
3.253800
 12
6.729360
 22
3.245000
 13
7.482200
 23
3.244120
  0
POLYLINE
  8
0
  6
CONTINUOUS
 66
     1
 40
0.000000
 41
0.000000
  0
VERTEX
  8
0
  6
CONTINUOUS
 10
6.739920
 20
3.254240
  0
VERTEX
  8
0
  6
CONTINUOUS
 10
7.492760
 20
3.253800
  0
VERTEX
  8
0
  6
CONTINUOUS
 10
7.482200
 20
3.244120
  0
VERTEX
  8
0
  6
CONTINUOUS
 10
6.729360
 20
3.245000
  0
VERTEX
  8
0
  6
CONTINUOUS
 10
6.739920
 20
3.254240
  0
SEQEND
  8
0
  0
SOLID
  8
0
 62
    15
 10
6.729360
 20
3.245000
 11
7.482200
 21
3.244120
 12
6.718800
 22
3.235320
 13
7.472080
 23
3.234440
  0
POLYLINE
  8
0
  6
CONTINUOUS
 66
     1
 40
0.000000
 41
0.000000
  0
VERTEX
  8
0
  6
CONTINUOUS
 10
6.729360
 20
3.245000
  0
VERTEX
  8
0
  6
CONTINUOUS
 10
7.482200
 20
3.244120
  0
VERTEX
  8
0
  6
CONTINUOUS
 10
7.472080
 20
3.234440
  0
VERTEX
  8
0
  6
CONTINUOUS
 10
6.718800
 20
3.235320
  0
VERTEX
  8
0
  6
CONTINUOUS
 10
6.729360
 20
3.245000
  0
SEQEND
  8
0
  0
SOLID
  8
0
 62
    15
 10
6.718800
 20
3.235320
 11
7.472080
 21
3.234440
 12
6.698120
 22
3.215520
 13
7.451400
 23
3.215080
  0
POLYLINE
  8
0
  6
CONTINUOUS
 66
     1
 40
0.000000
 41
0.000000
  0
VERTEX
  8
0
  6
CONTINUOUS
 10
6.718800
 20
3.235320
  0
VERTEX
  8
0
  6
CONTINUOUS
 10
7.472080
 20
3.234440
  0
VERTEX
  8
0
  6
CONTINUOUS
 10
7.451400
 20
3.215080
  0
VERTEX
  8
0
  6
CONTINUOUS
 10
6.698120
 20
3.215520
  0
VERTEX
  8
0
  6
CONTINUOUS
 10
6.718800
 20
3.235320
  0
SEQEND
  8
0
  0
SOLID
  8
0
 62
    15
 10
6.698120
 20
3.215520
 11
7.451400
 21
3.215080
 12
6.679200
 22
3.194840
 13
7.432040
 23
3.193960
  0
POLYLINE
  8
0
  6
CONTINUOUS
 66
     1
 40
0.000000
 41
0.000000
  0
VERTEX
  8
0
  6
CONTINUOUS
 10
6.698120
 20
3.215520
  0
VERTEX
  8
0
  6
CONTINUOUS
 10
7.451400
 20
3.215080
  0
VERTEX
  8
0
  6
CONTINUOUS
 10
7.432040
 20
3.193960
  0
VERTEX
  8
0
  6
CONTINUOUS
 10
6.679200
 20
3.194840
  0
VERTEX
  8
0
  6
CONTINUOUS
 10
6.698120
 20
3.215520
  0
SEQEND
  8
0
  0
SOLID
  8
0
 62
    15
 10
6.679200
 20
3.194840
 11
7.432040
 21
3.193960
 12
6.663360
 22
3.171520
 13
7.416200
 23
3.170640
  0
POLYLINE
  8
0
  6
CONTINUOUS
 66
     1
 40
0.000000
 41
0.000000
  0
VERTEX
  8
0
  6
CONTINUOUS
 10
6.679200
 20
3.194840
  0
VERTEX
  8
0
  6
CONTINUOUS
 10
7.432040
 20
3.193960
  0
VERTEX
  8
0
  6
CONTINUOUS
 10
7.416200
 20
3.170640
  0
VERTEX
  8
0
  6
CONTINUOUS
 10
6.663360
 20
3.171520
  0
VERTEX
  8
0
  6
CONTINUOUS
 10
6.679200
 20
3.194840
  0
SEQEND
  8
0
  0
SOLID
  8
0
 62
    15
 10
6.663360
 20
3.171520
 11
7.416200
 21
3.170640
 12
6.652360
 22
3.144680
 13
7.405200
 23
3.144240
  0
POLYLINE
  8
0
  6
CONTINUOUS
 66
     1
 40
0.000000
 41
0.000000
  0
VERTEX
  8
0
  6
CONTINUOUS
 10
6.663360
 20
3.171520
  0
VERTEX
  8
0
  6
CONTINUOUS
 10
7.416200
 20
3.170640
  0
VERTEX
  8
0
  6
CONTINUOUS
 10
7.405200
 20
3.144240
  0
VERTEX
  8
0
  6
CONTINUOUS
 10
6.652360
 20
3.144680
  0
VERTEX
  8
0
  6
CONTINUOUS
 10
6.663360
 20
3.171520
  0
SEQEND
  8
0
  0
SOLID
  8
0
 62
    15
 10
6.652360
 20
3.144680
 11
7.405200
 21
3.144240
 12
6.647960
 22
3.113880
 13
7.400800
 23
3.113000
  0
POLYLINE
  8
0
  6
CONTINUOUS
 66
     1
 40
0.000000
 41
0.000000
  0
VERTEX
  8
0
  6
CONTINUOUS
 10
6.652360
 20
3.144680
  0
VERTEX
  8
0
  6
CONTINUOUS
 10
7.405200
 20
3.144240
  0
VERTEX
  8
0
  6
CONTINUOUS
 10
7.400800
 20
3.113000
  0
VERTEX
  8
0
  6
CONTINUOUS
 10
6.647960
 20
3.113880
  0
VERTEX
  8
0
  6
CONTINUOUS
 10
6.652360
 20
3.144680
  0
SEQEND
  8
0
  0
SOLID
  8
0
 62
    15
 10
6.647960
 20
3.113880
 11
7.400800
 21
3.113000
 12
6.650600
 22
3.076040
 13
7.403440
 23
3.075600
  0
POLYLINE
  8
0
  6
CONTINUOUS
 66
     1
 40
0.000000
 41
0.000000
  0
VERTEX
  8
0
  6
CONTINUOUS
 10
6.647960
 20
3.113880
  0
VERTEX
  8
0
  6
CONTINUOUS
 10
7.400800
 20
3.113000
  0
VERTEX
  8
0
  6
CONTINUOUS
 10
7.403440
 20
3.075600
  0
VERTEX
  8
0
  6
CONTINUOUS
 10
6.650600
 20
3.076040
  0
VERTEX
  8
0
  6
CONTINUOUS
 10
6.647960
 20
3.113880
  0
SEQEND
  8
0
  0
SOLID
  8
0
 62
    15
 10
6.650600
 20
3.076040
 11
7.403440
 21
3.075600
 12
6.659840
 22
3.031160
 13
7.412680
 23
3.030280
  0
POLYLINE
  8
0
  6
CONTINUOUS
 66
     1
 40
0.000000
 41
0.000000
  0
VERTEX
  8
0
  6
CONTINUOUS
 10
6.650600
 20
3.076040
  0
VERTEX
  8
0
  6
CONTINUOUS
 10
7.403440
 20
3.075600
  0
VERTEX
  8
0
  6
CONTINUOUS
 10
7.412680
 20
3.030280
  0
VERTEX
  8
0
  6
CONTINUOUS
 10
6.659840
 20
3.031160
  0
VERTEX
  8
0
  6
CONTINUOUS
 10
6.650600
 20
3.076040
  0
SEQEND
  8
0
  0
SOLID
  8
0
 62
    15
 10
6.659840
 20
3.031160
 11
7.412680
 21
3.030280
 12
6.673040
 22
2.980120
 13
7.426320
 23
2.979240
  0
POLYLINE
  8
0
  6
CONTINUOUS
 66
     1
 40
0.000000
 41
0.000000
  0
VERTEX
  8
0
  6
CONTINUOUS
 10
6.659840
 20
3.031160
  0
VERTEX
  8
0
  6
CONTINUOUS
 10
7.412680
 20
3.030280
  0
VERTEX
  8
0
  6
CONTINUOUS
 10
7.426320
 20
2.979240
  0
VERTEX
  8
0
  6
CONTINUOUS
 10
6.673040
 20
2.980120
  0
VERTEX
  8
0
  6
CONTINUOUS
 10
6.659840
 20
3.031160
  0
SEQEND
  8
0
  0
SOLID
  8
0
 62
    15
 10
6.673040
 20
2.980120
 11
7.426320
 21
2.979240
 12
6.678760
 22
2.959440
 13
7.432040
 23
2.958560
  0
POLYLINE
  8
0
  6
CONTINUOUS
 66
     1
 40
0.000000
 41
0.000000
  0
VERTEX
  8
0
  6
CONTINUOUS
 10
6.673040
 20
2.980120
  0
VERTEX
  8
0
  6
CONTINUOUS
 10
7.426320
 20
2.979240
  0
VERTEX
  8
0
  6
CONTINUOUS
 10
7.432040
 20
2.958560
  0
VERTEX
  8
0
  6
CONTINUOUS
 10
6.678760
 20
2.959440
  0
VERTEX
  8
0
  6
CONTINUOUS
 10
6.673040
 20
2.980120
  0
SEQEND
  8
0
  0
SOLID
  8
0
 62
    15
 10
6.678760
 20
2.959440
 11
7.432040
 21
2.958560
 12
6.688880
 22
2.923360
 13
7.441720
 23
2.922920
  0
POLYLINE
  8
0
  6
CONTINUOUS
 66
     1
 40
0.000000
 41
0.000000
  0
VERTEX
  8
0
  6
CONTINUOUS
 10
6.678760
 20
2.959440
  0
VERTEX
  8
0
  6
CONTINUOUS
 10
7.432040
 20
2.958560
  0
VERTEX
  8
0
  6
CONTINUOUS
 10
7.441720
 20
2.922920
  0
VERTEX
  8
0
  6
CONTINUOUS
 10
6.688880
 20
2.923360
  0
VERTEX
  8
0
  6
CONTINUOUS
 10
6.678760
 20
2.959440
  0
SEQEND
  8
0
  0
SOLID
  8
0
 62
    15
 10
6.688880
 20
2.923360
 11
7.441720
 21
2.922920
 12
6.704720
 22
2.862640
 13
7.457560
 23
2.861760
  0
POLYLINE
  8
0
  6
CONTINUOUS
 66
     1
 40
0.000000
 41
0.000000
  0
VERTEX
  8
0
  6
CONTINUOUS
 10
6.688880
 20
2.923360
  0
VERTEX
  8
0
  6
CONTINUOUS
 10
7.441720
 20
2.922920
  0
VERTEX
  8
0
  6
CONTINUOUS
 10
7.457560
 20
2.861760
  0
VERTEX
  8
0
  6
CONTINUOUS
 10
6.704720
 20
2.862640
  0
VERTEX
  8
0
  6
CONTINUOUS
 10
6.688880
 20
2.923360
  0
SEQEND
  8
0
  0
SOLID
  8
0
 62
    15
 10
6.704720
 20
2.862640
 11
7.457560
 21
2.861760
 12
6.718360
 22
2.798840
 13
7.471200
 23
2.797960
  0
POLYLINE
  8
0
  6
CONTINUOUS
 66
     1
 40
0.000000
 41
0.000000
  0
VERTEX
  8
0
  6
CONTINUOUS
 10
6.704720
 20
2.862640
  0
VERTEX
  8
0
  6
CONTINUOUS
 10
7.457560
 20
2.861760
  0
VERTEX
  8
0
  6
CONTINUOUS
 10
7.471200
 20
2.797960
  0
VERTEX
  8
0
  6
CONTINUOUS
 10
6.718360
 20
2.798840
  0
VERTEX
  8
0
  6
CONTINUOUS
 10
6.704720
 20
2.862640
  0
SEQEND
  8
0
  0
SOLID
  8
0
 62
    15
 10
6.371200
 20
1.178320
 11
7.124040
 21
1.177880
 12
6.145920
 22
1.178320
 13
6.898760
 23
1.177880
  0
POLYLINE
  8
0
  6
CONTINUOUS
 66
     1
 40
0.000000
 41
0.000000
  0
VERTEX
  8
0
  6
CONTINUOUS
 10
6.371200
 20
1.178320
  0
VERTEX
  8
0
  6
CONTINUOUS
 10
7.124040
 20
1.177880
  0
VERTEX
  8
0
  6
CONTINUOUS
 10
6.898760
 20
1.177880
  0
VERTEX
  8
0
  6
CONTINUOUS
 10
6.145920
 20
1.178320
  0
VERTEX
  8
0
  6
CONTINUOUS
 10
6.371200
 20
1.178320
  0
SEQEND
  8
0
  0
SOLID
  8
0
 62
    15
 10
6.728040
 20
2.732400
 11
7.480880
 21
2.731960
 12
6.732000
 22
2.665080
 13
7.484840
 23
2.664640
  0
POLYLINE
  8
0
  6
CONTINUOUS
 66
     1
 40
0.000000
 41
0.000000
  0
VERTEX
  8
0
  6
CONTINUOUS
 10
6.728040
 20
2.732400
  0
VERTEX
  8
0
  6
CONTINUOUS
 10
7.480880
 20
2.731960
  0
VERTEX
  8
0
  6
CONTINUOUS
 10
7.484840
 20
2.664640
  0
VERTEX
  8
0
  6
CONTINUOUS
 10
6.732000
 20
2.665080
  0
VERTEX
  8
0
  6
CONTINUOUS
 10
6.728040
 20
2.732400
  0
SEQEND
  8
0
  0
SOLID
  8
0
 62
    15
 10
6.732000
 20
2.665080
 11
7.484840
 21
2.664640
 12
6.731560
 22
2.624160
 13
7.484840
 23
2.623280
  0
POLYLINE
  8
0
  6
CONTINUOUS
 66
     1
 40
0.000000
 41
0.000000
  0
VERTEX
  8
0
  6
CONTINUOUS
 10
6.732000
 20
2.665080
  0
VERTEX
  8
0
  6
CONTINUOUS
 10
7.484840
 20
2.664640
  0
VERTEX
  8
0
  6
CONTINUOUS
 10
7.484840
 20
2.623280
  0
VERTEX
  8
0
  6
CONTINUOUS
 10
6.731560
 20
2.624160
  0
VERTEX
  8
0
  6
CONTINUOUS
 10
6.732000
 20
2.665080
  0
SEQEND
  8
0
  0
SOLID
  8
0
 62
    15
 10
6.731560
 20
2.624160
 11
7.484840
 21
2.623280
 12
6.729800
 22
2.592040
 13
7.482640
 23
2.591160
  0
POLYLINE
  8
0
  6
CONTINUOUS
 66
     1
 40
0.000000
 41
0.000000
  0
VERTEX
  8
0
  6
CONTINUOUS
 10
6.731560
 20
2.624160
  0
VERTEX
  8
0
  6
CONTINUOUS
 10
7.484840
 20
2.623280
  0
VERTEX
  8
0
  6
CONTINUOUS
 10
7.482640
 20
2.591160
  0
VERTEX
  8
0
  6
CONTINUOUS
 10
6.729800
 20
2.592040
  0
VERTEX
  8
0
  6
CONTINUOUS
 10
6.731560
 20
2.624160
  0
SEQEND
  8
0
  0
SOLID
  8
0
 62
    15
 10
6.729800
 20
2.592040
 11
7.482640
 21
2.591160
 12
6.720560
 22
2.540120
 13
7.473400
 23
2.539240
  0
POLYLINE
  8
0
  6
CONTINUOUS
 66
     1
 40
0.000000
 41
0.000000
  0
VERTEX
  8
0
  6
CONTINUOUS
 10
6.729800
 20
2.592040
  0
VERTEX
  8
0
  6
CONTINUOUS
 10
7.482640
 20
2.591160
  0
VERTEX
  8
0
  6
CONTINUOUS
 10
7.473400
 20
2.539240
  0
VERTEX
  8
0
  6
CONTINUOUS
 10
6.720560
 20
2.540120
  0
VERTEX
  8
0
  6
CONTINUOUS
 10
6.729800
 20
2.592040
  0
SEQEND
  8
0
  0
SOLID
  8
0
 62
    15
 10
6.720560
 20
2.540120
 11
7.473400
 21
2.539240
 12
6.712640
 22
2.513720
 13
7.465480
 23
2.512840
  0
POLYLINE
  8
0
  6
CONTINUOUS
 66
     1
 40
0.000000
 41
0.000000
  0
VERTEX
  8
0
  6
CONTINUOUS
 10
6.720560
 20
2.540120
  0
VERTEX
  8
0
  6
CONTINUOUS
 10
7.473400
 20
2.539240
  0
VERTEX
  8
0
  6
CONTINUOUS
 10
7.465480
 20
2.512840
  0
VERTEX
  8
0
  6
CONTINUOUS
 10
6.712640
 20
2.513720
  0
VERTEX
  8
0
  6
CONTINUOUS
 10
6.720560
 20
2.540120
  0
SEQEND
  8
0
  0
SOLID
  8
0
 62
    15
 10
6.712640
 20
2.513720
 11
7.465480
 21
2.512840
 12
6.705160
 22
2.490400
 13
7.458000
 23
2.489520
  0
POLYLINE
  8
0
  6
CONTINUOUS
 66
     1
 40
0.000000
 41
0.000000
  0
VERTEX
  8
0
  6
CONTINUOUS
 10
6.712640
 20
2.513720
  0
VERTEX
  8
0
  6
CONTINUOUS
 10
7.465480
 20
2.512840
  0
VERTEX
  8
0
  6
CONTINUOUS
 10
7.458000
 20
2.489520
  0
VERTEX
  8
0
  6
CONTINUOUS
 10
6.705160
 20
2.490400
  0
VERTEX
  8
0
  6
CONTINUOUS
 10
6.712640
 20
2.513720
  0
SEQEND
  8
0
  0
SOLID
  8
0
 62
    15
 10
6.705160
 20
2.490400
 11
7.458000
 21
2.489520
 12
6.689760
 22
2.441560
 13
7.442600
 23
2.440680
  0
POLYLINE
  8
0
  6
CONTINUOUS
 66
     1
 40
0.000000
 41
0.000000
  0
VERTEX
  8
0
  6
CONTINUOUS
 10
6.705160
 20
2.490400
  0
VERTEX
  8
0
  6
CONTINUOUS
 10
7.458000
 20
2.489520
  0
VERTEX
  8
0
  6
CONTINUOUS
 10
7.442600
 20
2.440680
  0
VERTEX
  8
0
  6
CONTINUOUS
 10
6.689760
 20
2.441560
  0
VERTEX
  8
0
  6
CONTINUOUS
 10
6.705160
 20
2.490400
  0
SEQEND
  8
0
  0
SOLID
  8
0
 62
    15
 10
6.689760
 20
2.441560
 11
7.442600
 21
2.440680
 12
6.682720
 22
2.416920
 13
7.435560
 23
2.416040
  0
POLYLINE
  8
0
  6
CONTINUOUS
 66
     1
 40
0.000000
 41
0.000000
  0
VERTEX
  8
0
  6
CONTINUOUS
 10
6.689760
 20
2.441560
  0
VERTEX
  8
0
  6
CONTINUOUS
 10
7.442600
 20
2.440680
  0
VERTEX
  8
0
  6
CONTINUOUS
 10
7.435560
 20
2.416040
  0
VERTEX
  8
0
  6
CONTINUOUS
 10
6.682720
 20
2.416920
  0
VERTEX
  8
0
  6
CONTINUOUS
 10
6.689760
 20
2.441560
  0
SEQEND
  8
0
  0
SOLID
  8
0
 62
    15
 10
6.682720
 20
2.416920
 11
7.435560
 21
2.416040
 12
6.674800
 22
2.388760
 13
7.427640
 23
2.387880
  0
POLYLINE
  8
0
  6
CONTINUOUS
 66
     1
 40
0.000000
 41
0.000000
  0
VERTEX
  8
0
  6
CONTINUOUS
 10
6.682720
 20
2.416920
  0
VERTEX
  8
0
  6
CONTINUOUS
 10
7.435560
 20
2.416040
  0
VERTEX
  8
0
  6
CONTINUOUS
 10
7.427640
 20
2.387880
  0
VERTEX
  8
0
  6
CONTINUOUS
 10
6.674800
 20
2.388760
  0
VERTEX
  8
0
  6
CONTINUOUS
 10
6.682720
 20
2.416920
  0
SEQEND
  8
0
  0
SOLID
  8
0
 62
    15
 10
6.674800
 20
2.388760
 11
7.427640
 21
2.387880
 12
6.662920
 22
2.340360
 13
7.415760
 23
2.339920
  0
POLYLINE
  8
0
  6
CONTINUOUS
 66
     1
 40
0.000000
 41
0.000000
  0
VERTEX
  8
0
  6
CONTINUOUS
 10
6.674800
 20
2.388760
  0
VERTEX
  8
0
  6
CONTINUOUS
 10
7.427640
 20
2.387880
  0
VERTEX
  8
0
  6
CONTINUOUS
 10
7.415760
 20
2.339920
  0
VERTEX
  8
0
  6
CONTINUOUS
 10
6.662920
 20
2.340360
  0
VERTEX
  8
0
  6
CONTINUOUS
 10
6.674800
 20
2.388760
  0
SEQEND
  8
0
  0
SOLID
  8
0
 62
    15
 10
6.662920
 20
2.340360
 11
7.415760
 21
2.339920
 12
6.655000
 22
2.296800
 13
7.407840
 23
2.296360
  0
POLYLINE
  8
0
  6
CONTINUOUS
 66
     1
 40
0.000000
 41
0.000000
  0
VERTEX
  8
0
  6
CONTINUOUS
 10
6.662920
 20
2.340360
  0
VERTEX
  8
0
  6
CONTINUOUS
 10
7.415760
 20
2.339920
  0
VERTEX
  8
0
  6
CONTINUOUS
 10
7.407840
 20
2.296360
  0
VERTEX
  8
0
  6
CONTINUOUS
 10
6.655000
 20
2.296800
  0
VERTEX
  8
0
  6
CONTINUOUS
 10
6.662920
 20
2.340360
  0
SEQEND
  8
0
  0
SOLID
  8
0
 62
    15
 10
6.655000
 20
2.296800
 11
7.407840
 21
2.296360
 12
6.652800
 22
2.256760
 13
7.405640
 23
2.256320
  0
POLYLINE
  8
0
  6
CONTINUOUS
 66
     1
 40
0.000000
 41
0.000000
  0
VERTEX
  8
0
  6
CONTINUOUS
 10
6.655000
 20
2.296800
  0
VERTEX
  8
0
  6
CONTINUOUS
 10
7.407840
 20
2.296360
  0
VERTEX
  8
0
  6
CONTINUOUS
 10
7.405640
 20
2.256320
  0
VERTEX
  8
0
  6
CONTINUOUS
 10
6.652800
 20
2.256760
  0
VERTEX
  8
0
  6
CONTINUOUS
 10
6.655000
 20
2.296800
  0
SEQEND
  8
0
  0
SOLID
  8
0
 62
    15
 10
6.652800
 20
2.256760
 11
7.405640
 21
2.256320
 12
6.657200
 22
2.219800
 13
7.410480
 23
2.218920
  0
POLYLINE
  8
0
  6
CONTINUOUS
 66
     1
 40
0.000000
 41
0.000000
  0
VERTEX
  8
0
  6
CONTINUOUS
 10
6.652800
 20
2.256760
  0
VERTEX
  8
0
  6
CONTINUOUS
 10
7.405640
 20
2.256320
  0
VERTEX
  8
0
  6
CONTINUOUS
 10
7.410480
 20
2.218920
  0
VERTEX
  8
0
  6
CONTINUOUS
 10
6.657200
 20
2.219800
  0
VERTEX
  8
0
  6
CONTINUOUS
 10
6.652800
 20
2.256760
  0
SEQEND
  8
0
  0
SOLID
  8
0
 62
    15
 10
6.657200
 20
2.219800
 11
7.410480
 21
2.218920
 12
6.670840
 22
2.184160
 13
7.423680
 23
2.183280
  0
POLYLINE
  8
0
  6
CONTINUOUS
 66
     1
 40
0.000000
 41
0.000000
  0
VERTEX
  8
0
  6
CONTINUOUS
 10
6.657200
 20
2.219800
  0
VERTEX
  8
0
  6
CONTINUOUS
 10
7.410480
 20
2.218920
  0
VERTEX
  8
0
  6
CONTINUOUS
 10
7.423680
 20
2.183280
  0
VERTEX
  8
0
  6
CONTINUOUS
 10
6.670840
 20
2.184160
  0
VERTEX
  8
0
  6
CONTINUOUS
 10
6.657200
 20
2.219800
  0
SEQEND
  8
0
  0
SOLID
  8
0
 62
    15
 10
6.670840
 20
2.184160
 11
7.423680
 21
2.183280
 12
6.693720
 22
2.149400
 13
7.446560
 23
2.148520
  0
POLYLINE
  8
0
  6
CONTINUOUS
 66
     1
 40
0.000000
 41
0.000000
  0
VERTEX
  8
0
  6
CONTINUOUS
 10
6.670840
 20
2.184160
  0
VERTEX
  8
0
  6
CONTINUOUS
 10
7.423680
 20
2.183280
  0
VERTEX
  8
0
  6
CONTINUOUS
 10
7.446560
 20
2.148520
  0
VERTEX
  8
0
  6
CONTINUOUS
 10
6.693720
 20
2.149400
  0
VERTEX
  8
0
  6
CONTINUOUS
 10
6.670840
 20
2.184160
  0
SEQEND
  8
0
  0
SOLID
  8
0
 62
    15
 10
6.693720
 20
2.149400
 11
7.446560
 21
2.148520
 12
6.728040
 22
2.114200
 13
7.481320
 23
2.113760
  0
POLYLINE
  8
0
  6
CONTINUOUS
 66
     1
 40
0.000000
 41
0.000000
  0
VERTEX
  8
0
  6
CONTINUOUS
 10
6.693720
 20
2.149400
  0
VERTEX
  8
0
  6
CONTINUOUS
 10
7.446560
 20
2.148520
  0
VERTEX
  8
0
  6
CONTINUOUS
 10
7.481320
 20
2.113760
  0
VERTEX
  8
0
  6
CONTINUOUS
 10
6.728040
 20
2.114200
  0
VERTEX
  8
0
  6
CONTINUOUS
 10
6.693720
 20
2.149400
  0
SEQEND
  8
0
  0
SOLID
  8
0
 62
    15
 10
6.728040
 20
2.114200
 11
7.481320
 21
2.113760
 12
6.750040
 22
2.096600
 13
7.502880
 23
2.095720
  0
POLYLINE
  8
0
  6
CONTINUOUS
 66
     1
 40
0.000000
 41
0.000000
  0
VERTEX
  8
0
  6
CONTINUOUS
 10
6.728040
 20
2.114200
  0
VERTEX
  8
0
  6
CONTINUOUS
 10
7.481320
 20
2.113760
  0
VERTEX
  8
0
  6
CONTINUOUS
 10
7.502880
 20
2.095720
  0
VERTEX
  8
0
  6
CONTINUOUS
 10
6.750040
 20
2.096600
  0
VERTEX
  8
0
  6
CONTINUOUS
 10
6.728040
 20
2.114200
  0
SEQEND
  8
0
  0
SOLID
  8
0
 62
    15
 10
6.750040
 20
2.096600
 11
7.502880
 21
2.095720
 12
6.775120
 22
2.078120
 13
7.528400
 23
2.077680
  0
POLYLINE
  8
0
  6
CONTINUOUS
 66
     1
 40
0.000000
 41
0.000000
  0
VERTEX
  8
0
  6
CONTINUOUS
 10
6.750040
 20
2.096600
  0
VERTEX
  8
0
  6
CONTINUOUS
 10
7.502880
 20
2.095720
  0
VERTEX
  8
0
  6
CONTINUOUS
 10
7.528400
 20
2.077680
  0
VERTEX
  8
0
  6
CONTINUOUS
 10
6.775120
 20
2.078120
  0
VERTEX
  8
0
  6
CONTINUOUS
 10
6.750040
 20
2.096600
  0
SEQEND
  8
0
  0
SOLID
  8
0
 62
    15
 10
6.775120
 20
2.078120
 11
7.528400
 21
2.077680
 12
6.775120
 22
1.874840
 13
7.528400
 23
1.873960
  0
POLYLINE
  8
0
  6
CONTINUOUS
 66
     1
 40
0.000000
 41
0.000000
  0
VERTEX
  8
0
  6
CONTINUOUS
 10
6.775120
 20
2.078120
  0
VERTEX
  8
0
  6
CONTINUOUS
 10
7.528400
 20
2.077680
  0
VERTEX
  8
0
  6
CONTINUOUS
 10
7.528400
 20
1.873960
  0
VERTEX
  8
0
  6
CONTINUOUS
 10
6.775120
 20
1.874840
  0
VERTEX
  8
0
  6
CONTINUOUS
 10
6.775120
 20
2.078120
  0
SEQEND
  8
0
  0
SOLID
  8
0
 62
    15
 10
6.775120
 20
1.874840
 11
7.528400
 21
1.873960
 12
6.655880
 22
1.798720
 13
7.408720
 23
1.798280
  0
POLYLINE
  8
0
  6
CONTINUOUS
 66
     1
 40
0.000000
 41
0.000000
  0
VERTEX
  8
0
  6
CONTINUOUS
 10
6.775120
 20
1.874840
  0
VERTEX
  8
0
  6
CONTINUOUS
 10
7.528400
 20
1.873960
  0
VERTEX
  8
0
  6
CONTINUOUS
 10
7.408720
 20
1.798280
  0
VERTEX
  8
0
  6
CONTINUOUS
 10
6.655880
 20
1.798720
  0
VERTEX
  8
0
  6
CONTINUOUS
 10
6.775120
 20
1.874840
  0
SEQEND
  8
0
  0
SOLID
  8
0
 62
    15
 10
6.655880
 20
1.798720
 11
7.408720
 21
1.798280
 12
6.683600
 22
1.774080
 13
7.436440
 23
1.773200
  0
POLYLINE
  8
0
  6
CONTINUOUS
 66
     1
 40
0.000000
 41
0.000000
  0
VERTEX
  8
0
  6
CONTINUOUS
 10
6.655880
 20
1.798720
  0
VERTEX
  8
0
  6
CONTINUOUS
 10
7.408720
 20
1.798280
  0
VERTEX
  8
0
  6
CONTINUOUS
 10
7.436440
 20
1.773200
  0
VERTEX
  8
0
  6
CONTINUOUS
 10
6.683600
 20
1.774080
  0
VERTEX
  8
0
  6
CONTINUOUS
 10
6.655880
 20
1.798720
  0
SEQEND
  8
0
  0
SOLID
  8
0
 62
    15
 10
6.683600
 20
1.774080
 11
7.436440
 21
1.773200
 12
6.706480
 22
1.749000
 13
7.459320
 23
1.748560
  0
POLYLINE
  8
0
  6
CONTINUOUS
 66
     1
 40
0.000000
 41
0.000000
  0
VERTEX
  8
0
  6
CONTINUOUS
 10
6.683600
 20
1.774080
  0
VERTEX
  8
0
  6
CONTINUOUS
 10
7.436440
 20
1.773200
  0
VERTEX
  8
0
  6
CONTINUOUS
 10
7.459320
 20
1.748560
  0
VERTEX
  8
0
  6
CONTINUOUS
 10
6.706480
 20
1.749000
  0
VERTEX
  8
0
  6
CONTINUOUS
 10
6.683600
 20
1.774080
  0
SEQEND
  8
0
  0
SOLID
  8
0
 62
    15
 10
6.706480
 20
1.749000
 11
7.459320
 21
1.748560
 12
6.724520
 22
1.724360
 13
7.477360
 23
1.723920
  0
POLYLINE
  8
0
  6
CONTINUOUS
 66
     1
 40
0.000000
 41
0.000000
  0
VERTEX
  8
0
  6
CONTINUOUS
 10
6.706480
 20
1.749000
  0
VERTEX
  8
0
  6
CONTINUOUS
 10
7.459320
 20
1.748560
  0
VERTEX
  8
0
  6
CONTINUOUS
 10
7.477360
 20
1.723920
  0
VERTEX
  8
0
  6
CONTINUOUS
 10
6.724520
 20
1.724360
  0
VERTEX
  8
0
  6
CONTINUOUS
 10
6.706480
 20
1.749000
  0
SEQEND
  8
0
  0
SOLID
  8
0
 62
    15
 10
6.724520
 20
1.724360
 11
7.477360
 21
1.723920
 12
6.738600
 22
1.700160
 13
7.491440
 23
1.699720
  0
POLYLINE
  8
0
  6
CONTINUOUS
 66
     1
 40
0.000000
 41
0.000000
  0
VERTEX
  8
0
  6
CONTINUOUS
 10
6.724520
 20
1.724360
  0
VERTEX
  8
0
  6
CONTINUOUS
 10
7.477360
 20
1.723920
  0
VERTEX
  8
0
  6
CONTINUOUS
 10
7.491440
 20
1.699720
  0
VERTEX
  8
0
  6
CONTINUOUS
 10
6.738600
 20
1.700160
  0
VERTEX
  8
0
  6
CONTINUOUS
 10
6.724520
 20
1.724360
  0
SEQEND
  8
0
  0
SOLID
  8
0
 62
    15
 10
6.738600
 20
1.700160
 11
7.491440
 21
1.699720
 12
6.748280
 22
1.676400
 13
7.501120
 23
1.675520
  0
POLYLINE
  8
0
  6
CONTINUOUS
 66
     1
 40
0.000000
 41
0.000000
  0
VERTEX
  8
0
  6
CONTINUOUS
 10
6.738600
 20
1.700160
  0
VERTEX
  8
0
  6
CONTINUOUS
 10
7.491440
 20
1.699720
  0
VERTEX
  8
0
  6
CONTINUOUS
 10
7.501120
 20
1.675520
  0
VERTEX
  8
0
  6
CONTINUOUS
 10
6.748280
 20
1.676400
  0
VERTEX
  8
0
  6
CONTINUOUS
 10
6.738600
 20
1.700160
  0
SEQEND
  8
0
  0
SOLID
  8
0
 62
    15
 10
6.748280
 20
1.676400
 11
7.501120
 21
1.675520
 12
6.754440
 22
1.652640
 13
7.507280
 23
1.652200
  0
POLYLINE
  8
0
  6
CONTINUOUS
 66
     1
 40
0.000000
 41
0.000000
  0
VERTEX
  8
0
  6
CONTINUOUS
 10
6.748280
 20
1.676400
  0
VERTEX
  8
0
  6
CONTINUOUS
 10
7.501120
 20
1.675520
  0
VERTEX
  8
0
  6
CONTINUOUS
 10
7.507280
 20
1.652200
  0
VERTEX
  8
0
  6
CONTINUOUS
 10
6.754440
 20
1.652640
  0
VERTEX
  8
0
  6
CONTINUOUS
 10
6.748280
 20
1.676400
  0
SEQEND
  8
0
  0
SOLID
  8
0
 62
    15
 10
6.754440
 20
1.652640
 11
7.507280
 21
1.652200
 12
6.756640
 22
1.629760
 13
7.509480
 23
1.629320
  0
POLYLINE
  8
0
  6
CONTINUOUS
 66
     1
 40
0.000000
 41
0.000000
  0
VERTEX
  8
0
  6
CONTINUOUS
 10
6.754440
 20
1.652640
  0
VERTEX
  8
0
  6
CONTINUOUS
 10
7.507280
 20
1.652200
  0
VERTEX
  8
0
  6
CONTINUOUS
 10
7.509480
 20
1.629320
  0
VERTEX
  8
0
  6
CONTINUOUS
 10
6.756640
 20
1.629760
  0
VERTEX
  8
0
  6
CONTINUOUS
 10
6.754440
 20
1.652640
  0
SEQEND
  8
0
  0
SOLID
  8
0
 62
    15
 10
6.756640
 20
1.629760
 11
7.509480
 21
1.629320
 12
6.755760
 22
1.607760
 13
7.508600
 23
1.606880
  0
POLYLINE
  8
0
  6
CONTINUOUS
 66
     1
 40
0.000000
 41
0.000000
  0
VERTEX
  8
0
  6
CONTINUOUS
 10
6.756640
 20
1.629760
  0
VERTEX
  8
0
  6
CONTINUOUS
 10
7.509480
 20
1.629320
  0
VERTEX
  8
0
  6
CONTINUOUS
 10
7.508600
 20
1.606880
  0
VERTEX
  8
0
  6
CONTINUOUS
 10
6.755760
 20
1.607760
  0
VERTEX
  8
0
  6
CONTINUOUS
 10
6.756640
 20
1.629760
  0
SEQEND
  8
0
  0
SOLID
  8
0
 62
    15
 10
6.755760
 20
1.607760
 11
7.508600
 21
1.606880
 12
6.751360
 22
1.586200
 13
7.504200
 23
1.585320
  0
POLYLINE
  8
0
  6
CONTINUOUS
 66
     1
 40
0.000000
 41
0.000000
  0
VERTEX
  8
0
  6
CONTINUOUS
 10
6.755760
 20
1.607760
  0
VERTEX
  8
0
  6
CONTINUOUS
 10
7.508600
 20
1.606880
  0
VERTEX
  8
0
  6
CONTINUOUS
 10
7.504200
 20
1.585320
  0
VERTEX
  8
0
  6
CONTINUOUS
 10
6.751360
 20
1.586200
  0
VERTEX
  8
0
  6
CONTINUOUS
 10
6.755760
 20
1.607760
  0
SEQEND
  8
0
  0
SOLID
  8
0
 62
    15
 10
6.751360
 20
1.586200
 11
7.504200
 21
1.585320
 12
6.743880
 22
1.565520
 13
7.496720
 23
1.565080
  0
POLYLINE
  8
0
  6
CONTINUOUS
 66
     1
 40
0.000000
 41
0.000000
  0
VERTEX
  8
0
  6
CONTINUOUS
 10
6.751360
 20
1.586200
  0
VERTEX
  8
0
  6
CONTINUOUS
 10
7.504200
 20
1.585320
  0
VERTEX
  8
0
  6
CONTINUOUS
 10
7.496720
 20
1.565080
  0
VERTEX
  8
0
  6
CONTINUOUS
 10
6.743880
 20
1.565520
  0
VERTEX
  8
0
  6
CONTINUOUS
 10
6.751360
 20
1.586200
  0
SEQEND
  8
0
  0
SOLID
  8
0
 62
    15
 10
6.743880
 20
1.565520
 11
7.496720
 21
1.565080
 12
6.720560
 22
1.527240
 13
7.473840
 23
1.526800
  0
POLYLINE
  8
0
  6
CONTINUOUS
 66
     1
 40
0.000000
 41
0.000000
  0
VERTEX
  8
0
  6
CONTINUOUS
 10
6.743880
 20
1.565520
  0
VERTEX
  8
0
  6
CONTINUOUS
 10
7.496720
 20
1.565080
  0
VERTEX
  8
0
  6
CONTINUOUS
 10
7.473840
 20
1.526800
  0
VERTEX
  8
0
  6
CONTINUOUS
 10
6.720560
 20
1.527240
  0
VERTEX
  8
0
  6
CONTINUOUS
 10
6.743880
 20
1.565520
  0
SEQEND
  8
0
  0
SOLID
  8
0
 62
    15
 10
6.720560
 20
1.527240
 11
7.473840
 21
1.526800
 12
6.688000
 22
1.493800
 13
7.441280
 23
1.492920
  0
POLYLINE
  8
0
  6
CONTINUOUS
 66
     1
 40
0.000000
 41
0.000000
  0
VERTEX
  8
0
  6
CONTINUOUS
 10
6.720560
 20
1.527240
  0
VERTEX
  8
0
  6
CONTINUOUS
 10
7.473840
 20
1.526800
  0
VERTEX
  8
0
  6
CONTINUOUS
 10
7.441280
 20
1.492920
  0
VERTEX
  8
0
  6
CONTINUOUS
 10
6.688000
 20
1.493800
  0
VERTEX
  8
0
  6
CONTINUOUS
 10
6.720560
 20
1.527240
  0
SEQEND
  8
0
  0
SOLID
  8
0
 62
    15
 10
6.688000
 20
1.493800
 11
7.441280
 21
1.492920
 12
6.647960
 22
1.465200
 13
7.400800
 23
1.464760
  0
POLYLINE
  8
0
  6
CONTINUOUS
 66
     1
 40
0.000000
 41
0.000000
  0
VERTEX
  8
0
  6
CONTINUOUS
 10
6.688000
 20
1.493800
  0
VERTEX
  8
0
  6
CONTINUOUS
 10
7.441280
 20
1.492920
  0
VERTEX
  8
0
  6
CONTINUOUS
 10
7.400800
 20
1.464760
  0
VERTEX
  8
0
  6
CONTINUOUS
 10
6.647960
 20
1.465200
  0
VERTEX
  8
0
  6
CONTINUOUS
 10
6.688000
 20
1.493800
  0
SEQEND
  8
0
  0
SOLID
  8
0
 62
    15
 10
6.647960
 20
1.465200
 11
7.400800
 21
1.464760
 12
6.558200
 22
1.411520
 13
7.311040
 23
1.410640
  0
POLYLINE
  8
0
  6
CONTINUOUS
 66
     1
 40
0.000000
 41
0.000000
  0
VERTEX
  8
0
  6
CONTINUOUS
 10
6.647960
 20
1.465200
  0
VERTEX
  8
0
  6
CONTINUOUS
 10
7.400800
 20
1.464760
  0
VERTEX
  8
0
  6
CONTINUOUS
 10
7.311040
 20
1.410640
  0
VERTEX
  8
0
  6
CONTINUOUS
 10
6.558200
 20
1.411520
  0
VERTEX
  8
0
  6
CONTINUOUS
 10
6.647960
 20
1.465200
  0
SEQEND
  8
0
  0
SOLID
  8
0
 62
    15
 10
6.558200
 20
1.411520
 11
7.311040
 21
1.410640
 12
6.514200
 22
1.381160
 13
7.267040
 23
1.380280
  0
POLYLINE
  8
0
  6
CONTINUOUS
 66
     1
 40
0.000000
 41
0.000000
  0
VERTEX
  8
0
  6
CONTINUOUS
 10
6.558200
 20
1.411520
  0
VERTEX
  8
0
  6
CONTINUOUS
 10
7.311040
 20
1.410640
  0
VERTEX
  8
0
  6
CONTINUOUS
 10
7.267040
 20
1.380280
  0
VERTEX
  8
0
  6
CONTINUOUS
 10
6.514200
 20
1.381160
  0
VERTEX
  8
0
  6
CONTINUOUS
 10
6.558200
 20
1.411520
  0
SEQEND
  8
0
  0
SOLID
  8
0
 62
    15
 10
6.514200
 20
1.381160
 11
7.267040
 21
1.380280
 12
6.472840
 22
1.348160
 13
7.225680
 23
1.347280
  0
POLYLINE
  8
0
  6
CONTINUOUS
 66
     1
 40
0.000000
 41
0.000000
  0
VERTEX
  8
0
  6
CONTINUOUS
 10
6.514200
 20
1.381160
  0
VERTEX
  8
0
  6
CONTINUOUS
 10
7.267040
 20
1.380280
  0
VERTEX
  8
0
  6
CONTINUOUS
 10
7.225680
 20
1.347280
  0
VERTEX
  8
0
  6
CONTINUOUS
 10
6.472840
 20
1.348160
  0
VERTEX
  8
0
  6
CONTINUOUS
 10
6.514200
 20
1.381160
  0
SEQEND
  8
0
  0
SOLID
  8
0
 62
    15
 10
6.472840
 20
1.348160
 11
7.225680
 21
1.347280
 12
6.436320
 22
1.311640
 13
7.189160
 23
1.311200
  0
POLYLINE
  8
0
  6
CONTINUOUS
 66
     1
 40
0.000000
 41
0.000000
  0
VERTEX
  8
0
  6
CONTINUOUS
 10
6.472840
 20
1.348160
  0
VERTEX
  8
0
  6
CONTINUOUS
 10
7.225680
 20
1.347280
  0
VERTEX
  8
0
  6
CONTINUOUS
 10
7.189160
 20
1.311200
  0
VERTEX
  8
0
  6
CONTINUOUS
 10
6.436320
 20
1.311640
  0
VERTEX
  8
0
  6
CONTINUOUS
 10
6.472840
 20
1.348160
  0
SEQEND
  8
0
  0
SOLID
  8
0
 62
    15
 10
6.436320
 20
1.311640
 11
7.189160
 21
1.311200
 12
6.405960
 22
1.271600
 13
7.158800
 23
1.271160
  0
POLYLINE
  8
0
  6
CONTINUOUS
 66
     1
 40
0.000000
 41
0.000000
  0
VERTEX
  8
0
  6
CONTINUOUS
 10
6.436320
 20
1.311640
  0
VERTEX
  8
0
  6
CONTINUOUS
 10
7.189160
 20
1.311200
  0
VERTEX
  8
0
  6
CONTINUOUS
 10
7.158800
 20
1.271160
  0
VERTEX
  8
0
  6
CONTINUOUS
 10
6.405960
 20
1.271600
  0
VERTEX
  8
0
  6
CONTINUOUS
 10
6.436320
 20
1.311640
  0
SEQEND
  8
0
  0
SOLID
  8
0
 62
    15
 10
6.405960
 20
1.271600
 11
7.158800
 21
1.271160
 12
6.383520
 22
1.227160
 13
7.136800
 23
1.226280
  0
POLYLINE
  8
0
  6
CONTINUOUS
 66
     1
 40
0.000000
 41
0.000000
  0
VERTEX
  8
0
  6
CONTINUOUS
 10
6.405960
 20
1.271600
  0
VERTEX
  8
0
  6
CONTINUOUS
 10
7.158800
 20
1.271160
  0
VERTEX
  8
0
  6
CONTINUOUS
 10
7.136800
 20
1.226280
  0
VERTEX
  8
0
  6
CONTINUOUS
 10
6.383520
 20
1.227160
  0
VERTEX
  8
0
  6
CONTINUOUS
 10
6.405960
 20
1.271600
  0
SEQEND
  8
0
  0
SOLID
  8
0
 62
    15
 10
6.383520
 20
1.227160
 11
7.136800
 21
1.226280
 12
6.376040
 22
1.203400
 13
7.128880
 23
1.202520
  0
POLYLINE
  8
0
  6
CONTINUOUS
 66
     1
 40
0.000000
 41
0.000000
  0
VERTEX
  8
0
  6
CONTINUOUS
 10
6.383520
 20
1.227160
  0
VERTEX
  8
0
  6
CONTINUOUS
 10
7.136800
 20
1.226280
  0
VERTEX
  8
0
  6
CONTINUOUS
 10
7.128880
 20
1.202520
  0
VERTEX
  8
0
  6
CONTINUOUS
 10
6.376040
 20
1.203400
  0
VERTEX
  8
0
  6
CONTINUOUS
 10
6.383520
 20
1.227160
  0
SEQEND
  8
0
  0
SOLID
  8
0
 62
    15
 10
6.376040
 20
1.203400
 11
7.128880
 21
1.202520
 12
6.371200
 22
1.177880
 13
7.124040
 23
1.177000
  0
POLYLINE
  8
0
  6
CONTINUOUS
 66
     1
 40
0.000000
 41
0.000000
  0
VERTEX
  8
0
  6
CONTINUOUS
 10
6.376040
 20
1.203400
  0
VERTEX
  8
0
  6
CONTINUOUS
 10
7.128880
 20
1.202520
  0
VERTEX
  8
0
  6
CONTINUOUS
 10
7.124040
 20
1.177000
  0
VERTEX
  8
0
  6
CONTINUOUS
 10
6.371200
 20
1.177880
  0
VERTEX
  8
0
  6
CONTINUOUS
 10
6.376040
 20
1.203400
  0
SEQEND
  8
0
  0
POLYLINE
  8
0
  6
CONTINUOUS
 66
     1
 40
0.000000
 41
0.000000
  0
VERTEX
  8
0
  6
CONTINUOUS
 10
6.371200
 20
1.178320
  0
VERTEX
  8
0
  6
CONTINUOUS
 10
6.145920
 20
1.178320
  0
VERTEX
  8
0
  6
CONTINUOUS
 10
6.145920
 20
4.163720
  0
VERTEX
  8
0
  6
CONTINUOUS
 10
6.368560
 20
4.163720
  0
VERTEX
  8
0
  6
CONTINUOUS
 10
6.371640
 20
4.143040
  0
VERTEX
  8
0
  6
CONTINUOUS
 10
6.380880
 20
4.117960
  0
VERTEX
  8
0
  6
CONTINUOUS
 10
6.396280
 20
4.088920
  0
VERTEX
  8
0
  6
CONTINUOUS
 10
6.419600
 20
4.057240
  0
VERTEX
  8
0
  6
CONTINUOUS
 10
6.452160
 20
4.022920
  0
VERTEX
  8
0
  6
CONTINUOUS
 10
6.494840
 20
3.986400
  0
VERTEX
  8
0
  6
CONTINUOUS
 10
6.548520
 20
3.949440
  0
VERTEX
  8
0
  6
CONTINUOUS
 10
6.649280
 20
3.892240
  0
VERTEX
  8
0
  6
CONTINUOUS
 10
6.677440
 20
3.872000
  0
VERTEX
  8
0
  6
CONTINUOUS
 10
6.700760
 20
3.850880
  0
VERTEX
  8
0
  6
CONTINUOUS
 10
6.718800
 20
3.828880
  0
VERTEX
  8
0
  6
CONTINUOUS
 10
6.732880
 20
3.806880
  0
VERTEX
  8
0
  6
CONTINUOUS
 10
6.742120
 20
3.784000
  0
VERTEX
  8
0
  6
CONTINUOUS
 10
6.747840
 20
3.761560
  0
VERTEX
  8
0
  6
CONTINUOUS
 10
6.749600
 20
3.738680
  0
VERTEX
  8
0
  6
CONTINUOUS
 10
6.747840
 20
3.716240
  0
VERTEX
  8
0
  6
CONTINUOUS
 10
6.743000
 20
3.693800
  0
VERTEX
  8
0
  6
CONTINUOUS
 10
6.724960
 20
3.651120
  0
VERTEX
  8
0
  6
CONTINUOUS
 10
6.698120
 20
3.611960
  0
VERTEX
  8
0
  6
CONTINUOUS
 10
6.664240
 20
3.577200
  0
VERTEX
  8
0
  6
CONTINUOUS
 10
6.661160
 20
3.561360
  0
VERTEX
  8
0
  6
CONTINUOUS
 10
6.775120
 20
3.474240
  0
VERTEX
  8
0
  6
CONTINUOUS
 10
6.775120
 20
3.295600
  0
VERTEX
  8
0
  6
CONTINUOUS
 10
6.758840
 20
3.274040
  0
VERTEX
  8
0
  6
CONTINUOUS
 10
6.729360
 20
3.245000
  0
VERTEX
  8
0
  6
CONTINUOUS
 10
6.698120
 20
3.215520
  0
VERTEX
  8
0
  6
CONTINUOUS
 10
6.679200
 20
3.194840
  0
VERTEX
  8
0
  6
CONTINUOUS
 10
6.663360
 20
3.171520
  0
VERTEX
  8
0
  6
CONTINUOUS
 10
6.652360
 20
3.144680
  0
VERTEX
  8
0
  6
CONTINUOUS
 10
6.647960
 20
3.113880
  0
VERTEX
  8
0
  6
CONTINUOUS
 10
6.650600
 20
3.076040
  0
VERTEX
  8
0
  6
CONTINUOUS
 10
6.659840
 20
3.031160
  0
VERTEX
  8
0
  6
CONTINUOUS
 10
6.704720
 20
2.862640
  0
VERTEX
  8
0
  6
CONTINUOUS
 10
6.718360
 20
2.798840
  0
VERTEX
  8
0
  6
CONTINUOUS
 10
6.728040
 20
2.732400
  0
VERTEX
  8
0
  6
CONTINUOUS
 10
6.732000
 20
2.665080
  0
VERTEX
  8
0
  6
CONTINUOUS
 10
6.731560
 20
2.624160
  0
VERTEX
  8
0
  6
CONTINUOUS
 10
6.729800
 20
2.592040
  0
VERTEX
  8
0
  6
CONTINUOUS
 10
6.720560
 20
2.540120
  0
VERTEX
  8
0
  6
CONTINUOUS
 10
6.682720
 20
2.416920
  0
VERTEX
  8
0
  6
CONTINUOUS
 10
6.662920
 20
2.340360
  0
VERTEX
  8
0
  6
CONTINUOUS
 10
6.655000
 20
2.296800
  0
VERTEX
  8
0
  6
CONTINUOUS
 10
6.652800
 20
2.256760
  0
VERTEX
  8
0
  6
CONTINUOUS
 10
6.657200
 20
2.219800
  0
VERTEX
  8
0
  6
CONTINUOUS
 10
6.670840
 20
2.184160
  0
VERTEX
  8
0
  6
CONTINUOUS
 10
6.693720
 20
2.149400
  0
VERTEX
  8
0
  6
CONTINUOUS
 10
6.728040
 20
2.114200
  0
VERTEX
  8
0
  6
CONTINUOUS
 10
6.775120
 20
2.078120
  0
VERTEX
  8
0
  6
CONTINUOUS
 10
6.775120
 20
1.874840
  0
VERTEX
  8
0
  6
CONTINUOUS
 10
6.655880
 20
1.798720
  0
VERTEX
  8
0
  6
CONTINUOUS
 10
6.683600
 20
1.774080
  0
VERTEX
  8
0
  6
CONTINUOUS
 10
6.706480
 20
1.749000
  0
VERTEX
  8
0
  6
CONTINUOUS
 10
6.724520
 20
1.724360
  0
VERTEX
  8
0
  6
CONTINUOUS
 10
6.738600
 20
1.700160
  0
VERTEX
  8
0
  6
CONTINUOUS
 10
6.748280
 20
1.676400
  0
VERTEX
  8
0
  6
CONTINUOUS
 10
6.754440
 20
1.652640
  0
VERTEX
  8
0
  6
CONTINUOUS
 10
6.756640
 20
1.629760
  0
VERTEX
  8
0
  6
CONTINUOUS
 10
6.755760
 20
1.607760
  0
VERTEX
  8
0
  6
CONTINUOUS
 10
6.751360
 20
1.586200
  0
VERTEX
  8
0
  6
CONTINUOUS
 10
6.743880
 20
1.565520
  0
VERTEX
  8
0
  6
CONTINUOUS
 10
6.720560
 20
1.527240
  0
VERTEX
  8
0
  6
CONTINUOUS
 10
6.688000
 20
1.493800
  0
VERTEX
  8
0
  6
CONTINUOUS
 10
6.647960
 20
1.465200
  0
VERTEX
  8
0
  6
CONTINUOUS
 10
6.558200
 20
1.411520
  0
VERTEX
  8
0
  6
CONTINUOUS
 10
6.514200
 20
1.381160
  0
VERTEX
  8
0
  6
CONTINUOUS
 10
6.472840
 20
1.348160
  0
VERTEX
  8
0
  6
CONTINUOUS
 10
6.436320
 20
1.311640
  0
VERTEX
  8
0
  6
CONTINUOUS
 10
6.405960
 20
1.271600
  0
VERTEX
  8
0
  6
CONTINUOUS
 10
6.383520
 20
1.227160
  0
VERTEX
  8
0
  6
CONTINUOUS
 10
6.376040
 20
1.203400
  0
VERTEX
  8
0
  6
CONTINUOUS
 10
6.371200
 20
1.177880
  0
VERTEX
  8
0
  6
CONTINUOUS
 10
6.371200
 20
1.178320
  0
SEQEND
  8
0
  0
TEXT
  8
0
 10
6.541920
 20
0.928400
 40
0.138294
  1
BA  488
 41
1.000000
  7
SN0
 71
     0
 72
     5
 11
7.132774
 21
0.928400
  0
TEXT
  8
0
 10
6.529160
 20
0.736560
 40
0.138294
  1
5/8" x 3"
 41
1.000000
  7
SN0
 71
     0
 72
     5
 11
7.145194
 21
0.736560
  0
ENDSEC
  0
EOF
