  0
SECTION
  2
HEADER
  9
$ACADVER
  1
AC1006
  9
$EXTMIN
 10
3.122680
 20
0.662200
  9
$EXTMAX
 10
7.120960
 20
4.260080
  9
$LTSCALE
 40
0.044000
  9
$PDMODE
 70
    35
  9
$PDSIZE
 40
0.035200
  0
ENDSEC
  0
SECTION
  2
TABLES
  0
TABLE
  2
LTYPE
 70
     9
  0
LTYPE
  2
CONTINUOUS
 70
    64
  3
Solid line
 72
    65
 73
     0
 40
0.000000
  0
LTYPE
  2
DASHED
 70
    64
  3
__ __ __ __ __ __ __ __ __ __ __ __ __ __ __
 72
    65
 73
     2
 40
0.000330
 49
0.000220
 49
-0.000110
  0
LTYPE
  2
HIDDEN
 70
    64
  3
 _ _ _ _ _ _ _ _ _ _ _ _ _ _ _ _ _ _ _ _ _ _
 72
    65
 73
     2
 40
0.000165
 49
0.000110
 49
-0.000055
  0
LTYPE
  2
CENTER
 70
    64
  3
____ _ ____ _ ____ _ ____ _ ____ _ ____ _ ____
 72
    65
 73
     4
 40
0.000880
 49
0.000550
 49
-0.000110
 49
0.000110
 49
-0.000110
  0
LTYPE
  2
PHANTOM
 70
    64
  3
_____ _ _ _____ _ _ _____ _ _ _____ _ _ ____
 72
    65
 73
     6
 40
0.001100
 49
0.000550
 49
-0.000110
 49
0.000110
 49
-0.000110
 49
0.000110
 49
-0.000110
  0
LTYPE
  2
DOT
 70
    64
  3
...............................................
 72
    65
 73
     2
 40
0.000110
 49
0.000000
 49
-0.000110
  0
LTYPE
  2
DASHDOT
 70
    64
  3
__ . __ . __ . __ . __ . __ . __ . __ . __ . __
 72
    65
 73
     4
 40
0.000440
 49
0.000220
 49
-0.000110
 49
0.000000
 49
-0.000110
  0
LTYPE
  2
BORDER
 70
    64
  3
__ __ . __ __ . __ __ . __ __ . __ __ . __ __
 72
    65
 73
     6
 40
0.000770
 49
0.000220
 49
-0.000110
 49
0.000220
 49
-0.000110
 49
0.000000
 49
-0.000110
  0
LTYPE
  2
DIVIDE
 70
    64
  3
__ . . __ . . __ . . __ . . __ . . __ . . __
 72
    65
 73
     6
 40
0.000550
 49
0.000220
 49
-0.000110
 49
0.000000
 49
-0.000110
 49
0.000000
 49
-0.000110
  0
LTYPE
  2
DOTDOT
 70
    64
  3
 . .  . .  . .  . .  . .  . . 
 72
    65
 73
     5
 40
0.000242
 49
-0.000110
 49
0.000000
 49
-0.000110
 49
0.000000
 49
-0.000110
  0
ENDTAB
  0
TABLE
  2
STYLE
 70
     2
  0
STYLE
 70
     0
  2
SN0
 40
0.000000
 41
0.000440
 50
0.000000
 71
     0
 42
0.000000
  3
ROMAND
  0
STYLE
 70
    68
  2
SV0
 40
0.000000
 41
0.000440
 50
0.000000
 71
     0
 42
0.000000
  3
ROMAND
  0
ENDTAB
  0
TABLE
  2
LAYER
 70
     3
  0
LAYER
  2
FOREGROUND
 70
    64
 62
     7
  6
CONTINUOUS
  0
LAYER
  2
BACKGROUND
 70
    65
 62
    -7
  6
CONTINUOUS
  0
LAYER
  2
0
 70
    64
 62
     7
  6
CONTINUOUS
  0
ENDTAB
  0
ENDSEC
  0
SECTION
  2
ENTITIES
  0
POLYLINE
  8
FOREGROUND
  6
CONTINUOUS
 66
     1
 40
0.000000
 41
0.000000
  0
VERTEX
  8
FOREGROUND
  6
CONTINUOUS
 10
0.000000
 20
4.922280
  0
VERTEX
  8
FOREGROUND
  6
CONTINUOUS
 10
8.499920
 20
4.922280
  0
VERTEX
  8
FOREGROUND
  6
CONTINUOUS
 10
8.499920
 20
-6.077720
  0
VERTEX
  8
FOREGROUND
  6
CONTINUOUS
 10
0.000000
 20
-6.077720
  0
VERTEX
  8
FOREGROUND
  6
CONTINUOUS
 10
0.000000
 20
4.922280
  0
SEQEND
  8
0
  0
POLYLINE
  8
FOREGROUND
  6
CONTINUOUS
 66
     1
 40
0.000000
 41
0.000000
  0
VERTEX
  8
FOREGROUND
  6
CONTINUOUS
 10
0.000000
 20
4.922280
  0
VERTEX
  8
FOREGROUND
  6
CONTINUOUS
 10
8.499920
 20
4.922280
  0
VERTEX
  8
FOREGROUND
  6
CONTINUOUS
 10
8.499920
 20
-6.077720
  0
VERTEX
  8
FOREGROUND
  6
CONTINUOUS
 10
0.000000
 20
-6.077720
  0
VERTEX
  8
FOREGROUND
  6
CONTINUOUS
 10
0.000000
 20
4.922280
  0
SEQEND
  8
0
  0
POLYLINE
  8
0
  6
CONTINUOUS
 66
     1
 40
0.014080
 41
0.014080
  0
VERTEX
  8
0
  6
CONTINUOUS
 10
5.803600
 20
3.949440
  0
VERTEX
  8
0
  6
CONTINUOUS
 10
5.840120
 20
3.952520
  0
VERTEX
  8
0
  6
CONTINUOUS
 10
5.871360
 20
3.961760
  0
VERTEX
  8
0
  6
CONTINUOUS
 10
5.897760
 20
3.976720
  0
VERTEX
  8
0
  6
CONTINUOUS
 10
5.919320
 20
3.996080
  0
VERTEX
  8
0
  6
CONTINUOUS
 10
5.936920
 20
4.020280
  0
VERTEX
  8
0
  6
CONTINUOUS
 10
5.949680
 20
4.048000
  0
VERTEX
  8
0
  6
CONTINUOUS
 10
5.958920
 20
4.078360
  0
VERTEX
  8
0
  6
CONTINUOUS
 10
5.963760
 20
4.111800
  0
VERTEX
  8
0
  6
CONTINUOUS
 10
6.113800
 20
4.111800
  0
VERTEX
  8
0
  6
CONTINUOUS
 10
6.115560
 20
4.128080
  0
VERTEX
  8
0
  6
CONTINUOUS
 10
6.123480
 20
4.157560
  0
VERTEX
  8
0
  6
CONTINUOUS
 10
6.128760
 20
4.170760
  0
VERTEX
  8
0
  6
CONTINUOUS
 10
6.143280
 20
4.194520
  0
VERTEX
  8
0
  6
CONTINUOUS
 10
6.161320
 20
4.214320
  0
VERTEX
  8
0
  6
CONTINUOUS
 10
6.182000
 20
4.230160
  0
VERTEX
  8
0
  6
CONTINUOUS
 10
6.204440
 20
4.241600
  0
VERTEX
  8
0
  6
CONTINUOUS
 10
6.229080
 20
4.249080
  0
VERTEX
  8
0
  6
CONTINUOUS
 10
6.254160
 20
4.252160
  0
VERTEX
  8
0
  6
CONTINUOUS
 10
6.279240
 20
4.251280
  0
VERTEX
  8
0
  6
CONTINUOUS
 10
6.303440
 20
4.245560
  0
VERTEX
  8
0
  6
CONTINUOUS
 10
6.326760
 20
4.235000
  0
VERTEX
  8
0
  6
CONTINUOUS
 10
6.347440
 20
4.220040
  0
VERTEX
  8
0
  6
CONTINUOUS
 10
6.365920
 20
4.200680
  0
VERTEX
  8
0
  6
CONTINUOUS
 10
6.380880
 20
4.176040
  0
VERTEX
  8
0
  6
CONTINUOUS
 10
6.391440
 20
4.146560
  0
VERTEX
  8
0
  6
CONTINUOUS
 10
6.394960
 20
4.129840
  0
VERTEX
  8
0
  6
CONTINUOUS
 10
6.397160
 20
4.111800
  0
VERTEX
  8
0
  6
CONTINUOUS
 10
6.538840
 20
4.111800
  0
VERTEX
  8
0
  6
CONTINUOUS
 10
6.538840
 20
3.893120
  0
VERTEX
  8
0
  6
CONTINUOUS
 10
6.595600
 20
3.889600
  0
VERTEX
  8
0
  6
CONTINUOUS
 10
6.643120
 20
3.883000
  0
VERTEX
  8
0
  6
CONTINUOUS
 10
6.682280
 20
3.873320
  0
VERTEX
  8
0
  6
CONTINUOUS
 10
6.714840
 20
3.860560
  0
VERTEX
  8
0
  6
CONTINUOUS
 10
6.733320
 20
3.850440
  0
VERTEX
  8
0
  6
CONTINUOUS
 10
6.764120
 20
3.826680
  0
VERTEX
  8
0
  6
CONTINUOUS
 10
6.776880
 20
3.813040
  0
VERTEX
  8
0
  6
CONTINUOUS
 10
6.798880
 20
3.782240
  0
VERTEX
  8
0
  6
CONTINUOUS
 10
6.849920
 20
3.690720
  0
VERTEX
  8
0
  6
CONTINUOUS
 10
6.873680
 20
3.657280
  0
VERTEX
  8
0
  6
CONTINUOUS
 10
6.900520
 20
3.630000
  0
VERTEX
  8
0
  6
CONTINUOUS
 10
6.930880
 20
3.608000
  0
VERTEX
  8
0
  6
CONTINUOUS
 10
6.964320
 20
3.591280
  0
VERTEX
  8
0
  6
CONTINUOUS
 10
7.001280
 20
3.579400
  0
VERTEX
  8
0
  6
CONTINUOUS
 10
7.041760
 20
3.571920
  0
VERTEX
  8
0
  6
CONTINUOUS
 10
7.086200
 20
3.568400
  0
VERTEX
  8
0
  6
CONTINUOUS
 10
7.113920
 20
3.567960
  0
VERTEX
  8
0
  6
CONTINUOUS
 10
7.113920
 20
3.322000
  0
VERTEX
  8
0
  6
CONTINUOUS
 10
7.111720
 20
3.320240
  0
VERTEX
  8
0
  6
CONTINUOUS
 10
3.130600
 20
3.320240
  0
VERTEX
  8
0
  6
CONTINUOUS
 10
3.130600
 20
4.157560
  0
VERTEX
  8
0
  6
CONTINUOUS
 10
3.128400
 20
4.155360
  0
VERTEX
  8
0
  6
CONTINUOUS
 10
4.051520
 20
4.155360
  0
VERTEX
  8
0
  6
CONTINUOUS
 10
4.051520
 20
4.134680
  0
VERTEX
  8
0
  6
CONTINUOUS
 10
4.055480
 20
4.094640
  0
VERTEX
  8
0
  6
CONTINUOUS
 10
4.063840
 20
4.057680
  0
VERTEX
  8
0
  6
CONTINUOUS
 10
4.070000
 20
4.040960
  0
VERTEX
  8
0
  6
CONTINUOUS
 10
4.086720
 20
4.010160
  0
VERTEX
  8
0
  6
CONTINUOUS
 10
4.109160
 20
3.985080
  0
VERTEX
  8
0
  6
CONTINUOUS
 10
4.122800
 20
3.974520
  0
VERTEX
  8
0
  6
CONTINUOUS
 10
4.138200
 20
3.965720
  0
VERTEX
  8
0
  6
CONTINUOUS
 10
4.164160
 20
3.956040
  0
VERTEX
  8
0
  6
CONTINUOUS
 10
4.194080
 20
3.950320
  0
VERTEX
  8
0
  6
CONTINUOUS
 10
4.220040
 20
3.949440
  0
VERTEX
  8
0
  6
CONTINUOUS
 10
5.818120
 20
3.949440
  0
VERTEX
  8
0
  6
CONTINUOUS
 10
5.803600
 20
3.949440
  0
SEQEND
  8
0
  0
SOLID
  8
0
 62
    15
 10
6.533560
 20
1.704560
 11
6.537960
 21
2.466200
 12
6.572280
 22
1.702800
 13
6.576680
 23
2.464440
  0
POLYLINE
  8
0
  6
CONTINUOUS
 66
     1
 40
0.000000
 41
0.000000
  0
VERTEX
  8
0
  6
CONTINUOUS
 10
6.533560
 20
1.704560
  0
VERTEX
  8
0
  6
CONTINUOUS
 10
6.537960
 20
2.466200
  0
VERTEX
  8
0
  6
CONTINUOUS
 10
6.576680
 20
2.464440
  0
VERTEX
  8
0
  6
CONTINUOUS
 10
6.572280
 20
1.702800
  0
VERTEX
  8
0
  6
CONTINUOUS
 10
6.533560
 20
1.704560
  0
SEQEND
  8
0
  0
SOLID
  8
0
 62
    15
 10
5.834840
 20
1.763960
 11
5.838800
 21
2.525600
 12
5.866080
 22
1.773200
 13
5.870480
 23
2.534840
  0
POLYLINE
  8
0
  6
CONTINUOUS
 66
     1
 40
0.000000
 41
0.000000
  0
VERTEX
  8
0
  6
CONTINUOUS
 10
5.834840
 20
1.763960
  0
VERTEX
  8
0
  6
CONTINUOUS
 10
5.838800
 20
2.525600
  0
VERTEX
  8
0
  6
CONTINUOUS
 10
5.870480
 20
2.534840
  0
VERTEX
  8
0
  6
CONTINUOUS
 10
5.866080
 20
1.773200
  0
VERTEX
  8
0
  6
CONTINUOUS
 10
5.834840
 20
1.763960
  0
SEQEND
  8
0
  0
SOLID
  8
0
 62
    15
 10
5.866080
 20
1.773200
 11
5.870480
 21
2.534840
 12
5.892480
 22
1.788160
 13
5.896880
 23
2.549800
  0
POLYLINE
  8
0
  6
CONTINUOUS
 66
     1
 40
0.000000
 41
0.000000
  0
VERTEX
  8
0
  6
CONTINUOUS
 10
5.866080
 20
1.773200
  0
VERTEX
  8
0
  6
CONTINUOUS
 10
5.870480
 20
2.534840
  0
VERTEX
  8
0
  6
CONTINUOUS
 10
5.896880
 20
2.549800
  0
VERTEX
  8
0
  6
CONTINUOUS
 10
5.892480
 20
1.788160
  0
VERTEX
  8
0
  6
CONTINUOUS
 10
5.866080
 20
1.773200
  0
SEQEND
  8
0
  0
SOLID
  8
0
 62
    15
 10
5.892480
 20
1.788160
 11
5.896880
 21
2.549800
 12
5.914480
 22
1.807960
 13
5.918880
 23
2.569600
  0
POLYLINE
  8
0
  6
CONTINUOUS
 66
     1
 40
0.000000
 41
0.000000
  0
VERTEX
  8
0
  6
CONTINUOUS
 10
5.892480
 20
1.788160
  0
VERTEX
  8
0
  6
CONTINUOUS
 10
5.896880
 20
2.549800
  0
VERTEX
  8
0
  6
CONTINUOUS
 10
5.918880
 20
2.569600
  0
VERTEX
  8
0
  6
CONTINUOUS
 10
5.914480
 20
1.807960
  0
VERTEX
  8
0
  6
CONTINUOUS
 10
5.892480
 20
1.788160
  0
SEQEND
  8
0
  0
SOLID
  8
0
 62
    15
 10
5.914480
 20
1.807960
 11
5.918880
 21
2.569600
 12
5.931640
 22
1.831720
 13
5.936040
 23
2.593360
  0
POLYLINE
  8
0
  6
CONTINUOUS
 66
     1
 40
0.000000
 41
0.000000
  0
VERTEX
  8
0
  6
CONTINUOUS
 10
5.914480
 20
1.807960
  0
VERTEX
  8
0
  6
CONTINUOUS
 10
5.918880
 20
2.569600
  0
VERTEX
  8
0
  6
CONTINUOUS
 10
5.936040
 20
2.593360
  0
VERTEX
  8
0
  6
CONTINUOUS
 10
5.931640
 20
1.831720
  0
VERTEX
  8
0
  6
CONTINUOUS
 10
5.914480
 20
1.807960
  0
SEQEND
  8
0
  0
SOLID
  8
0
 62
    15
 10
5.931640
 20
1.831720
 11
5.936040
 21
2.593360
 12
5.944840
 22
1.859440
 13
5.948800
 23
2.621080
  0
POLYLINE
  8
0
  6
CONTINUOUS
 66
     1
 40
0.000000
 41
0.000000
  0
VERTEX
  8
0
  6
CONTINUOUS
 10
5.931640
 20
1.831720
  0
VERTEX
  8
0
  6
CONTINUOUS
 10
5.936040
 20
2.593360
  0
VERTEX
  8
0
  6
CONTINUOUS
 10
5.948800
 20
2.621080
  0
VERTEX
  8
0
  6
CONTINUOUS
 10
5.944840
 20
1.859440
  0
VERTEX
  8
0
  6
CONTINUOUS
 10
5.931640
 20
1.831720
  0
SEQEND
  8
0
  0
SOLID
  8
0
 62
    15
 10
5.944840
 20
1.859440
 11
5.948800
 21
2.621080
 12
5.953640
 22
1.890240
 13
5.958040
 23
2.651880
  0
POLYLINE
  8
0
  6
CONTINUOUS
 66
     1
 40
0.000000
 41
0.000000
  0
VERTEX
  8
0
  6
CONTINUOUS
 10
5.944840
 20
1.859440
  0
VERTEX
  8
0
  6
CONTINUOUS
 10
5.948800
 20
2.621080
  0
VERTEX
  8
0
  6
CONTINUOUS
 10
5.958040
 20
2.651880
  0
VERTEX
  8
0
  6
CONTINUOUS
 10
5.953640
 20
1.890240
  0
VERTEX
  8
0
  6
CONTINUOUS
 10
5.944840
 20
1.859440
  0
SEQEND
  8
0
  0
SOLID
  8
0
 62
    15
 10
5.953640
 20
1.890240
 11
5.958040
 21
2.651880
 12
5.958920
 22
1.923240
 13
5.962880
 23
2.684880
  0
POLYLINE
  8
0
  6
CONTINUOUS
 66
     1
 40
0.000000
 41
0.000000
  0
VERTEX
  8
0
  6
CONTINUOUS
 10
5.953640
 20
1.890240
  0
VERTEX
  8
0
  6
CONTINUOUS
 10
5.958040
 20
2.651880
  0
VERTEX
  8
0
  6
CONTINUOUS
 10
5.962880
 20
2.684880
  0
VERTEX
  8
0
  6
CONTINUOUS
 10
5.958920
 20
1.923240
  0
VERTEX
  8
0
  6
CONTINUOUS
 10
5.953640
 20
1.890240
  0
SEQEND
  8
0
  0
SOLID
  8
0
 62
    15
 10
5.958920
 20
1.923240
 11
5.962880
 21
2.684880
 12
6.108960
 22
1.923240
 13
6.112920
 23
2.684880
  0
POLYLINE
  8
0
  6
CONTINUOUS
 66
     1
 40
0.000000
 41
0.000000
  0
VERTEX
  8
0
  6
CONTINUOUS
 10
5.958920
 20
1.923240
  0
VERTEX
  8
0
  6
CONTINUOUS
 10
5.962880
 20
2.684880
  0
VERTEX
  8
0
  6
CONTINUOUS
 10
6.112920
 20
2.684880
  0
VERTEX
  8
0
  6
CONTINUOUS
 10
6.108960
 20
1.923240
  0
VERTEX
  8
0
  6
CONTINUOUS
 10
5.958920
 20
1.923240
  0
SEQEND
  8
0
  0
SOLID
  8
0
 62
    15
 10
6.108960
 20
1.923240
 11
6.112920
 21
2.684880
 12
6.113800
 22
1.954920
 13
6.118200
 23
2.716560
  0
POLYLINE
  8
0
  6
CONTINUOUS
 66
     1
 40
0.000000
 41
0.000000
  0
VERTEX
  8
0
  6
CONTINUOUS
 10
6.108960
 20
1.923240
  0
VERTEX
  8
0
  6
CONTINUOUS
 10
6.112920
 20
2.684880
  0
VERTEX
  8
0
  6
CONTINUOUS
 10
6.118200
 20
2.716560
  0
VERTEX
  8
0
  6
CONTINUOUS
 10
6.113800
 20
1.954920
  0
VERTEX
  8
0
  6
CONTINUOUS
 10
6.108960
 20
1.923240
  0
SEQEND
  8
0
  0
SOLID
  8
0
 62
    15
 10
6.113800
 20
1.954920
 11
6.118200
 21
2.716560
 12
6.123920
 22
1.982200
 13
6.127880
 23
2.743840
  0
POLYLINE
  8
0
  6
CONTINUOUS
 66
     1
 40
0.000000
 41
0.000000
  0
VERTEX
  8
0
  6
CONTINUOUS
 10
6.113800
 20
1.954920
  0
VERTEX
  8
0
  6
CONTINUOUS
 10
6.118200
 20
2.716560
  0
VERTEX
  8
0
  6
CONTINUOUS
 10
6.127880
 20
2.743840
  0
VERTEX
  8
0
  6
CONTINUOUS
 10
6.123920
 20
1.982200
  0
VERTEX
  8
0
  6
CONTINUOUS
 10
6.113800
 20
1.954920
  0
SEQEND
  8
0
  0
SOLID
  8
0
 62
    15
 10
6.123920
 20
1.982200
 11
6.127880
 21
2.743840
 12
6.138000
 22
2.005960
 13
6.142400
 23
2.767600
  0
POLYLINE
  8
0
  6
CONTINUOUS
 66
     1
 40
0.000000
 41
0.000000
  0
VERTEX
  8
0
  6
CONTINUOUS
 10
6.123920
 20
1.982200
  0
VERTEX
  8
0
  6
CONTINUOUS
 10
6.127880
 20
2.743840
  0
VERTEX
  8
0
  6
CONTINUOUS
 10
6.142400
 20
2.767600
  0
VERTEX
  8
0
  6
CONTINUOUS
 10
6.138000
 20
2.005960
  0
VERTEX
  8
0
  6
CONTINUOUS
 10
6.123920
 20
1.982200
  0
SEQEND
  8
0
  0
SOLID
  8
0
 62
    15
 10
6.138000
 20
2.005960
 11
6.142400
 21
2.767600
 12
6.156040
 22
2.025760
 13
6.160000
 23
2.787400
  0
POLYLINE
  8
0
  6
CONTINUOUS
 66
     1
 40
0.000000
 41
0.000000
  0
VERTEX
  8
0
  6
CONTINUOUS
 10
6.138000
 20
2.005960
  0
VERTEX
  8
0
  6
CONTINUOUS
 10
6.142400
 20
2.767600
  0
VERTEX
  8
0
  6
CONTINUOUS
 10
6.160000
 20
2.787400
  0
VERTEX
  8
0
  6
CONTINUOUS
 10
6.156040
 20
2.025760
  0
VERTEX
  8
0
  6
CONTINUOUS
 10
6.138000
 20
2.005960
  0
SEQEND
  8
0
  0
SOLID
  8
0
 62
    15
 10
6.156040
 20
2.025760
 11
6.160000
 21
2.787400
 12
6.176720
 22
2.041600
 13
6.180680
 23
2.803240
  0
POLYLINE
  8
0
  6
CONTINUOUS
 66
     1
 40
0.000000
 41
0.000000
  0
VERTEX
  8
0
  6
CONTINUOUS
 10
6.156040
 20
2.025760
  0
VERTEX
  8
0
  6
CONTINUOUS
 10
6.160000
 20
2.787400
  0
VERTEX
  8
0
  6
CONTINUOUS
 10
6.180680
 20
2.803240
  0
VERTEX
  8
0
  6
CONTINUOUS
 10
6.176720
 20
2.041600
  0
VERTEX
  8
0
  6
CONTINUOUS
 10
6.156040
 20
2.025760
  0
SEQEND
  8
0
  0
SOLID
  8
0
 62
    15
 10
6.176720
 20
2.041600
 11
6.180680
 21
2.803240
 12
6.199600
 22
2.053480
 13
6.203560
 23
2.815120
  0
POLYLINE
  8
0
  6
CONTINUOUS
 66
     1
 40
0.000000
 41
0.000000
  0
VERTEX
  8
0
  6
CONTINUOUS
 10
6.176720
 20
2.041600
  0
VERTEX
  8
0
  6
CONTINUOUS
 10
6.180680
 20
2.803240
  0
VERTEX
  8
0
  6
CONTINUOUS
 10
6.203560
 20
2.815120
  0
VERTEX
  8
0
  6
CONTINUOUS
 10
6.199600
 20
2.053480
  0
VERTEX
  8
0
  6
CONTINUOUS
 10
6.176720
 20
2.041600
  0
SEQEND
  8
0
  0
SOLID
  8
0
 62
    15
 10
6.199600
 20
2.053480
 11
6.203560
 21
2.815120
 12
6.223800
 22
2.060960
 13
6.228200
 23
2.822600
  0
POLYLINE
  8
0
  6
CONTINUOUS
 66
     1
 40
0.000000
 41
0.000000
  0
VERTEX
  8
0
  6
CONTINUOUS
 10
6.199600
 20
2.053480
  0
VERTEX
  8
0
  6
CONTINUOUS
 10
6.203560
 20
2.815120
  0
VERTEX
  8
0
  6
CONTINUOUS
 10
6.228200
 20
2.822600
  0
VERTEX
  8
0
  6
CONTINUOUS
 10
6.223800
 20
2.060960
  0
VERTEX
  8
0
  6
CONTINUOUS
 10
6.199600
 20
2.053480
  0
SEQEND
  8
0
  0
SOLID
  8
0
 62
    15
 10
6.223800
 20
2.060960
 11
6.228200
 21
2.822600
 12
6.248880
 22
2.064040
 13
6.253280
 23
2.825680
  0
POLYLINE
  8
0
  6
CONTINUOUS
 66
     1
 40
0.000000
 41
0.000000
  0
VERTEX
  8
0
  6
CONTINUOUS
 10
6.223800
 20
2.060960
  0
VERTEX
  8
0
  6
CONTINUOUS
 10
6.228200
 20
2.822600
  0
VERTEX
  8
0
  6
CONTINUOUS
 10
6.253280
 20
2.825680
  0
VERTEX
  8
0
  6
CONTINUOUS
 10
6.248880
 20
2.064040
  0
VERTEX
  8
0
  6
CONTINUOUS
 10
6.223800
 20
2.060960
  0
SEQEND
  8
0
  0
SOLID
  8
0
 62
    15
 10
6.248880
 20
2.064040
 11
6.253280
 21
2.825680
 12
6.273960
 22
2.062720
 13
6.278360
 23
2.824360
  0
POLYLINE
  8
0
  6
CONTINUOUS
 66
     1
 40
0.000000
 41
0.000000
  0
VERTEX
  8
0
  6
CONTINUOUS
 10
6.248880
 20
2.064040
  0
VERTEX
  8
0
  6
CONTINUOUS
 10
6.253280
 20
2.825680
  0
VERTEX
  8
0
  6
CONTINUOUS
 10
6.278360
 20
2.824360
  0
VERTEX
  8
0
  6
CONTINUOUS
 10
6.273960
 20
2.062720
  0
VERTEX
  8
0
  6
CONTINUOUS
 10
6.248880
 20
2.064040
  0
SEQEND
  8
0
  0
SOLID
  8
0
 62
    15
 10
6.273960
 20
2.062720
 11
6.278360
 21
2.824360
 12
6.298600
 22
2.057000
 13
6.302560
 23
2.818640
  0
POLYLINE
  8
0
  6
CONTINUOUS
 66
     1
 40
0.000000
 41
0.000000
  0
VERTEX
  8
0
  6
CONTINUOUS
 10
6.273960
 20
2.062720
  0
VERTEX
  8
0
  6
CONTINUOUS
 10
6.278360
 20
2.824360
  0
VERTEX
  8
0
  6
CONTINUOUS
 10
6.302560
 20
2.818640
  0
VERTEX
  8
0
  6
CONTINUOUS
 10
6.298600
 20
2.057000
  0
VERTEX
  8
0
  6
CONTINUOUS
 10
6.273960
 20
2.062720
  0
SEQEND
  8
0
  0
SOLID
  8
0
 62
    15
 10
6.298600
 20
2.057000
 11
6.302560
 21
2.818640
 12
6.321480
 22
2.046880
 13
6.325880
 23
2.808520
  0
POLYLINE
  8
0
  6
CONTINUOUS
 66
     1
 40
0.000000
 41
0.000000
  0
VERTEX
  8
0
  6
CONTINUOUS
 10
6.298600
 20
2.057000
  0
VERTEX
  8
0
  6
CONTINUOUS
 10
6.302560
 20
2.818640
  0
VERTEX
  8
0
  6
CONTINUOUS
 10
6.325880
 20
2.808520
  0
VERTEX
  8
0
  6
CONTINUOUS
 10
6.321480
 20
2.046880
  0
VERTEX
  8
0
  6
CONTINUOUS
 10
6.298600
 20
2.057000
  0
SEQEND
  8
0
  0
SOLID
  8
0
 62
    15
 10
6.321480
 20
2.046880
 11
6.325880
 21
2.808520
 12
6.342600
 22
2.031920
 13
6.346560
 23
2.793560
  0
POLYLINE
  8
0
  6
CONTINUOUS
 66
     1
 40
0.000000
 41
0.000000
  0
VERTEX
  8
0
  6
CONTINUOUS
 10
6.321480
 20
2.046880
  0
VERTEX
  8
0
  6
CONTINUOUS
 10
6.325880
 20
2.808520
  0
VERTEX
  8
0
  6
CONTINUOUS
 10
6.346560
 20
2.793560
  0
VERTEX
  8
0
  6
CONTINUOUS
 10
6.342600
 20
2.031920
  0
VERTEX
  8
0
  6
CONTINUOUS
 10
6.321480
 20
2.046880
  0
SEQEND
  8
0
  0
SOLID
  8
0
 62
    15
 10
6.342600
 20
2.031920
 11
6.346560
 21
2.793560
 12
6.360640
 22
2.012120
 13
6.365040
 23
2.773760
  0
POLYLINE
  8
0
  6
CONTINUOUS
 66
     1
 40
0.000000
 41
0.000000
  0
VERTEX
  8
0
  6
CONTINUOUS
 10
6.342600
 20
2.031920
  0
VERTEX
  8
0
  6
CONTINUOUS
 10
6.346560
 20
2.793560
  0
VERTEX
  8
0
  6
CONTINUOUS
 10
6.365040
 20
2.773760
  0
VERTEX
  8
0
  6
CONTINUOUS
 10
6.360640
 20
2.012120
  0
VERTEX
  8
0
  6
CONTINUOUS
 10
6.342600
 20
2.031920
  0
SEQEND
  8
0
  0
SOLID
  8
0
 62
    15
 10
6.360640
 20
2.012120
 11
6.365040
 21
2.773760
 12
6.375600
 22
1.987480
 13
6.380000
 23
2.749120
  0
POLYLINE
  8
0
  6
CONTINUOUS
 66
     1
 40
0.000000
 41
0.000000
  0
VERTEX
  8
0
  6
CONTINUOUS
 10
6.360640
 20
2.012120
  0
VERTEX
  8
0
  6
CONTINUOUS
 10
6.365040
 20
2.773760
  0
VERTEX
  8
0
  6
CONTINUOUS
 10
6.380000
 20
2.749120
  0
VERTEX
  8
0
  6
CONTINUOUS
 10
6.375600
 20
1.987480
  0
VERTEX
  8
0
  6
CONTINUOUS
 10
6.360640
 20
2.012120
  0
SEQEND
  8
0
  0
SOLID
  8
0
 62
    15
 10
6.533560
 20
1.923240
 11
6.537960
 21
2.684880
 12
6.533560
 22
1.704560
 13
6.537960
 23
2.466200
  0
POLYLINE
  8
0
  6
CONTINUOUS
 66
     1
 40
0.000000
 41
0.000000
  0
VERTEX
  8
0
  6
CONTINUOUS
 10
6.533560
 20
1.923240
  0
VERTEX
  8
0
  6
CONTINUOUS
 10
6.537960
 20
2.684880
  0
VERTEX
  8
0
  6
CONTINUOUS
 10
6.537960
 20
2.466200
  0
VERTEX
  8
0
  6
CONTINUOUS
 10
6.533560
 20
1.704560
  0
VERTEX
  8
0
  6
CONTINUOUS
 10
6.533560
 20
1.923240
  0
SEQEND
  8
0
  0
SOLID
  8
0
 62
    15
 10
6.391880
 20
1.923240
 11
6.396280
 21
2.684880
 12
6.533560
 22
1.923240
 13
6.537960
 23
2.684880
  0
POLYLINE
  8
0
  6
CONTINUOUS
 66
     1
 40
0.000000
 41
0.000000
  0
VERTEX
  8
0
  6
CONTINUOUS
 10
6.391880
 20
1.923240
  0
VERTEX
  8
0
  6
CONTINUOUS
 10
6.396280
 20
2.684880
  0
VERTEX
  8
0
  6
CONTINUOUS
 10
6.537960
 20
2.684880
  0
VERTEX
  8
0
  6
CONTINUOUS
 10
6.533560
 20
1.923240
  0
VERTEX
  8
0
  6
CONTINUOUS
 10
6.391880
 20
1.923240
  0
SEQEND
  8
0
  0
SOLID
  8
0
 62
    15
 10
6.386160
 20
1.958000
 11
6.390560
 21
2.719640
 12
6.391880
 22
1.923240
 13
6.396280
 23
2.684880
  0
POLYLINE
  8
0
  6
CONTINUOUS
 66
     1
 40
0.000000
 41
0.000000
  0
VERTEX
  8
0
  6
CONTINUOUS
 10
6.386160
 20
1.958000
  0
VERTEX
  8
0
  6
CONTINUOUS
 10
6.390560
 20
2.719640
  0
VERTEX
  8
0
  6
CONTINUOUS
 10
6.396280
 20
2.684880
  0
VERTEX
  8
0
  6
CONTINUOUS
 10
6.391880
 20
1.923240
  0
VERTEX
  8
0
  6
CONTINUOUS
 10
6.386160
 20
1.958000
  0
SEQEND
  8
0
  0
SOLID
  8
0
 62
    15
 10
6.375600
 20
1.987480
 11
6.380000
 21
2.749120
 12
6.386160
 22
1.958000
 13
6.390560
 23
2.719640
  0
POLYLINE
  8
0
  6
CONTINUOUS
 66
     1
 40
0.000000
 41
0.000000
  0
VERTEX
  8
0
  6
CONTINUOUS
 10
6.375600
 20
1.987480
  0
VERTEX
  8
0
  6
CONTINUOUS
 10
6.380000
 20
2.749120
  0
VERTEX
  8
0
  6
CONTINUOUS
 10
6.390560
 20
2.719640
  0
VERTEX
  8
0
  6
CONTINUOUS
 10
6.386160
 20
1.958000
  0
VERTEX
  8
0
  6
CONTINUOUS
 10
6.375600
 20
1.987480
  0
SEQEND
  8
0
  0
SOLID
  8
0
 62
    15
 10
4.210800
 20
1.760880
 11
4.215200
 21
2.522520
 12
5.812840
 22
1.760880
 13
5.817240
 23
2.522520
  0
POLYLINE
  8
0
  6
CONTINUOUS
 66
     1
 40
0.000000
 41
0.000000
  0
VERTEX
  8
0
  6
CONTINUOUS
 10
4.210800
 20
1.760880
  0
VERTEX
  8
0
  6
CONTINUOUS
 10
4.215200
 20
2.522520
  0
VERTEX
  8
0
  6
CONTINUOUS
 10
5.817240
 20
2.522520
  0
VERTEX
  8
0
  6
CONTINUOUS
 10
5.812840
 20
1.760880
  0
VERTEX
  8
0
  6
CONTINUOUS
 10
4.210800
 20
1.760880
  0
SEQEND
  8
0
  0
SOLID
  8
0
 62
    15
 10
6.572280
 20
1.702800
 11
6.576680
 21
2.464440
 12
6.607040
 22
1.699280
 13
6.611440
 23
2.460920
  0
POLYLINE
  8
0
  6
CONTINUOUS
 66
     1
 40
0.000000
 41
0.000000
  0
VERTEX
  8
0
  6
CONTINUOUS
 10
6.572280
 20
1.702800
  0
VERTEX
  8
0
  6
CONTINUOUS
 10
6.576680
 20
2.464440
  0
VERTEX
  8
0
  6
CONTINUOUS
 10
6.611440
 20
2.460920
  0
VERTEX
  8
0
  6
CONTINUOUS
 10
6.607040
 20
1.699280
  0
VERTEX
  8
0
  6
CONTINUOUS
 10
6.572280
 20
1.702800
  0
SEQEND
  8
0
  0
SOLID
  8
0
 62
    15
 10
6.607040
 20
1.699280
 11
6.611440
 21
2.460920
 12
6.665120
 22
1.688280
 13
6.669080
 23
2.449920
  0
POLYLINE
  8
0
  6
CONTINUOUS
 66
     1
 40
0.000000
 41
0.000000
  0
VERTEX
  8
0
  6
CONTINUOUS
 10
6.607040
 20
1.699280
  0
VERTEX
  8
0
  6
CONTINUOUS
 10
6.611440
 20
2.460920
  0
VERTEX
  8
0
  6
CONTINUOUS
 10
6.669080
 20
2.449920
  0
VERTEX
  8
0
  6
CONTINUOUS
 10
6.665120
 20
1.688280
  0
VERTEX
  8
0
  6
CONTINUOUS
 10
6.607040
 20
1.699280
  0
SEQEND
  8
0
  0
SOLID
  8
0
 62
    15
 10
6.665120
 20
1.688280
 11
6.669080
 21
2.449920
 12
6.710000
 22
1.672000
 13
6.713960
 23
2.433640
  0
POLYLINE
  8
0
  6
CONTINUOUS
 66
     1
 40
0.000000
 41
0.000000
  0
VERTEX
  8
0
  6
CONTINUOUS
 10
6.665120
 20
1.688280
  0
VERTEX
  8
0
  6
CONTINUOUS
 10
6.669080
 20
2.449920
  0
VERTEX
  8
0
  6
CONTINUOUS
 10
6.713960
 20
2.433640
  0
VERTEX
  8
0
  6
CONTINUOUS
 10
6.710000
 20
1.672000
  0
VERTEX
  8
0
  6
CONTINUOUS
 10
6.665120
 20
1.688280
  0
SEQEND
  8
0
  0
SOLID
  8
0
 62
    15
 10
6.710000
 20
1.672000
 11
6.713960
 21
2.433640
 12
6.744760
 22
1.650440
 13
6.748720
 23
2.412080
  0
POLYLINE
  8
0
  6
CONTINUOUS
 66
     1
 40
0.000000
 41
0.000000
  0
VERTEX
  8
0
  6
CONTINUOUS
 10
6.710000
 20
1.672000
  0
VERTEX
  8
0
  6
CONTINUOUS
 10
6.713960
 20
2.433640
  0
VERTEX
  8
0
  6
CONTINUOUS
 10
6.748720
 20
2.412080
  0
VERTEX
  8
0
  6
CONTINUOUS
 10
6.744760
 20
1.650440
  0
VERTEX
  8
0
  6
CONTINUOUS
 10
6.710000
 20
1.672000
  0
SEQEND
  8
0
  0
SOLID
  8
0
 62
    15
 10
6.744760
 20
1.650440
 11
6.748720
 21
2.412080
 12
6.771600
 22
1.624480
 13
6.776000
 23
2.386120
  0
POLYLINE
  8
0
  6
CONTINUOUS
 66
     1
 40
0.000000
 41
0.000000
  0
VERTEX
  8
0
  6
CONTINUOUS
 10
6.744760
 20
1.650440
  0
VERTEX
  8
0
  6
CONTINUOUS
 10
6.748720
 20
2.412080
  0
VERTEX
  8
0
  6
CONTINUOUS
 10
6.776000
 20
2.386120
  0
VERTEX
  8
0
  6
CONTINUOUS
 10
6.771600
 20
1.624480
  0
VERTEX
  8
0
  6
CONTINUOUS
 10
6.744760
 20
1.650440
  0
SEQEND
  8
0
  0
SOLID
  8
0
 62
    15
 10
6.771600
 20
1.624480
 11
6.776000
 21
2.386120
 12
6.794040
 22
1.594120
 13
6.798000
 23
2.355760
  0
POLYLINE
  8
0
  6
CONTINUOUS
 66
     1
 40
0.000000
 41
0.000000
  0
VERTEX
  8
0
  6
CONTINUOUS
 10
6.771600
 20
1.624480
  0
VERTEX
  8
0
  6
CONTINUOUS
 10
6.776000
 20
2.386120
  0
VERTEX
  8
0
  6
CONTINUOUS
 10
6.798000
 20
2.355760
  0
VERTEX
  8
0
  6
CONTINUOUS
 10
6.794040
 20
1.594120
  0
VERTEX
  8
0
  6
CONTINUOUS
 10
6.771600
 20
1.624480
  0
SEQEND
  8
0
  0
SOLID
  8
0
 62
    15
 10
6.794040
 20
1.594120
 11
6.798000
 21
2.355760
 12
6.833640
 22
1.521080
 13
6.838040
 23
2.283160
  0
POLYLINE
  8
0
  6
CONTINUOUS
 66
     1
 40
0.000000
 41
0.000000
  0
VERTEX
  8
0
  6
CONTINUOUS
 10
6.794040
 20
1.594120
  0
VERTEX
  8
0
  6
CONTINUOUS
 10
6.798000
 20
2.355760
  0
VERTEX
  8
0
  6
CONTINUOUS
 10
6.838040
 20
2.283160
  0
VERTEX
  8
0
  6
CONTINUOUS
 10
6.833640
 20
1.521080
  0
VERTEX
  8
0
  6
CONTINUOUS
 10
6.794040
 20
1.594120
  0
SEQEND
  8
0
  0
SOLID
  8
0
 62
    15
 10
6.833640
 20
1.521080
 11
6.838040
 21
2.283160
 12
6.856080
 22
1.484560
 13
6.860480
 23
2.246200
  0
POLYLINE
  8
0
  6
CONTINUOUS
 66
     1
 40
0.000000
 41
0.000000
  0
VERTEX
  8
0
  6
CONTINUOUS
 10
6.833640
 20
1.521080
  0
VERTEX
  8
0
  6
CONTINUOUS
 10
6.838040
 20
2.283160
  0
VERTEX
  8
0
  6
CONTINUOUS
 10
6.860480
 20
2.246200
  0
VERTEX
  8
0
  6
CONTINUOUS
 10
6.856080
 20
1.484560
  0
VERTEX
  8
0
  6
CONTINUOUS
 10
6.833640
 20
1.521080
  0
SEQEND
  8
0
  0
SOLID
  8
0
 62
    15
 10
6.856080
 20
1.484560
 11
6.860480
 21
2.246200
 12
6.881600
 22
1.454200
 13
6.886000
 23
2.215840
  0
POLYLINE
  8
0
  6
CONTINUOUS
 66
     1
 40
0.000000
 41
0.000000
  0
VERTEX
  8
0
  6
CONTINUOUS
 10
6.856080
 20
1.484560
  0
VERTEX
  8
0
  6
CONTINUOUS
 10
6.860480
 20
2.246200
  0
VERTEX
  8
0
  6
CONTINUOUS
 10
6.886000
 20
2.215840
  0
VERTEX
  8
0
  6
CONTINUOUS
 10
6.881600
 20
1.454200
  0
VERTEX
  8
0
  6
CONTINUOUS
 10
6.856080
 20
1.484560
  0
SEQEND
  8
0
  0
SOLID
  8
0
 62
    15
 10
6.881600
 20
1.454200
 11
6.886000
 21
2.215840
 12
6.910200
 22
1.430000
 13
6.914160
 23
2.191640
  0
POLYLINE
  8
0
  6
CONTINUOUS
 66
     1
 40
0.000000
 41
0.000000
  0
VERTEX
  8
0
  6
CONTINUOUS
 10
6.881600
 20
1.454200
  0
VERTEX
  8
0
  6
CONTINUOUS
 10
6.886000
 20
2.215840
  0
VERTEX
  8
0
  6
CONTINUOUS
 10
6.914160
 20
2.191640
  0
VERTEX
  8
0
  6
CONTINUOUS
 10
6.910200
 20
1.430000
  0
VERTEX
  8
0
  6
CONTINUOUS
 10
6.881600
 20
1.454200
  0
SEQEND
  8
0
  0
SOLID
  8
0
 62
    15
 10
6.910200
 20
1.430000
 11
6.914160
 21
2.191640
 12
6.941880
 22
1.410640
 13
6.945840
 23
2.172280
  0
POLYLINE
  8
0
  6
CONTINUOUS
 66
     1
 40
0.000000
 41
0.000000
  0
VERTEX
  8
0
  6
CONTINUOUS
 10
6.910200
 20
1.430000
  0
VERTEX
  8
0
  6
CONTINUOUS
 10
6.914160
 20
2.191640
  0
VERTEX
  8
0
  6
CONTINUOUS
 10
6.945840
 20
2.172280
  0
VERTEX
  8
0
  6
CONTINUOUS
 10
6.941880
 20
1.410640
  0
VERTEX
  8
0
  6
CONTINUOUS
 10
6.910200
 20
1.430000
  0
SEQEND
  8
0
  0
SOLID
  8
0
 62
    15
 10
6.941880
 20
1.410640
 11
6.945840
 21
2.172280
 12
6.976640
 22
1.396560
 13
6.981040
 23
2.158200
  0
POLYLINE
  8
0
  6
CONTINUOUS
 66
     1
 40
0.000000
 41
0.000000
  0
VERTEX
  8
0
  6
CONTINUOUS
 10
6.941880
 20
1.410640
  0
VERTEX
  8
0
  6
CONTINUOUS
 10
6.945840
 20
2.172280
  0
VERTEX
  8
0
  6
CONTINUOUS
 10
6.981040
 20
2.158200
  0
VERTEX
  8
0
  6
CONTINUOUS
 10
6.976640
 20
1.396560
  0
VERTEX
  8
0
  6
CONTINUOUS
 10
6.941880
 20
1.410640
  0
SEQEND
  8
0
  0
SOLID
  8
0
 62
    15
 10
6.976640
 20
1.396560
 11
6.981040
 21
2.158200
 12
7.015800
 22
1.386880
 13
7.019760
 23
2.148520
  0
POLYLINE
  8
0
  6
CONTINUOUS
 66
     1
 40
0.000000
 41
0.000000
  0
VERTEX
  8
0
  6
CONTINUOUS
 10
6.976640
 20
1.396560
  0
VERTEX
  8
0
  6
CONTINUOUS
 10
6.981040
 20
2.158200
  0
VERTEX
  8
0
  6
CONTINUOUS
 10
7.019760
 20
2.148520
  0
VERTEX
  8
0
  6
CONTINUOUS
 10
7.015800
 20
1.386880
  0
VERTEX
  8
0
  6
CONTINUOUS
 10
6.976640
 20
1.396560
  0
SEQEND
  8
0
  0
SOLID
  8
0
 62
    15
 10
7.015800
 20
1.386880
 11
7.019760
 21
2.148520
 12
7.058040
 22
1.381160
 13
7.062440
 23
2.143240
  0
POLYLINE
  8
0
  6
CONTINUOUS
 66
     1
 40
0.000000
 41
0.000000
  0
VERTEX
  8
0
  6
CONTINUOUS
 10
7.015800
 20
1.386880
  0
VERTEX
  8
0
  6
CONTINUOUS
 10
7.019760
 20
2.148520
  0
VERTEX
  8
0
  6
CONTINUOUS
 10
7.062440
 20
2.143240
  0
VERTEX
  8
0
  6
CONTINUOUS
 10
7.058040
 20
1.381160
  0
VERTEX
  8
0
  6
CONTINUOUS
 10
7.015800
 20
1.386880
  0
SEQEND
  8
0
  0
SOLID
  8
0
 62
    15
 10
7.058040
 20
1.381160
 11
7.062440
 21
2.143240
 12
7.104680
 22
1.379400
 13
7.108640
 23
2.141040
  0
POLYLINE
  8
0
  6
CONTINUOUS
 66
     1
 40
0.000000
 41
0.000000
  0
VERTEX
  8
0
  6
CONTINUOUS
 10
7.058040
 20
1.381160
  0
VERTEX
  8
0
  6
CONTINUOUS
 10
7.062440
 20
2.143240
  0
VERTEX
  8
0
  6
CONTINUOUS
 10
7.108640
 20
2.141040
  0
VERTEX
  8
0
  6
CONTINUOUS
 10
7.104680
 20
1.379400
  0
VERTEX
  8
0
  6
CONTINUOUS
 10
7.058040
 20
1.381160
  0
SEQEND
  8
0
  0
SOLID
  8
0
 62
    15
 10
7.108640
 20
1.379400
 11
7.113040
 21
2.141040
 12
7.108640
 22
1.133880
 13
7.113040
 23
1.895520
  0
POLYLINE
  8
0
  6
CONTINUOUS
 66
     1
 40
0.000000
 41
0.000000
  0
VERTEX
  8
0
  6
CONTINUOUS
 10
7.108640
 20
1.379400
  0
VERTEX
  8
0
  6
CONTINUOUS
 10
7.113040
 20
2.141040
  0
VERTEX
  8
0
  6
CONTINUOUS
 10
7.113040
 20
1.895520
  0
VERTEX
  8
0
  6
CONTINUOUS
 10
7.108640
 20
1.133880
  0
VERTEX
  8
0
  6
CONTINUOUS
 10
7.108640
 20
1.379400
  0
SEQEND
  8
0
  0
SOLID
  8
0
 62
    15
 10
7.104680
 20
1.379400
 11
7.108640
 21
2.141040
 12
7.108640
 22
1.379400
 13
7.113040
 23
2.141040
  0
POLYLINE
  8
0
  6
CONTINUOUS
 66
     1
 40
0.000000
 41
0.000000
  0
VERTEX
  8
0
  6
CONTINUOUS
 10
7.104680
 20
1.379400
  0
VERTEX
  8
0
  6
CONTINUOUS
 10
7.108640
 20
2.141040
  0
VERTEX
  8
0
  6
CONTINUOUS
 10
7.113040
 20
2.141040
  0
VERTEX
  8
0
  6
CONTINUOUS
 10
7.108640
 20
1.379400
  0
VERTEX
  8
0
  6
CONTINUOUS
 10
7.104680
 20
1.379400
  0
SEQEND
  8
0
  0
SOLID
  8
0
 62
    15
 10
3.123120
 20
1.967240
 11
3.127520
 21
2.728880
 12
4.046240
 22
1.967240
 13
4.050640
 23
2.728880
  0
POLYLINE
  8
0
  6
CONTINUOUS
 66
     1
 40
0.000000
 41
0.000000
  0
VERTEX
  8
0
  6
CONTINUOUS
 10
3.123120
 20
1.967240
  0
VERTEX
  8
0
  6
CONTINUOUS
 10
3.127520
 20
2.728880
  0
VERTEX
  8
0
  6
CONTINUOUS
 10
4.050640
 20
2.728880
  0
VERTEX
  8
0
  6
CONTINUOUS
 10
4.046240
 20
1.967240
  0
VERTEX
  8
0
  6
CONTINUOUS
 10
3.123120
 20
1.967240
  0
SEQEND
  8
0
  0
SOLID
  8
0
 62
    15
 10
4.046240
 20
1.967240
 11
4.050640
 21
2.728880
 12
4.047560
 22
1.925880
 13
4.051960
 23
2.687520
  0
POLYLINE
  8
0
  6
CONTINUOUS
 66
     1
 40
0.000000
 41
0.000000
  0
VERTEX
  8
0
  6
CONTINUOUS
 10
4.046240
 20
1.967240
  0
VERTEX
  8
0
  6
CONTINUOUS
 10
4.050640
 20
2.728880
  0
VERTEX
  8
0
  6
CONTINUOUS
 10
4.051960
 20
2.687520
  0
VERTEX
  8
0
  6
CONTINUOUS
 10
4.047560
 20
1.925880
  0
VERTEX
  8
0
  6
CONTINUOUS
 10
4.046240
 20
1.967240
  0
SEQEND
  8
0
  0
SOLID
  8
0
 62
    15
 10
4.047560
 20
1.925880
 11
4.051960
 21
2.687520
 12
4.053720
 22
1.887600
 13
4.058120
 23
2.649240
  0
POLYLINE
  8
0
  6
CONTINUOUS
 66
     1
 40
0.000000
 41
0.000000
  0
VERTEX
  8
0
  6
CONTINUOUS
 10
4.047560
 20
1.925880
  0
VERTEX
  8
0
  6
CONTINUOUS
 10
4.051960
 20
2.687520
  0
VERTEX
  8
0
  6
CONTINUOUS
 10
4.058120
 20
2.649240
  0
VERTEX
  8
0
  6
CONTINUOUS
 10
4.053720
 20
1.887600
  0
VERTEX
  8
0
  6
CONTINUOUS
 10
4.047560
 20
1.925880
  0
SEQEND
  8
0
  0
SOLID
  8
0
 62
    15
 10
4.053720
 20
1.887600
 11
4.058120
 21
2.649240
 12
4.065160
 22
1.852400
 13
4.069120
 23
2.614040
  0
POLYLINE
  8
0
  6
CONTINUOUS
 66
     1
 40
0.000000
 41
0.000000
  0
VERTEX
  8
0
  6
CONTINUOUS
 10
4.053720
 20
1.887600
  0
VERTEX
  8
0
  6
CONTINUOUS
 10
4.058120
 20
2.649240
  0
VERTEX
  8
0
  6
CONTINUOUS
 10
4.069120
 20
2.614040
  0
VERTEX
  8
0
  6
CONTINUOUS
 10
4.065160
 20
1.852400
  0
VERTEX
  8
0
  6
CONTINUOUS
 10
4.053720
 20
1.887600
  0
SEQEND
  8
0
  0
SOLID
  8
0
 62
    15
 10
4.065160
 20
1.852400
 11
4.069120
 21
2.614040
 12
4.081440
 22
1.822040
 13
4.085840
 23
2.583680
  0
POLYLINE
  8
0
  6
CONTINUOUS
 66
     1
 40
0.000000
 41
0.000000
  0
VERTEX
  8
0
  6
CONTINUOUS
 10
4.065160
 20
1.852400
  0
VERTEX
  8
0
  6
CONTINUOUS
 10
4.069120
 20
2.614040
  0
VERTEX
  8
0
  6
CONTINUOUS
 10
4.085840
 20
2.583680
  0
VERTEX
  8
0
  6
CONTINUOUS
 10
4.081440
 20
1.822040
  0
VERTEX
  8
0
  6
CONTINUOUS
 10
4.065160
 20
1.852400
  0
SEQEND
  8
0
  0
SOLID
  8
0
 62
    15
 10
4.081440
 20
1.822040
 11
4.085840
 21
2.583680
 12
4.104320
 22
1.796520
 13
4.108280
 23
2.558160
  0
POLYLINE
  8
0
  6
CONTINUOUS
 66
     1
 40
0.000000
 41
0.000000
  0
VERTEX
  8
0
  6
CONTINUOUS
 10
4.081440
 20
1.822040
  0
VERTEX
  8
0
  6
CONTINUOUS
 10
4.085840
 20
2.583680
  0
VERTEX
  8
0
  6
CONTINUOUS
 10
4.108280
 20
2.558160
  0
VERTEX
  8
0
  6
CONTINUOUS
 10
4.104320
 20
1.796520
  0
VERTEX
  8
0
  6
CONTINUOUS
 10
4.081440
 20
1.822040
  0
SEQEND
  8
0
  0
SOLID
  8
0
 62
    15
 10
4.104320
 20
1.796520
 11
4.108280
 21
2.558160
 12
4.132920
 22
1.777160
 13
4.137320
 23
2.538800
  0
POLYLINE
  8
0
  6
CONTINUOUS
 66
     1
 40
0.000000
 41
0.000000
  0
VERTEX
  8
0
  6
CONTINUOUS
 10
4.104320
 20
1.796520
  0
VERTEX
  8
0
  6
CONTINUOUS
 10
4.108280
 20
2.558160
  0
VERTEX
  8
0
  6
CONTINUOUS
 10
4.137320
 20
2.538800
  0
VERTEX
  8
0
  6
CONTINUOUS
 10
4.132920
 20
1.777160
  0
VERTEX
  8
0
  6
CONTINUOUS
 10
4.104320
 20
1.796520
  0
SEQEND
  8
0
  0
SOLID
  8
0
 62
    15
 10
4.132920
 20
1.777160
 11
4.137320
 21
2.538800
 12
4.168560
 22
1.765280
 13
4.172520
 23
2.526920
  0
POLYLINE
  8
0
  6
CONTINUOUS
 66
     1
 40
0.000000
 41
0.000000
  0
VERTEX
  8
0
  6
CONTINUOUS
 10
4.132920
 20
1.777160
  0
VERTEX
  8
0
  6
CONTINUOUS
 10
4.137320
 20
2.538800
  0
VERTEX
  8
0
  6
CONTINUOUS
 10
4.172520
 20
2.526920
  0
VERTEX
  8
0
  6
CONTINUOUS
 10
4.168560
 20
1.765280
  0
VERTEX
  8
0
  6
CONTINUOUS
 10
4.132920
 20
1.777160
  0
SEQEND
  8
0
  0
SOLID
  8
0
 62
    15
 10
4.168560
 20
1.765280
 11
4.172520
 21
2.526920
 12
4.210800
 22
1.760880
 13
4.215200
 23
2.522520
  0
POLYLINE
  8
0
  6
CONTINUOUS
 66
     1
 40
0.000000
 41
0.000000
  0
VERTEX
  8
0
  6
CONTINUOUS
 10
4.168560
 20
1.765280
  0
VERTEX
  8
0
  6
CONTINUOUS
 10
4.172520
 20
2.526920
  0
VERTEX
  8
0
  6
CONTINUOUS
 10
4.215200
 20
2.522520
  0
VERTEX
  8
0
  6
CONTINUOUS
 10
4.210800
 20
1.760880
  0
VERTEX
  8
0
  6
CONTINUOUS
 10
4.168560
 20
1.765280
  0
SEQEND
  8
0
  0
SOLID
  8
0
 62
    15
 10
5.798320
 20
1.760880
 11
5.802720
 21
2.522520
 12
5.834840
 22
1.763960
 13
5.838800
 23
2.525600
  0
POLYLINE
  8
0
  6
CONTINUOUS
 66
     1
 40
0.000000
 41
0.000000
  0
VERTEX
  8
0
  6
CONTINUOUS
 10
5.798320
 20
1.760880
  0
VERTEX
  8
0
  6
CONTINUOUS
 10
5.802720
 20
2.522520
  0
VERTEX
  8
0
  6
CONTINUOUS
 10
5.838800
 20
2.525600
  0
VERTEX
  8
0
  6
CONTINUOUS
 10
5.834840
 20
1.763960
  0
VERTEX
  8
0
  6
CONTINUOUS
 10
5.798320
 20
1.760880
  0
SEQEND
  8
0
  0
POLYLINE
  8
0
  6
CONTINUOUS
 66
     1
 40
0.000000
 41
0.000000
  0
VERTEX
  8
0
  6
CONTINUOUS
 10
5.798320
 20
1.760880
  0
VERTEX
  8
0
  6
CONTINUOUS
 10
5.834840
 20
1.763960
  0
VERTEX
  8
0
  6
CONTINUOUS
 10
5.866080
 20
1.773200
  0
VERTEX
  8
0
  6
CONTINUOUS
 10
5.892480
 20
1.788160
  0
VERTEX
  8
0
  6
CONTINUOUS
 10
5.914480
 20
1.807960
  0
VERTEX
  8
0
  6
CONTINUOUS
 10
5.931640
 20
1.831720
  0
VERTEX
  8
0
  6
CONTINUOUS
 10
5.944840
 20
1.859440
  0
VERTEX
  8
0
  6
CONTINUOUS
 10
5.953640
 20
1.890240
  0
VERTEX
  8
0
  6
CONTINUOUS
 10
5.958920
 20
1.923240
  0
VERTEX
  8
0
  6
CONTINUOUS
 10
6.108960
 20
1.923240
  0
VERTEX
  8
0
  6
CONTINUOUS
 10
6.113800
 20
1.954920
  0
VERTEX
  8
0
  6
CONTINUOUS
 10
6.123920
 20
1.982200
  0
VERTEX
  8
0
  6
CONTINUOUS
 10
6.138000
 20
2.005960
  0
VERTEX
  8
0
  6
CONTINUOUS
 10
6.156040
 20
2.025760
  0
VERTEX
  8
0
  6
CONTINUOUS
 10
6.176720
 20
2.041600
  0
VERTEX
  8
0
  6
CONTINUOUS
 10
6.199600
 20
2.053480
  0
VERTEX
  8
0
  6
CONTINUOUS
 10
6.223800
 20
2.060960
  0
VERTEX
  8
0
  6
CONTINUOUS
 10
6.248880
 20
2.064040
  0
VERTEX
  8
0
  6
CONTINUOUS
 10
6.273960
 20
2.062720
  0
VERTEX
  8
0
  6
CONTINUOUS
 10
6.298600
 20
2.057000
  0
VERTEX
  8
0
  6
CONTINUOUS
 10
6.321480
 20
2.046880
  0
VERTEX
  8
0
  6
CONTINUOUS
 10
6.342600
 20
2.031920
  0
VERTEX
  8
0
  6
CONTINUOUS
 10
6.360640
 20
2.012120
  0
VERTEX
  8
0
  6
CONTINUOUS
 10
6.375600
 20
1.987480
  0
VERTEX
  8
0
  6
CONTINUOUS
 10
6.386160
 20
1.958000
  0
VERTEX
  8
0
  6
CONTINUOUS
 10
6.391880
 20
1.923240
  0
VERTEX
  8
0
  6
CONTINUOUS
 10
6.533560
 20
1.923240
  0
VERTEX
  8
0
  6
CONTINUOUS
 10
6.533560
 20
1.704560
  0
VERTEX
  8
0
  6
CONTINUOUS
 10
6.572280
 20
1.702800
  0
VERTEX
  8
0
  6
CONTINUOUS
 10
6.607040
 20
1.699280
  0
VERTEX
  8
0
  6
CONTINUOUS
 10
6.665120
 20
1.688280
  0
VERTEX
  8
0
  6
CONTINUOUS
 10
6.710000
 20
1.672000
  0
VERTEX
  8
0
  6
CONTINUOUS
 10
6.744760
 20
1.650440
  0
VERTEX
  8
0
  6
CONTINUOUS
 10
6.771600
 20
1.624480
  0
VERTEX
  8
0
  6
CONTINUOUS
 10
6.794040
 20
1.594120
  0
VERTEX
  8
0
  6
CONTINUOUS
 10
6.833640
 20
1.521080
  0
VERTEX
  8
0
  6
CONTINUOUS
 10
6.856080
 20
1.484560
  0
VERTEX
  8
0
  6
CONTINUOUS
 10
6.881600
 20
1.454200
  0
VERTEX
  8
0
  6
CONTINUOUS
 10
6.910200
 20
1.430000
  0
VERTEX
  8
0
  6
CONTINUOUS
 10
6.941880
 20
1.410640
  0
VERTEX
  8
0
  6
CONTINUOUS
 10
6.976640
 20
1.396560
  0
VERTEX
  8
0
  6
CONTINUOUS
 10
7.015800
 20
1.386880
  0
VERTEX
  8
0
  6
CONTINUOUS
 10
7.058040
 20
1.381160
  0
VERTEX
  8
0
  6
CONTINUOUS
 10
7.108640
 20
1.379400
  0
VERTEX
  8
0
  6
CONTINUOUS
 10
7.108640
 20
1.133880
  0
VERTEX
  8
0
  6
CONTINUOUS
 10
7.106440
 20
1.131680
  0
VERTEX
  8
0
  6
CONTINUOUS
 10
3.125320
 20
1.131680
  0
VERTEX
  8
0
  6
CONTINUOUS
 10
3.125320
 20
1.969000
  0
VERTEX
  8
0
  6
CONTINUOUS
 10
3.123120
 20
1.967240
  0
VERTEX
  8
0
  6
CONTINUOUS
 10
4.046240
 20
1.967240
  0
VERTEX
  8
0
  6
CONTINUOUS
 10
4.047560
 20
1.925880
  0
VERTEX
  8
0
  6
CONTINUOUS
 10
4.053720
 20
1.887600
  0
VERTEX
  8
0
  6
CONTINUOUS
 10
4.065160
 20
1.852400
  0
VERTEX
  8
0
  6
CONTINUOUS
 10
4.081440
 20
1.822040
  0
VERTEX
  8
0
  6
CONTINUOUS
 10
4.104320
 20
1.796520
  0
VERTEX
  8
0
  6
CONTINUOUS
 10
4.132920
 20
1.777160
  0
VERTEX
  8
0
  6
CONTINUOUS
 10
4.168560
 20
1.765280
  0
VERTEX
  8
0
  6
CONTINUOUS
 10
4.210800
 20
1.760880
  0
VERTEX
  8
0
  6
CONTINUOUS
 10
5.812840
 20
1.760880
  0
VERTEX
  8
0
  6
CONTINUOUS
 10
5.798320
 20
1.760880
  0
SEQEND
  8
0
  0
TEXT
  8
0
 10
4.822840
 20
0.896720
 40
0.138179
  1
BA  487
 41
1.000000
  7
SN0
 71
     0
 72
     5
 11
5.412786
 21
0.896720
  0
TEXT
  8
0
 10
4.717680
 20
0.705320
 40
0.138179
  1
13/16" x 4"
 41
1.000000
  7
SN0
 71
     0
 72
     5
 11
5.516736
 21
0.705320
  0
ENDSEC
  0
EOF
