  0
SECTION
  2
HEADER
  9
$ACADVER
  1
AC1006
  9
$EXTMIN
 10
3.923480
 20
0.408760
  9
$EXTMAX
 10
6.690200
 20
3.277120
  9
$LTSCALE
 40
0.044000
  9
$PDMODE
 70
    35
  9
$PDSIZE
 40
0.035200
  0
ENDSEC
  0
SECTION
  2
TABLES
  0
TABLE
  2
LTYPE
 70
     9
  0
LTYPE
  2
CONTINUOUS
 70
    64
  3
Solid line
 72
    65
 73
     0
 40
0.000000
  0
LTYPE
  2
DASHED
 70
    64
  3
__ __ __ __ __ __ __ __ __ __ __ __ __ __ __
 72
    65
 73
     2
 40
0.000330
 49
0.000220
 49
-0.000110
  0
LTYPE
  2
HIDDEN
 70
    64
  3
 _ _ _ _ _ _ _ _ _ _ _ _ _ _ _ _ _ _ _ _ _ _
 72
    65
 73
     2
 40
0.000165
 49
0.000110
 49
-0.000055
  0
LTYPE
  2
CENTER
 70
    64
  3
____ _ ____ _ ____ _ ____ _ ____ _ ____ _ ____
 72
    65
 73
     4
 40
0.000880
 49
0.000550
 49
-0.000110
 49
0.000110
 49
-0.000110
  0
LTYPE
  2
PHANTOM
 70
    64
  3
_____ _ _ _____ _ _ _____ _ _ _____ _ _ ____
 72
    65
 73
     6
 40
0.001100
 49
0.000550
 49
-0.000110
 49
0.000110
 49
-0.000110
 49
0.000110
 49
-0.000110
  0
LTYPE
  2
DOT
 70
    64
  3
...............................................
 72
    65
 73
     2
 40
0.000110
 49
0.000000
 49
-0.000110
  0
LTYPE
  2
DASHDOT
 70
    64
  3
__ . __ . __ . __ . __ . __ . __ . __ . __ . __
 72
    65
 73
     4
 40
0.000440
 49
0.000220
 49
-0.000110
 49
0.000000
 49
-0.000110
  0
LTYPE
  2
BORDER
 70
    64
  3
__ __ . __ __ . __ __ . __ __ . __ __ . __ __
 72
    65
 73
     6
 40
0.000770
 49
0.000220
 49
-0.000110
 49
0.000220
 49
-0.000110
 49
0.000000
 49
-0.000110
  0
LTYPE
  2
DIVIDE
 70
    64
  3
__ . . __ . . __ . . __ . . __ . . __ . . __
 72
    65
 73
     6
 40
0.000550
 49
0.000220
 49
-0.000110
 49
0.000000
 49
-0.000110
 49
0.000000
 49
-0.000110
  0
LTYPE
  2
DOTDOT
 70
    64
  3
 . .  . .  . .  . .  . .  . . 
 72
    65
 73
     5
 40
0.000242
 49
-0.000110
 49
0.000000
 49
-0.000110
 49
0.000000
 49
-0.000110
  0
ENDTAB
  0
TABLE
  2
STYLE
 70
     2
  0
STYLE
 70
     0
  2
SN0
 40
0.000000
 41
0.000440
 50
0.000000
 71
     0
 42
0.000000
  3
ROMAND
  0
STYLE
 70
    68
  2
SV0
 40
0.000000
 41
0.000440
 50
0.000000
 71
     0
 42
0.000000
  3
ROMAND
  0
ENDTAB
  0
TABLE
  2
LAYER
 70
     3
  0
LAYER
  2
FOREGROUND
 70
    64
 62
     7
  6
CONTINUOUS
  0
LAYER
  2
BACKGROUND
 70
    65
 62
    -7
  6
CONTINUOUS
  0
LAYER
  2
0
 70
    64
 62
     7
  6
CONTINUOUS
  0
ENDTAB
  0
ENDSEC
  0
SECTION
  2
ENTITIES
  0
POLYLINE
  8
FOREGROUND
  6
CONTINUOUS
 66
     1
 40
0.000000
 41
0.000000
  0
VERTEX
  8
FOREGROUND
  6
CONTINUOUS
 10
0.000000
 20
3.685880
  0
VERTEX
  8
FOREGROUND
  6
CONTINUOUS
 10
8.499920
 20
3.685880
  0
VERTEX
  8
FOREGROUND
  6
CONTINUOUS
 10
8.499920
 20
-7.314120
  0
VERTEX
  8
FOREGROUND
  6
CONTINUOUS
 10
0.000000
 20
-7.314120
  0
VERTEX
  8
FOREGROUND
  6
CONTINUOUS
 10
0.000000
 20
3.685880
  0
SEQEND
  8
0
  0
POLYLINE
  8
FOREGROUND
  6
CONTINUOUS
 66
     1
 40
0.000000
 41
0.000000
  0
VERTEX
  8
FOREGROUND
  6
CONTINUOUS
 10
0.000000
 20
3.685880
  0
VERTEX
  8
FOREGROUND
  6
CONTINUOUS
 10
8.499920
 20
3.685880
  0
VERTEX
  8
FOREGROUND
  6
CONTINUOUS
 10
8.499920
 20
-7.314120
  0
VERTEX
  8
FOREGROUND
  6
CONTINUOUS
 10
0.000000
 20
-7.314120
  0
VERTEX
  8
FOREGROUND
  6
CONTINUOUS
 10
0.000000
 20
3.685880
  0
SEQEND
  8
0
  0
POLYLINE
  8
0
  6
CONTINUOUS
 66
     1
 40
0.014080
 41
0.014080
  0
VERTEX
  8
0
  6
CONTINUOUS
 10
5.959800
 20
3.032040
  0
VERTEX
  8
0
  6
CONTINUOUS
 10
5.991040
 20
3.029400
  0
VERTEX
  8
0
  6
CONTINUOUS
 10
6.020520
 20
3.021920
  0
VERTEX
  8
0
  6
CONTINUOUS
 10
6.047800
 20
3.010040
  0
VERTEX
  8
0
  6
CONTINUOUS
 10
6.072000
 20
2.994200
  0
VERTEX
  8
0
  6
CONTINUOUS
 10
6.093560
 20
2.975720
  0
VERTEX
  8
0
  6
CONTINUOUS
 10
6.111600
 20
2.954600
  0
VERTEX
  8
0
  6
CONTINUOUS
 10
6.125680
 20
2.931280
  0
VERTEX
  8
0
  6
CONTINUOUS
 10
6.135800
 20
2.907080
  0
VERTEX
  8
0
  6
CONTINUOUS
 10
6.139320
 20
2.894320
  0
VERTEX
  8
0
  6
CONTINUOUS
 10
6.142400
 20
2.869240
  0
VERTEX
  8
0
  6
CONTINUOUS
 10
6.140200
 20
2.844160
  0
VERTEX
  8
0
  6
CONTINUOUS
 10
6.132720
 20
2.819520
  0
VERTEX
  8
0
  6
CONTINUOUS
 10
6.127000
 20
2.807640
  0
VERTEX
  8
0
  6
CONTINUOUS
 10
6.110720
 20
2.785640
  0
VERTEX
  8
0
  6
CONTINUOUS
 10
6.088280
 20
2.765840
  0
VERTEX
  8
0
  6
CONTINUOUS
 10
6.074200
 20
2.756600
  0
VERTEX
  8
0
  6
CONTINUOUS
 10
6.041640
 20
2.741200
  0
VERTEX
  8
0
  6
CONTINUOUS
 10
6.022280
 20
2.735040
  0
VERTEX
  8
0
  6
CONTINUOUS
 10
6.023160
 20
2.660680
  0
VERTEX
  8
0
  6
CONTINUOUS
 10
6.028000
 20
2.587640
  0
VERTEX
  8
0
  6
CONTINUOUS
 10
6.036360
 20
2.534840
  0
VERTEX
  8
0
  6
CONTINUOUS
 10
6.050000
 20
2.483800
  0
VERTEX
  8
0
  6
CONTINUOUS
 10
6.070680
 20
2.434960
  0
VERTEX
  8
0
  6
CONTINUOUS
 10
6.089160
 20
2.403720
  0
VERTEX
  8
0
  6
CONTINUOUS
 10
6.111160
 20
2.373800
  0
VERTEX
  8
0
  6
CONTINUOUS
 10
6.138000
 20
2.345200
  0
VERTEX
  8
0
  6
CONTINUOUS
 10
6.169240
 20
2.318360
  0
VERTEX
  8
0
  6
CONTINUOUS
 10
6.206200
 20
2.293280
  0
VERTEX
  8
0
  6
CONTINUOUS
 10
6.248440
 20
2.269520
  0
VERTEX
  8
0
  6
CONTINUOUS
 10
6.296840
 20
2.247960
  0
VERTEX
  8
0
  6
CONTINUOUS
 10
6.323680
 20
2.237840
  0
VERTEX
  8
0
  6
CONTINUOUS
 10
6.323680
 20
2.082960
  0
VERTEX
  8
0
  6
CONTINUOUS
 10
6.401120
 20
2.015640
  0
VERTEX
  8
0
  6
CONTINUOUS
 10
6.451280
 20
1.966360
  0
VERTEX
  8
0
  6
CONTINUOUS
 10
6.498800
 20
1.914000
  0
VERTEX
  8
0
  6
CONTINUOUS
 10
6.542800
 20
1.859000
  0
VERTEX
  8
0
  6
CONTINUOUS
 10
6.582840
 20
1.802240
  0
VERTEX
  8
0
  6
CONTINUOUS
 10
6.617160
 20
1.744160
  0
VERTEX
  8
0
  6
CONTINUOUS
 10
6.632120
 20
1.715120
  0
VERTEX
  8
0
  6
CONTINUOUS
 10
6.656760
 20
1.656160
  0
VERTEX
  8
0
  6
CONTINUOUS
 10
6.666440
 20
1.626680
  0
VERTEX
  8
0
  6
CONTINUOUS
 10
6.673920
 20
1.597640
  0
VERTEX
  8
0
  6
CONTINUOUS
 10
6.679200
 20
1.568600
  0
VERTEX
  8
0
  6
CONTINUOUS
 10
6.682280
 20
1.540000
  0
VERTEX
  8
0
  6
CONTINUOUS
 10
6.682280
 20
1.497760
  0
VERTEX
  8
0
  6
CONTINUOUS
 10
6.679200
 20
1.470040
  0
VERTEX
  8
0
  6
CONTINUOUS
 10
6.669080
 20
1.429560
  0
VERTEX
  8
0
  6
CONTINUOUS
 10
6.658960
 20
1.403160
  0
VERTEX
  8
0
  6
CONTINUOUS
 10
6.638280
 20
1.365320
  0
VERTEX
  8
0
  6
CONTINUOUS
 10
6.610120
 20
1.329240
  0
VERTEX
  8
0
  6
CONTINUOUS
 10
6.574480
 20
1.295360
  0
VERTEX
  8
0
  6
CONTINUOUS
 10
6.530920
 20
1.264120
  0
VERTEX
  8
0
  6
CONTINUOUS
 10
6.497480
 20
1.244320
  0
VERTEX
  8
0
  6
CONTINUOUS
 10
6.497480
 20
1.203840
  0
VERTEX
  8
0
  6
CONTINUOUS
 10
5.796120
 20
1.203840
  0
VERTEX
  8
0
  6
CONTINUOUS
 10
5.796120
 20
3.241480
  0
VERTEX
  8
0
  6
CONTINUOUS
 10
5.958920
 20
3.241480
  0
VERTEX
  8
0
  6
CONTINUOUS
 10
5.958920
 20
3.032040
  0
VERTEX
  8
0
  6
CONTINUOUS
 10
5.959800
 20
3.032040
  0
SEQEND
  8
0
  0
SOLID
  8
0
 62
    15
 10
4.385480
 20
2.012120
 11
5.000160
 21
2.366760
 12
4.419800
 22
1.986160
 13
5.034040
 23
2.340800
  0
POLYLINE
  8
0
  6
CONTINUOUS
 66
     1
 40
0.000000
 41
0.000000
  0
VERTEX
  8
0
  6
CONTINUOUS
 10
4.385480
 20
2.012120
  0
VERTEX
  8
0
  6
CONTINUOUS
 10
5.000160
 20
2.366760
  0
VERTEX
  8
0
  6
CONTINUOUS
 10
5.034040
 20
2.340800
  0
VERTEX
  8
0
  6
CONTINUOUS
 10
4.419800
 20
1.986160
  0
VERTEX
  8
0
  6
CONTINUOUS
 10
4.385480
 20
2.012120
  0
SEQEND
  8
0
  0
SOLID
  8
0
 62
    15
 10
4.224000
 20
2.709960
 11
4.838680
 21
3.064160
 12
4.253480
 22
2.702480
 13
4.867720
 23
3.056680
  0
POLYLINE
  8
0
  6
CONTINUOUS
 66
     1
 40
0.000000
 41
0.000000
  0
VERTEX
  8
0
  6
CONTINUOUS
 10
4.224000
 20
2.709960
  0
VERTEX
  8
0
  6
CONTINUOUS
 10
4.838680
 20
3.064160
  0
VERTEX
  8
0
  6
CONTINUOUS
 10
4.867720
 20
3.056680
  0
VERTEX
  8
0
  6
CONTINUOUS
 10
4.253480
 20
2.702480
  0
VERTEX
  8
0
  6
CONTINUOUS
 10
4.224000
 20
2.709960
  0
SEQEND
  8
0
  0
SOLID
  8
0
 62
    15
 10
4.253480
 20
2.702480
 11
4.867720
 21
3.056680
 12
4.280320
 22
2.690600
 13
4.895000
 23
3.044800
  0
POLYLINE
  8
0
  6
CONTINUOUS
 66
     1
 40
0.000000
 41
0.000000
  0
VERTEX
  8
0
  6
CONTINUOUS
 10
4.253480
 20
2.702480
  0
VERTEX
  8
0
  6
CONTINUOUS
 10
4.867720
 20
3.056680
  0
VERTEX
  8
0
  6
CONTINUOUS
 10
4.895000
 20
3.044800
  0
VERTEX
  8
0
  6
CONTINUOUS
 10
4.280320
 20
2.690600
  0
VERTEX
  8
0
  6
CONTINUOUS
 10
4.253480
 20
2.702480
  0
SEQEND
  8
0
  0
SOLID
  8
0
 62
    15
 10
4.280320
 20
2.690600
 11
4.895000
 21
3.044800
 12
4.304960
 22
2.674760
 13
4.919640
 23
3.029400
  0
POLYLINE
  8
0
  6
CONTINUOUS
 66
     1
 40
0.000000
 41
0.000000
  0
VERTEX
  8
0
  6
CONTINUOUS
 10
4.280320
 20
2.690600
  0
VERTEX
  8
0
  6
CONTINUOUS
 10
4.895000
 20
3.044800
  0
VERTEX
  8
0
  6
CONTINUOUS
 10
4.919640
 20
3.029400
  0
VERTEX
  8
0
  6
CONTINUOUS
 10
4.304960
 20
2.674760
  0
VERTEX
  8
0
  6
CONTINUOUS
 10
4.280320
 20
2.690600
  0
SEQEND
  8
0
  0
SOLID
  8
0
 62
    15
 10
4.304960
 20
2.674760
 11
4.919640
 21
3.029400
 12
4.326080
 22
2.656280
 13
4.940760
 23
3.010920
  0
POLYLINE
  8
0
  6
CONTINUOUS
 66
     1
 40
0.000000
 41
0.000000
  0
VERTEX
  8
0
  6
CONTINUOUS
 10
4.304960
 20
2.674760
  0
VERTEX
  8
0
  6
CONTINUOUS
 10
4.919640
 20
3.029400
  0
VERTEX
  8
0
  6
CONTINUOUS
 10
4.940760
 20
3.010920
  0
VERTEX
  8
0
  6
CONTINUOUS
 10
4.326080
 20
2.656280
  0
VERTEX
  8
0
  6
CONTINUOUS
 10
4.304960
 20
2.674760
  0
SEQEND
  8
0
  0
SOLID
  8
0
 62
    15
 10
4.326080
 20
2.656280
 11
4.940760
 21
3.010920
 12
4.344120
 22
2.635160
 13
4.958800
 23
2.989360
  0
POLYLINE
  8
0
  6
CONTINUOUS
 66
     1
 40
0.000000
 41
0.000000
  0
VERTEX
  8
0
  6
CONTINUOUS
 10
4.326080
 20
2.656280
  0
VERTEX
  8
0
  6
CONTINUOUS
 10
4.940760
 20
3.010920
  0
VERTEX
  8
0
  6
CONTINUOUS
 10
4.958800
 20
2.989360
  0
VERTEX
  8
0
  6
CONTINUOUS
 10
4.344120
 20
2.635160
  0
VERTEX
  8
0
  6
CONTINUOUS
 10
4.326080
 20
2.656280
  0
SEQEND
  8
0
  0
SOLID
  8
0
 62
    15
 10
4.344120
 20
2.635160
 11
4.958800
 21
2.989360
 12
4.358640
 22
2.611840
 13
4.973320
 23
2.966480
  0
POLYLINE
  8
0
  6
CONTINUOUS
 66
     1
 40
0.000000
 41
0.000000
  0
VERTEX
  8
0
  6
CONTINUOUS
 10
4.344120
 20
2.635160
  0
VERTEX
  8
0
  6
CONTINUOUS
 10
4.958800
 20
2.989360
  0
VERTEX
  8
0
  6
CONTINUOUS
 10
4.973320
 20
2.966480
  0
VERTEX
  8
0
  6
CONTINUOUS
 10
4.358640
 20
2.611840
  0
VERTEX
  8
0
  6
CONTINUOUS
 10
4.344120
 20
2.635160
  0
SEQEND
  8
0
  0
SOLID
  8
0
 62
    15
 10
4.358640
 20
2.611840
 11
4.973320
 21
2.966480
 12
4.368760
 22
2.587640
 13
4.983000
 23
2.941840
  0
POLYLINE
  8
0
  6
CONTINUOUS
 66
     1
 40
0.000000
 41
0.000000
  0
VERTEX
  8
0
  6
CONTINUOUS
 10
4.358640
 20
2.611840
  0
VERTEX
  8
0
  6
CONTINUOUS
 10
4.973320
 20
2.966480
  0
VERTEX
  8
0
  6
CONTINUOUS
 10
4.983000
 20
2.941840
  0
VERTEX
  8
0
  6
CONTINUOUS
 10
4.368760
 20
2.587640
  0
VERTEX
  8
0
  6
CONTINUOUS
 10
4.358640
 20
2.611840
  0
SEQEND
  8
0
  0
SOLID
  8
0
 62
    15
 10
4.368760
 20
2.587640
 11
4.983000
 21
2.941840
 12
4.374040
 22
2.562120
 13
4.988720
 23
2.916760
  0
POLYLINE
  8
0
  6
CONTINUOUS
 66
     1
 40
0.000000
 41
0.000000
  0
VERTEX
  8
0
  6
CONTINUOUS
 10
4.368760
 20
2.587640
  0
VERTEX
  8
0
  6
CONTINUOUS
 10
4.983000
 20
2.941840
  0
VERTEX
  8
0
  6
CONTINUOUS
 10
4.988720
 20
2.916760
  0
VERTEX
  8
0
  6
CONTINUOUS
 10
4.374040
 20
2.562120
  0
VERTEX
  8
0
  6
CONTINUOUS
 10
4.368760
 20
2.587640
  0
SEQEND
  8
0
  0
SOLID
  8
0
 62
    15
 10
4.374040
 20
2.562120
 11
4.988720
 21
2.916760
 12
4.374920
 22
2.537040
 13
4.989160
 23
2.891680
  0
POLYLINE
  8
0
  6
CONTINUOUS
 66
     1
 40
0.000000
 41
0.000000
  0
VERTEX
  8
0
  6
CONTINUOUS
 10
4.374040
 20
2.562120
  0
VERTEX
  8
0
  6
CONTINUOUS
 10
4.988720
 20
2.916760
  0
VERTEX
  8
0
  6
CONTINUOUS
 10
4.989160
 20
2.891680
  0
VERTEX
  8
0
  6
CONTINUOUS
 10
4.374920
 20
2.537040
  0
VERTEX
  8
0
  6
CONTINUOUS
 10
4.374040
 20
2.562120
  0
SEQEND
  8
0
  0
SOLID
  8
0
 62
    15
 10
4.374920
 20
2.537040
 11
4.989160
 21
2.891680
 12
4.370080
 22
2.511960
 13
4.984760
 23
2.866600
  0
POLYLINE
  8
0
  6
CONTINUOUS
 66
     1
 40
0.000000
 41
0.000000
  0
VERTEX
  8
0
  6
CONTINUOUS
 10
4.374920
 20
2.537040
  0
VERTEX
  8
0
  6
CONTINUOUS
 10
4.989160
 20
2.891680
  0
VERTEX
  8
0
  6
CONTINUOUS
 10
4.984760
 20
2.866600
  0
VERTEX
  8
0
  6
CONTINUOUS
 10
4.370080
 20
2.511960
  0
VERTEX
  8
0
  6
CONTINUOUS
 10
4.374920
 20
2.537040
  0
SEQEND
  8
0
  0
SOLID
  8
0
 62
    15
 10
4.370080
 20
2.511960
 11
4.984760
 21
2.866600
 12
4.359960
 22
2.488200
 13
4.974640
 23
2.842840
  0
POLYLINE
  8
0
  6
CONTINUOUS
 66
     1
 40
0.000000
 41
0.000000
  0
VERTEX
  8
0
  6
CONTINUOUS
 10
4.370080
 20
2.511960
  0
VERTEX
  8
0
  6
CONTINUOUS
 10
4.984760
 20
2.866600
  0
VERTEX
  8
0
  6
CONTINUOUS
 10
4.974640
 20
2.842840
  0
VERTEX
  8
0
  6
CONTINUOUS
 10
4.359960
 20
2.488200
  0
VERTEX
  8
0
  6
CONTINUOUS
 10
4.370080
 20
2.511960
  0
SEQEND
  8
0
  0
SOLID
  8
0
 62
    15
 10
4.255240
 20
2.415600
 11
4.869920
 21
2.769800
 12
4.256120
 22
2.340800
 13
4.870800
 23
2.695440
  0
POLYLINE
  8
0
  6
CONTINUOUS
 66
     1
 40
0.000000
 41
0.000000
  0
VERTEX
  8
0
  6
CONTINUOUS
 10
4.255240
 20
2.415600
  0
VERTEX
  8
0
  6
CONTINUOUS
 10
4.869920
 20
2.769800
  0
VERTEX
  8
0
  6
CONTINUOUS
 10
4.870800
 20
2.695440
  0
VERTEX
  8
0
  6
CONTINUOUS
 10
4.256120
 20
2.340800
  0
VERTEX
  8
0
  6
CONTINUOUS
 10
4.255240
 20
2.415600
  0
SEQEND
  8
0
  0
SOLID
  8
0
 62
    15
 10
4.343680
 20
2.466200
 11
4.958360
 21
2.820840
 12
4.320800
 22
2.446400
 13
4.935480
 23
2.800600
  0
POLYLINE
  8
0
  6
CONTINUOUS
 66
     1
 40
0.000000
 41
0.000000
  0
VERTEX
  8
0
  6
CONTINUOUS
 10
4.343680
 20
2.466200
  0
VERTEX
  8
0
  6
CONTINUOUS
 10
4.958360
 20
2.820840
  0
VERTEX
  8
0
  6
CONTINUOUS
 10
4.935480
 20
2.800600
  0
VERTEX
  8
0
  6
CONTINUOUS
 10
4.320800
 20
2.446400
  0
VERTEX
  8
0
  6
CONTINUOUS
 10
4.343680
 20
2.466200
  0
SEQEND
  8
0
  0
SOLID
  8
0
 62
    15
 10
4.320800
 20
2.446400
 11
4.935480
 21
2.800600
 12
4.291760
 22
2.429240
 13
4.906440
 23
2.783440
  0
POLYLINE
  8
0
  6
CONTINUOUS
 66
     1
 40
0.000000
 41
0.000000
  0
VERTEX
  8
0
  6
CONTINUOUS
 10
4.320800
 20
2.446400
  0
VERTEX
  8
0
  6
CONTINUOUS
 10
4.935480
 20
2.800600
  0
VERTEX
  8
0
  6
CONTINUOUS
 10
4.906440
 20
2.783440
  0
VERTEX
  8
0
  6
CONTINUOUS
 10
4.291760
 20
2.429240
  0
VERTEX
  8
0
  6
CONTINUOUS
 10
4.320800
 20
2.446400
  0
SEQEND
  8
0
  0
SOLID
  8
0
 62
    15
 10
4.359960
 20
2.488200
 11
4.974640
 21
2.842840
 12
4.343680
 22
2.466200
 13
4.958360
 23
2.820840
  0
POLYLINE
  8
0
  6
CONTINUOUS
 66
     1
 40
0.000000
 41
0.000000
  0
VERTEX
  8
0
  6
CONTINUOUS
 10
4.359960
 20
2.488200
  0
VERTEX
  8
0
  6
CONTINUOUS
 10
4.974640
 20
2.842840
  0
VERTEX
  8
0
  6
CONTINUOUS
 10
4.958360
 20
2.820840
  0
VERTEX
  8
0
  6
CONTINUOUS
 10
4.343680
 20
2.466200
  0
VERTEX
  8
0
  6
CONTINUOUS
 10
4.359960
 20
2.488200
  0
SEQEND
  8
0
  0
SOLID
  8
0
 62
    15
 10
4.256120
 20
2.340800
 11
4.870800
 21
2.695440
 12
4.260960
 22
2.268200
 13
4.875640
 23
2.622840
  0
POLYLINE
  8
0
  6
CONTINUOUS
 66
     1
 40
0.000000
 41
0.000000
  0
VERTEX
  8
0
  6
CONTINUOUS
 10
4.256120
 20
2.340800
  0
VERTEX
  8
0
  6
CONTINUOUS
 10
4.870800
 20
2.695440
  0
VERTEX
  8
0
  6
CONTINUOUS
 10
4.875640
 20
2.622840
  0
VERTEX
  8
0
  6
CONTINUOUS
 10
4.260960
 20
2.268200
  0
VERTEX
  8
0
  6
CONTINUOUS
 10
4.256120
 20
2.340800
  0
SEQEND
  8
0
  0
SOLID
  8
0
 62
    15
 10
4.260960
 20
2.268200
 11
4.875640
 21
2.622840
 12
4.273280
 22
2.197800
 13
4.887960
 23
2.552440
  0
POLYLINE
  8
0
  6
CONTINUOUS
 66
     1
 40
0.000000
 41
0.000000
  0
VERTEX
  8
0
  6
CONTINUOUS
 10
4.260960
 20
2.268200
  0
VERTEX
  8
0
  6
CONTINUOUS
 10
4.875640
 20
2.622840
  0
VERTEX
  8
0
  6
CONTINUOUS
 10
4.887960
 20
2.552440
  0
VERTEX
  8
0
  6
CONTINUOUS
 10
4.273280
 20
2.197800
  0
VERTEX
  8
0
  6
CONTINUOUS
 10
4.260960
 20
2.268200
  0
SEQEND
  8
0
  0
SOLID
  8
0
 62
    15
 10
4.273280
 20
2.197800
 11
4.887960
 21
2.552440
 12
4.295720
 22
2.131360
 13
4.910400
 23
2.486000
  0
POLYLINE
  8
0
  6
CONTINUOUS
 66
     1
 40
0.000000
 41
0.000000
  0
VERTEX
  8
0
  6
CONTINUOUS
 10
4.273280
 20
2.197800
  0
VERTEX
  8
0
  6
CONTINUOUS
 10
4.887960
 20
2.552440
  0
VERTEX
  8
0
  6
CONTINUOUS
 10
4.910400
 20
2.486000
  0
VERTEX
  8
0
  6
CONTINUOUS
 10
4.295720
 20
2.131360
  0
VERTEX
  8
0
  6
CONTINUOUS
 10
4.273280
 20
2.197800
  0
SEQEND
  8
0
  0
SOLID
  8
0
 62
     7
 10
4.295720
 20
2.131360
 11
4.910400
 21
2.486000
 12
4.332240
 22
2.069320
 13
4.946920
 23
2.423520
  0
POLYLINE
  8
0
  6
CONTINUOUS
 66
     1
 40
0.000000
 41
0.000000
  0
VERTEX
  8
0
  6
CONTINUOUS
 10
4.295720
 20
2.131360
  0
VERTEX
  8
0
  6
CONTINUOUS
 10
4.910400
 20
2.486000
  0
VERTEX
  8
0
  6
CONTINUOUS
 10
4.946920
 20
2.423520
  0
VERTEX
  8
0
  6
CONTINUOUS
 10
4.332240
 20
2.069320
  0
VERTEX
  8
0
  6
CONTINUOUS
 10
4.295720
 20
2.131360
  0
SEQEND
  8
0
  0
SOLID
  8
0
 62
     7
 10
4.332240
 20
2.069320
 11
4.946920
 21
2.423520
 12
4.356440
 22
2.039840
 13
4.971120
 23
2.394480
  0
POLYLINE
  8
0
  6
CONTINUOUS
 66
     1
 40
0.000000
 41
0.000000
  0
VERTEX
  8
0
  6
CONTINUOUS
 10
4.332240
 20
2.069320
  0
VERTEX
  8
0
  6
CONTINUOUS
 10
4.946920
 20
2.423520
  0
VERTEX
  8
0
  6
CONTINUOUS
 10
4.971120
 20
2.394480
  0
VERTEX
  8
0
  6
CONTINUOUS
 10
4.356440
 20
2.039840
  0
VERTEX
  8
0
  6
CONTINUOUS
 10
4.332240
 20
2.069320
  0
SEQEND
  8
0
  0
SOLID
  8
0
 62
    15
 10
4.356440
 20
2.039840
 11
4.971120
 21
2.394480
 12
4.385480
 22
2.012120
 13
5.000160
 23
2.366760
  0
POLYLINE
  8
0
  6
CONTINUOUS
 66
     1
 40
0.000000
 41
0.000000
  0
VERTEX
  8
0
  6
CONTINUOUS
 10
4.356440
 20
2.039840
  0
VERTEX
  8
0
  6
CONTINUOUS
 10
4.971120
 20
2.394480
  0
VERTEX
  8
0
  6
CONTINUOUS
 10
5.000160
 20
2.366760
  0
VERTEX
  8
0
  6
CONTINUOUS
 10
4.385480
 20
2.012120
  0
VERTEX
  8
0
  6
CONTINUOUS
 10
4.356440
 20
2.039840
  0
SEQEND
  8
0
  0
SOLID
  8
0
 62
    15
 10
4.192320
 20
2.712600
 11
4.807000
 21
3.066800
 12
4.224000
 22
2.709960
 13
4.838680
 23
3.064160
  0
POLYLINE
  8
0
  6
CONTINUOUS
 66
     1
 40
0.000000
 41
0.000000
  0
VERTEX
  8
0
  6
CONTINUOUS
 10
4.192320
 20
2.712600
  0
VERTEX
  8
0
  6
CONTINUOUS
 10
4.807000
 20
3.066800
  0
VERTEX
  8
0
  6
CONTINUOUS
 10
4.838680
 20
3.064160
  0
VERTEX
  8
0
  6
CONTINUOUS
 10
4.224000
 20
2.709960
  0
VERTEX
  8
0
  6
CONTINUOUS
 10
4.192320
 20
2.712600
  0
SEQEND
  8
0
  0
SOLID
  8
0
 62
    15
 10
4.419800
 20
1.986160
 11
5.034040
 21
2.340800
 12
4.458960
 22
1.961960
 13
5.073640
 23
2.316160
  0
POLYLINE
  8
0
  6
CONTINUOUS
 66
     1
 40
0.000000
 41
0.000000
  0
VERTEX
  8
0
  6
CONTINUOUS
 10
4.419800
 20
1.986160
  0
VERTEX
  8
0
  6
CONTINUOUS
 10
5.034040
 20
2.340800
  0
VERTEX
  8
0
  6
CONTINUOUS
 10
5.073640
 20
2.316160
  0
VERTEX
  8
0
  6
CONTINUOUS
 10
4.458960
 20
1.961960
  0
VERTEX
  8
0
  6
CONTINUOUS
 10
4.419800
 20
1.986160
  0
SEQEND
  8
0
  0
SOLID
  8
0
 62
    15
 10
4.458960
 20
1.961960
 11
5.073640
 21
2.316160
 12
4.504720
 22
1.939080
 13
5.118960
 23
2.293720
  0
POLYLINE
  8
0
  6
CONTINUOUS
 66
     1
 40
0.000000
 41
0.000000
  0
VERTEX
  8
0
  6
CONTINUOUS
 10
4.458960
 20
1.961960
  0
VERTEX
  8
0
  6
CONTINUOUS
 10
5.073640
 20
2.316160
  0
VERTEX
  8
0
  6
CONTINUOUS
 10
5.118960
 20
2.293720
  0
VERTEX
  8
0
  6
CONTINUOUS
 10
4.504720
 20
1.939080
  0
VERTEX
  8
0
  6
CONTINUOUS
 10
4.458960
 20
1.961960
  0
SEQEND
  8
0
  0
SOLID
  8
0
 62
    15
 10
4.504720
 20
1.939080
 11
5.118960
 21
2.293720
 12
4.556200
 22
1.918400
 13
5.170880
 23
2.273040
  0
POLYLINE
  8
0
  6
CONTINUOUS
 66
     1
 40
0.000000
 41
0.000000
  0
VERTEX
  8
0
  6
CONTINUOUS
 10
4.504720
 20
1.939080
  0
VERTEX
  8
0
  6
CONTINUOUS
 10
5.118960
 20
2.293720
  0
VERTEX
  8
0
  6
CONTINUOUS
 10
5.170880
 20
2.273040
  0
VERTEX
  8
0
  6
CONTINUOUS
 10
4.556200
 20
1.918400
  0
VERTEX
  8
0
  6
CONTINUOUS
 10
4.504720
 20
1.939080
  0
SEQEND
  8
0
  0
SOLID
  8
0
 62
    15
 10
4.556200
 20
1.918400
 11
5.170880
 21
2.273040
 12
4.556200
 22
1.763520
 13
5.170880
 23
2.117720
  0
POLYLINE
  8
0
  6
CONTINUOUS
 66
     1
 40
0.000000
 41
0.000000
  0
VERTEX
  8
0
  6
CONTINUOUS
 10
4.556200
 20
1.918400
  0
VERTEX
  8
0
  6
CONTINUOUS
 10
5.170880
 20
2.273040
  0
VERTEX
  8
0
  6
CONTINUOUS
 10
5.170880
 20
2.117720
  0
VERTEX
  8
0
  6
CONTINUOUS
 10
4.556200
 20
1.763520
  0
VERTEX
  8
0
  6
CONTINUOUS
 10
4.556200
 20
1.918400
  0
SEQEND
  8
0
  0
SOLID
  8
0
 62
    15
 10
4.556200
 20
1.763520
 11
5.170880
 21
2.117720
 12
4.659160
 22
1.672000
 13
5.273840
 23
2.026200
  0
POLYLINE
  8
0
  6
CONTINUOUS
 66
     1
 40
0.000000
 41
0.000000
  0
VERTEX
  8
0
  6
CONTINUOUS
 10
4.556200
 20
1.763520
  0
VERTEX
  8
0
  6
CONTINUOUS
 10
5.170880
 20
2.117720
  0
VERTEX
  8
0
  6
CONTINUOUS
 10
5.273840
 20
2.026200
  0
VERTEX
  8
0
  6
CONTINUOUS
 10
4.659160
 20
1.672000
  0
VERTEX
  8
0
  6
CONTINUOUS
 10
4.556200
 20
1.763520
  0
SEQEND
  8
0
  0
SOLID
  8
0
 62
     7
 10
4.659160
 20
1.672000
 11
5.273840
 21
2.026200
 12
4.754200
 22
1.566840
 13
5.368880
 23
1.921480
  0
POLYLINE
  8
0
  6
CONTINUOUS
 66
     1
 40
0.000000
 41
0.000000
  0
VERTEX
  8
0
  6
CONTINUOUS
 10
4.659160
 20
1.672000
  0
VERTEX
  8
0
  6
CONTINUOUS
 10
5.273840
 20
2.026200
  0
VERTEX
  8
0
  6
CONTINUOUS
 10
5.368880
 20
1.921480
  0
VERTEX
  8
0
  6
CONTINUOUS
 10
4.754200
 20
1.566840
  0
VERTEX
  8
0
  6
CONTINUOUS
 10
4.659160
 20
1.672000
  0
SEQEND
  8
0
  0
SOLID
  8
0
 62
     7
 10
4.754200
 20
1.566840
 11
5.368880
 21
1.921480
 12
4.796000
 22
1.510960
 13
5.410680
 23
1.865600
  0
POLYLINE
  8
0
  6
CONTINUOUS
 66
     1
 40
0.000000
 41
0.000000
  0
VERTEX
  8
0
  6
CONTINUOUS
 10
4.754200
 20
1.566840
  0
VERTEX
  8
0
  6
CONTINUOUS
 10
5.368880
 20
1.921480
  0
VERTEX
  8
0
  6
CONTINUOUS
 10
5.410680
 20
1.865600
  0
VERTEX
  8
0
  6
CONTINUOUS
 10
4.796000
 20
1.510960
  0
VERTEX
  8
0
  6
CONTINUOUS
 10
4.754200
 20
1.566840
  0
SEQEND
  8
0
  0
SOLID
  8
0
 62
    15
 10
4.796000
 20
1.510960
 11
5.410680
 21
1.865600
 12
4.833400
 22
1.453760
 13
5.448080
 23
1.808400
  0
POLYLINE
  8
0
  6
CONTINUOUS
 66
     1
 40
0.000000
 41
0.000000
  0
VERTEX
  8
0
  6
CONTINUOUS
 10
4.796000
 20
1.510960
  0
VERTEX
  8
0
  6
CONTINUOUS
 10
5.410680
 20
1.865600
  0
VERTEX
  8
0
  6
CONTINUOUS
 10
5.448080
 20
1.808400
  0
VERTEX
  8
0
  6
CONTINUOUS
 10
4.833400
 20
1.453760
  0
VERTEX
  8
0
  6
CONTINUOUS
 10
4.796000
 20
1.510960
  0
SEQEND
  8
0
  0
SOLID
  8
0
 62
    15
 10
4.833400
 20
1.453760
 11
5.448080
 21
1.808400
 12
4.865080
 22
1.395240
 13
5.479320
 23
1.749880
  0
POLYLINE
  8
0
  6
CONTINUOUS
 66
     1
 40
0.000000
 41
0.000000
  0
VERTEX
  8
0
  6
CONTINUOUS
 10
4.833400
 20
1.453760
  0
VERTEX
  8
0
  6
CONTINUOUS
 10
5.448080
 20
1.808400
  0
VERTEX
  8
0
  6
CONTINUOUS
 10
5.479320
 20
1.749880
  0
VERTEX
  8
0
  6
CONTINUOUS
 10
4.865080
 20
1.395240
  0
VERTEX
  8
0
  6
CONTINUOUS
 10
4.833400
 20
1.453760
  0
SEQEND
  8
0
  0
SOLID
  8
0
 62
    15
 10
4.865080
 20
1.395240
 11
5.479320
 21
1.749880
 12
4.889720
 22
1.336720
 13
5.504400
 23
1.690920
  0
POLYLINE
  8
0
  6
CONTINUOUS
 66
     1
 40
0.000000
 41
0.000000
  0
VERTEX
  8
0
  6
CONTINUOUS
 10
4.865080
 20
1.395240
  0
VERTEX
  8
0
  6
CONTINUOUS
 10
5.479320
 20
1.749880
  0
VERTEX
  8
0
  6
CONTINUOUS
 10
5.504400
 20
1.690920
  0
VERTEX
  8
0
  6
CONTINUOUS
 10
4.889720
 20
1.336720
  0
VERTEX
  8
0
  6
CONTINUOUS
 10
4.865080
 20
1.395240
  0
SEQEND
  8
0
  0
SOLID
  8
0
 62
    15
 10
4.889720
 20
1.336720
 11
5.504400
 21
1.690920
 12
4.906880
 22
1.278200
 13
5.521120
 23
1.632400
  0
POLYLINE
  8
0
  6
CONTINUOUS
 66
     1
 40
0.000000
 41
0.000000
  0
VERTEX
  8
0
  6
CONTINUOUS
 10
4.889720
 20
1.336720
  0
VERTEX
  8
0
  6
CONTINUOUS
 10
5.504400
 20
1.690920
  0
VERTEX
  8
0
  6
CONTINUOUS
 10
5.521120
 20
1.632400
  0
VERTEX
  8
0
  6
CONTINUOUS
 10
4.906880
 20
1.278200
  0
VERTEX
  8
0
  6
CONTINUOUS
 10
4.889720
 20
1.336720
  0
SEQEND
  8
0
  0
SOLID
  8
0
 62
    15
 10
4.906880
 20
1.278200
 11
5.521120
 21
1.632400
 12
4.915240
 22
1.220560
 13
5.529480
 23
1.574760
  0
POLYLINE
  8
0
  6
CONTINUOUS
 66
     1
 40
0.000000
 41
0.000000
  0
VERTEX
  8
0
  6
CONTINUOUS
 10
4.906880
 20
1.278200
  0
VERTEX
  8
0
  6
CONTINUOUS
 10
5.521120
 20
1.632400
  0
VERTEX
  8
0
  6
CONTINUOUS
 10
5.529480
 20
1.574760
  0
VERTEX
  8
0
  6
CONTINUOUS
 10
4.915240
 20
1.220560
  0
VERTEX
  8
0
  6
CONTINUOUS
 10
4.906880
 20
1.278200
  0
SEQEND
  8
0
  0
SOLID
  8
0
 62
    15
 10
4.915240
 20
1.220560
 11
5.529480
 21
1.574760
 12
4.913920
 22
1.164240
 13
5.528600
 23
1.518440
  0
POLYLINE
  8
0
  6
CONTINUOUS
 66
     1
 40
0.000000
 41
0.000000
  0
VERTEX
  8
0
  6
CONTINUOUS
 10
4.915240
 20
1.220560
  0
VERTEX
  8
0
  6
CONTINUOUS
 10
5.529480
 20
1.574760
  0
VERTEX
  8
0
  6
CONTINUOUS
 10
5.528600
 20
1.518440
  0
VERTEX
  8
0
  6
CONTINUOUS
 10
4.913920
 20
1.164240
  0
VERTEX
  8
0
  6
CONTINUOUS
 10
4.915240
 20
1.220560
  0
SEQEND
  8
0
  0
SOLID
  8
0
 62
    15
 10
4.913920
 20
1.164240
 11
5.528600
 21
1.518440
 12
4.902040
 22
1.109680
 13
5.516720
 23
1.464320
  0
POLYLINE
  8
0
  6
CONTINUOUS
 66
     1
 40
0.000000
 41
0.000000
  0
VERTEX
  8
0
  6
CONTINUOUS
 10
4.913920
 20
1.164240
  0
VERTEX
  8
0
  6
CONTINUOUS
 10
5.528600
 20
1.518440
  0
VERTEX
  8
0
  6
CONTINUOUS
 10
5.516720
 20
1.464320
  0
VERTEX
  8
0
  6
CONTINUOUS
 10
4.902040
 20
1.109680
  0
VERTEX
  8
0
  6
CONTINUOUS
 10
4.913920
 20
1.164240
  0
SEQEND
  8
0
  0
SOLID
  8
0
 62
    15
 10
4.902040
 20
1.109680
 11
5.516720
 21
1.464320
 12
4.878720
 22
1.058200
 13
5.493400
 23
1.412840
  0
POLYLINE
  8
0
  6
CONTINUOUS
 66
     1
 40
0.000000
 41
0.000000
  0
VERTEX
  8
0
  6
CONTINUOUS
 10
4.902040
 20
1.109680
  0
VERTEX
  8
0
  6
CONTINUOUS
 10
5.516720
 20
1.464320
  0
VERTEX
  8
0
  6
CONTINUOUS
 10
5.493400
 20
1.412840
  0
VERTEX
  8
0
  6
CONTINUOUS
 10
4.878720
 20
1.058200
  0
VERTEX
  8
0
  6
CONTINUOUS
 10
4.902040
 20
1.109680
  0
SEQEND
  8
0
  0
SOLID
  8
0
 62
    15
 10
4.878720
 20
1.058200
 11
5.493400
 21
1.412840
 12
4.843080
 22
1.009800
 13
5.457760
 23
1.364440
  0
POLYLINE
  8
0
  6
CONTINUOUS
 66
     1
 40
0.000000
 41
0.000000
  0
VERTEX
  8
0
  6
CONTINUOUS
 10
4.878720
 20
1.058200
  0
VERTEX
  8
0
  6
CONTINUOUS
 10
5.493400
 20
1.412840
  0
VERTEX
  8
0
  6
CONTINUOUS
 10
5.457760
 20
1.364440
  0
VERTEX
  8
0
  6
CONTINUOUS
 10
4.843080
 20
1.009800
  0
VERTEX
  8
0
  6
CONTINUOUS
 10
4.878720
 20
1.058200
  0
SEQEND
  8
0
  0
SOLID
  8
0
 62
    15
 10
4.730440
 20
0.924880
 11
5.345120
 21
1.279520
 12
4.730440
 22
0.884400
 13
5.345120
 23
1.239040
  0
POLYLINE
  8
0
  6
CONTINUOUS
 66
     1
 40
0.000000
 41
0.000000
  0
VERTEX
  8
0
  6
CONTINUOUS
 10
4.730440
 20
0.924880
  0
VERTEX
  8
0
  6
CONTINUOUS
 10
5.345120
 20
1.279520
  0
VERTEX
  8
0
  6
CONTINUOUS
 10
5.345120
 20
1.239040
  0
VERTEX
  8
0
  6
CONTINUOUS
 10
4.730440
 20
0.884400
  0
VERTEX
  8
0
  6
CONTINUOUS
 10
4.730440
 20
0.924880
  0
SEQEND
  8
0
  0
SOLID
  8
0
 62
    15
 10
4.793800
 20
0.965360
 11
5.408480
 21
1.319560
 12
4.730440
 22
0.924880
 13
5.345120
 23
1.279520
  0
POLYLINE
  8
0
  6
CONTINUOUS
 66
     1
 40
0.000000
 41
0.000000
  0
VERTEX
  8
0
  6
CONTINUOUS
 10
4.793800
 20
0.965360
  0
VERTEX
  8
0
  6
CONTINUOUS
 10
5.408480
 20
1.319560
  0
VERTEX
  8
0
  6
CONTINUOUS
 10
5.345120
 20
1.279520
  0
VERTEX
  8
0
  6
CONTINUOUS
 10
4.730440
 20
0.924880
  0
VERTEX
  8
0
  6
CONTINUOUS
 10
4.793800
 20
0.965360
  0
SEQEND
  8
0
  0
SOLID
  8
0
 62
    15
 10
4.843080
 20
1.009800
 11
5.457760
 21
1.364440
 12
4.793800
 22
0.965360
 13
5.408480
 23
1.319560
  0
POLYLINE
  8
0
  6
CONTINUOUS
 66
     1
 40
0.000000
 41
0.000000
  0
VERTEX
  8
0
  6
CONTINUOUS
 10
4.843080
 20
1.009800
  0
VERTEX
  8
0
  6
CONTINUOUS
 10
5.457760
 20
1.364440
  0
VERTEX
  8
0
  6
CONTINUOUS
 10
5.408480
 20
1.319560
  0
VERTEX
  8
0
  6
CONTINUOUS
 10
4.793800
 20
0.965360
  0
VERTEX
  8
0
  6
CONTINUOUS
 10
4.843080
 20
1.009800
  0
SEQEND
  8
0
  0
SOLID
  8
0
 62
    15
 10
4.028640
 20
2.922040
 11
4.643320
 21
3.276240
 12
4.191440
 22
2.922040
 13
4.806120
 23
3.276240
  0
POLYLINE
  8
0
  6
CONTINUOUS
 66
     1
 40
0.000000
 41
0.000000
  0
VERTEX
  8
0
  6
CONTINUOUS
 10
4.028640
 20
2.922040
  0
VERTEX
  8
0
  6
CONTINUOUS
 10
4.643320
 20
3.276240
  0
VERTEX
  8
0
  6
CONTINUOUS
 10
4.806120
 20
3.276240
  0
VERTEX
  8
0
  6
CONTINUOUS
 10
4.191440
 20
2.922040
  0
VERTEX
  8
0
  6
CONTINUOUS
 10
4.028640
 20
2.922040
  0
SEQEND
  8
0
  0
SOLID
  8
0
 62
    15
 10
4.191440
 20
2.922040
 11
4.806120
 21
3.276240
 12
4.191440
 22
2.712600
 13
4.806120
 23
3.066800
  0
POLYLINE
  8
0
  6
CONTINUOUS
 66
     1
 40
0.000000
 41
0.000000
  0
VERTEX
  8
0
  6
CONTINUOUS
 10
4.191440
 20
2.922040
  0
VERTEX
  8
0
  6
CONTINUOUS
 10
4.806120
 20
3.276240
  0
VERTEX
  8
0
  6
CONTINUOUS
 10
4.806120
 20
3.066800
  0
VERTEX
  8
0
  6
CONTINUOUS
 10
4.191440
 20
2.712600
  0
VERTEX
  8
0
  6
CONTINUOUS
 10
4.191440
 20
2.922040
  0
SEQEND
  8
0
  0
SOLID
  8
0
 62
    15
 10
4.191440
 20
2.712600
 11
4.806120
 21
3.066800
 12
4.192320
 22
2.712600
 13
4.807000
 23
3.066800
  0
POLYLINE
  8
0
  6
CONTINUOUS
 66
     1
 40
0.000000
 41
0.000000
  0
VERTEX
  8
0
  6
CONTINUOUS
 10
4.191440
 20
2.712600
  0
VERTEX
  8
0
  6
CONTINUOUS
 10
4.806120
 20
3.066800
  0
VERTEX
  8
0
  6
CONTINUOUS
 10
4.807000
 20
3.066800
  0
VERTEX
  8
0
  6
CONTINUOUS
 10
4.192320
 20
2.712600
  0
VERTEX
  8
0
  6
CONTINUOUS
 10
4.191440
 20
2.712600
  0
SEQEND
  8
0
  0
POLYLINE
  8
0
  6
CONTINUOUS
 66
     1
 40
0.000000
 41
0.000000
  0
VERTEX
  8
0
  6
CONTINUOUS
 10
4.192320
 20
2.712600
  0
VERTEX
  8
0
  6
CONTINUOUS
 10
4.224000
 20
2.709960
  0
VERTEX
  8
0
  6
CONTINUOUS
 10
4.253480
 20
2.702480
  0
VERTEX
  8
0
  6
CONTINUOUS
 10
4.280320
 20
2.690600
  0
VERTEX
  8
0
  6
CONTINUOUS
 10
4.304960
 20
2.674760
  0
VERTEX
  8
0
  6
CONTINUOUS
 10
4.326080
 20
2.656280
  0
VERTEX
  8
0
  6
CONTINUOUS
 10
4.344120
 20
2.635160
  0
VERTEX
  8
0
  6
CONTINUOUS
 10
4.358640
 20
2.611840
  0
VERTEX
  8
0
  6
CONTINUOUS
 10
4.368760
 20
2.587640
  0
VERTEX
  8
0
  6
CONTINUOUS
 10
4.374040
 20
2.562120
  0
VERTEX
  8
0
  6
CONTINUOUS
 10
4.374920
 20
2.537040
  0
VERTEX
  8
0
  6
CONTINUOUS
 10
4.370080
 20
2.511960
  0
VERTEX
  8
0
  6
CONTINUOUS
 10
4.359960
 20
2.488200
  0
VERTEX
  8
0
  6
CONTINUOUS
 10
4.343680
 20
2.466200
  0
VERTEX
  8
0
  6
CONTINUOUS
 10
4.320800
 20
2.446400
  0
VERTEX
  8
0
  6
CONTINUOUS
 10
4.291760
 20
2.429240
  0
VERTEX
  8
0
  6
CONTINUOUS
 10
4.255240
 20
2.415600
  0
VERTEX
  8
0
  6
CONTINUOUS
 10
4.256120
 20
2.340800
  0
VERTEX
  8
0
  6
CONTINUOUS
 10
4.260960
 20
2.268200
  0
VERTEX
  8
0
  6
CONTINUOUS
 10
4.273280
 20
2.197800
  0
VERTEX
  8
0
  6
CONTINUOUS
 10
4.295720
 20
2.131360
  0
VERTEX
  8
0
  6
CONTINUOUS
 10
4.332240
 20
2.069320
  0
VERTEX
  8
0
  6
CONTINUOUS
 10
4.356440
 20
2.039840
  0
VERTEX
  8
0
  6
CONTINUOUS
 10
4.385480
 20
2.012120
  0
VERTEX
  8
0
  6
CONTINUOUS
 10
4.419800
 20
1.986160
  0
VERTEX
  8
0
  6
CONTINUOUS
 10
4.458960
 20
1.961960
  0
VERTEX
  8
0
  6
CONTINUOUS
 10
4.504720
 20
1.939080
  0
VERTEX
  8
0
  6
CONTINUOUS
 10
4.556200
 20
1.918400
  0
VERTEX
  8
0
  6
CONTINUOUS
 10
4.556200
 20
1.763520
  0
VERTEX
  8
0
  6
CONTINUOUS
 10
4.659160
 20
1.672000
  0
VERTEX
  8
0
  6
CONTINUOUS
 10
4.754200
 20
1.566840
  0
VERTEX
  8
0
  6
CONTINUOUS
 10
4.796000
 20
1.510960
  0
VERTEX
  8
0
  6
CONTINUOUS
 10
4.833400
 20
1.453760
  0
VERTEX
  8
0
  6
CONTINUOUS
 10
4.865080
 20
1.395240
  0
VERTEX
  8
0
  6
CONTINUOUS
 10
4.889720
 20
1.336720
  0
VERTEX
  8
0
  6
CONTINUOUS
 10
4.906880
 20
1.278200
  0
VERTEX
  8
0
  6
CONTINUOUS
 10
4.915240
 20
1.220560
  0
VERTEX
  8
0
  6
CONTINUOUS
 10
4.913920
 20
1.164240
  0
VERTEX
  8
0
  6
CONTINUOUS
 10
4.902040
 20
1.109680
  0
VERTEX
  8
0
  6
CONTINUOUS
 10
4.878720
 20
1.058200
  0
VERTEX
  8
0
  6
CONTINUOUS
 10
4.843080
 20
1.009800
  0
VERTEX
  8
0
  6
CONTINUOUS
 10
4.793800
 20
0.965360
  0
VERTEX
  8
0
  6
CONTINUOUS
 10
4.730440
 20
0.924880
  0
VERTEX
  8
0
  6
CONTINUOUS
 10
4.730440
 20
0.884400
  0
VERTEX
  8
0
  6
CONTINUOUS
 10
4.028640
 20
0.884400
  0
VERTEX
  8
0
  6
CONTINUOUS
 10
4.028640
 20
2.922040
  0
VERTEX
  8
0
  6
CONTINUOUS
 10
4.191440
 20
2.922040
  0
VERTEX
  8
0
  6
CONTINUOUS
 10
4.191440
 20
2.712600
  0
VERTEX
  8
0
  6
CONTINUOUS
 10
4.192320
 20
2.712600
  0
SEQEND
  8
0
  0
TEXT
  8
0
 10
4.233680
 20
0.643720
 40
0.138176
  1
BA  486
 41
1.000000
  7
SN0
 71
     0
 72
     5
 11
4.823702
 21
0.643720
  0
TEXT
  8
0
 10
4.031720
 20
0.451880
 40
0.138176
  1
7/8" x 2-1/16"
 41
1.000000
  7
SN0
 71
     0
 72
     5
 11
5.024316
 21
0.451880
  0
ENDSEC
  0
EOF
