  0
SECTION
  2
HEADER
  9
$ACADVER
  1
AC1006
  9
$EXTMIN
 10
2.491720
 20
0.651200
  9
$EXTMAX
 10
7.576800
 20
4.179560
  9
$LTSCALE
 40
0.044000
  9
$PDMODE
 70
    35
  9
$PDSIZE
 40
0.035200
  0
ENDSEC
  0
SECTION
  2
TABLES
  0
TABLE
  2
LTYPE
 70
     9
  0
LTYPE
  2
CONTINUOUS
 70
    64
  3
Solid line
 72
    65
 73
     0
 40
0.000000
  0
LTYPE
  2
DASHED
 70
    64
  3
__ __ __ __ __ __ __ __ __ __ __ __ __ __ __
 72
    65
 73
     2
 40
0.000330
 49
0.000220
 49
-0.000110
  0
LTYPE
  2
HIDDEN
 70
    64
  3
 _ _ _ _ _ _ _ _ _ _ _ _ _ _ _ _ _ _ _ _ _ _
 72
    65
 73
     2
 40
0.000165
 49
0.000110
 49
-0.000055
  0
LTYPE
  2
CENTER
 70
    64
  3
____ _ ____ _ ____ _ ____ _ ____ _ ____ _ ____
 72
    65
 73
     4
 40
0.000880
 49
0.000550
 49
-0.000110
 49
0.000110
 49
-0.000110
  0
LTYPE
  2
PHANTOM
 70
    64
  3
_____ _ _ _____ _ _ _____ _ _ _____ _ _ ____
 72
    65
 73
     6
 40
0.001100
 49
0.000550
 49
-0.000110
 49
0.000110
 49
-0.000110
 49
0.000110
 49
-0.000110
  0
LTYPE
  2
DOT
 70
    64
  3
...............................................
 72
    65
 73
     2
 40
0.000110
 49
0.000000
 49
-0.000110
  0
LTYPE
  2
DASHDOT
 70
    64
  3
__ . __ . __ . __ . __ . __ . __ . __ . __ . __
 72
    65
 73
     4
 40
0.000440
 49
0.000220
 49
-0.000110
 49
0.000000
 49
-0.000110
  0
LTYPE
  2
BORDER
 70
    64
  3
__ __ . __ __ . __ __ . __ __ . __ __ . __ __
 72
    65
 73
     6
 40
0.000770
 49
0.000220
 49
-0.000110
 49
0.000220
 49
-0.000110
 49
0.000000
 49
-0.000110
  0
LTYPE
  2
DIVIDE
 70
    64
  3
__ . . __ . . __ . . __ . . __ . . __ . . __
 72
    65
 73
     6
 40
0.000550
 49
0.000220
 49
-0.000110
 49
0.000000
 49
-0.000110
 49
0.000000
 49
-0.000110
  0
LTYPE
  2
DOTDOT
 70
    64
  3
 . .  . .  . .  . .  . .  . . 
 72
    65
 73
     5
 40
0.000242
 49
-0.000110
 49
0.000000
 49
-0.000110
 49
0.000000
 49
-0.000110
  0
ENDTAB
  0
TABLE
  2
STYLE
 70
     2
  0
STYLE
 70
     0
  2
SN0
 40
0.000000
 41
0.000440
 50
0.000000
 71
     0
 42
0.000000
  3
ROMAND
  0
STYLE
 70
    68
  2
SV0
 40
0.000000
 41
0.000440
 50
0.000000
 71
     0
 42
0.000000
  3
ROMAND
  0
ENDTAB
  0
TABLE
  2
LAYER
 70
     3
  0
LAYER
  2
FOREGROUND
 70
    64
 62
     7
  6
CONTINUOUS
  0
LAYER
  2
BACKGROUND
 70
    65
 62
    -7
  6
CONTINUOUS
  0
LAYER
  2
0
 70
    64
 62
     7
  6
CONTINUOUS
  0
ENDTAB
  0
ENDSEC
  0
SECTION
  2
ENTITIES
  0
POLYLINE
  8
FOREGROUND
  6
CONTINUOUS
 66
     1
 40
0.000000
 41
0.000000
  0
VERTEX
  8
FOREGROUND
  6
CONTINUOUS
 10
0.000000
 20
4.830760
  0
VERTEX
  8
FOREGROUND
  6
CONTINUOUS
 10
8.499920
 20
4.830760
  0
VERTEX
  8
FOREGROUND
  6
CONTINUOUS
 10
8.499920
 20
-6.169240
  0
VERTEX
  8
FOREGROUND
  6
CONTINUOUS
 10
0.000000
 20
-6.169240
  0
VERTEX
  8
FOREGROUND
  6
CONTINUOUS
 10
0.000000
 20
4.830760
  0
SEQEND
  8
0
  0
POLYLINE
  8
FOREGROUND
  6
CONTINUOUS
 66
     1
 40
0.000000
 41
0.000000
  0
VERTEX
  8
FOREGROUND
  6
CONTINUOUS
 10
0.000000
 20
4.830760
  0
VERTEX
  8
FOREGROUND
  6
CONTINUOUS
 10
8.499920
 20
4.830760
  0
VERTEX
  8
FOREGROUND
  6
CONTINUOUS
 10
8.499920
 20
-6.169240
  0
VERTEX
  8
FOREGROUND
  6
CONTINUOUS
 10
0.000000
 20
-6.169240
  0
VERTEX
  8
FOREGROUND
  6
CONTINUOUS
 10
0.000000
 20
4.830760
  0
SEQEND
  8
0
  0
POLYLINE
  8
0
  6
CONTINUOUS
 66
     1
 40
0.014080
 41
0.014080
  0
VERTEX
  8
0
  6
CONTINUOUS
 10
2.549360
 20
3.298680
  0
VERTEX
  8
0
  6
CONTINUOUS
 10
2.549360
 20
3.921720
  0
VERTEX
  8
0
  6
CONTINUOUS
 10
2.547600
 20
3.921720
  0
VERTEX
  8
0
  6
CONTINUOUS
 10
2.584120
 20
3.921720
  0
VERTEX
  8
0
  6
CONTINUOUS
 10
2.619760
 20
3.924800
  0
VERTEX
  8
0
  6
CONTINUOUS
 10
2.670360
 20
3.935360
  0
VERTEX
  8
0
  6
CONTINUOUS
 10
2.717880
 20
3.952080
  0
VERTEX
  8
0
  6
CONTINUOUS
 10
2.761440
 20
3.974080
  0
VERTEX
  8
0
  6
CONTINUOUS
 10
2.788720
 20
3.990800
  0
VERTEX
  8
0
  6
CONTINUOUS
 10
2.825240
 20
4.019400
  0
VERTEX
  8
0
  6
CONTINUOUS
 10
2.846800
 20
4.039640
  0
VERTEX
  8
0
  6
CONTINUOUS
 10
2.866160
 20
4.060760
  0
VERTEX
  8
0
  6
CONTINUOUS
 10
2.890360
 20
4.094200
  0
VERTEX
  8
0
  6
CONTINUOUS
 10
2.908400
 20
4.127640
  0
VERTEX
  8
0
  6
CONTINUOUS
 10
2.920280
 20
4.160640
  0
VERTEX
  8
0
  6
CONTINUOUS
 10
2.922480
 20
4.171640
  0
VERTEX
  8
0
  6
CONTINUOUS
 10
4.261840
 20
4.171640
  0
VERTEX
  8
0
  6
CONTINUOUS
 10
4.386800
 20
4.021600
  0
VERTEX
  8
0
  6
CONTINUOUS
 10
4.389440
 20
4.048880
  0
VERTEX
  8
0
  6
CONTINUOUS
 10
4.397800
 20
4.073960
  0
VERTEX
  8
0
  6
CONTINUOUS
 10
4.410560
 20
4.096840
  0
VERTEX
  8
0
  6
CONTINUOUS
 10
4.427280
 20
4.116640
  0
VERTEX
  8
0
  6
CONTINUOUS
 10
4.447520
 20
4.133360
  0
VERTEX
  8
0
  6
CONTINUOUS
 10
4.470400
 20
4.146120
  0
VERTEX
  8
0
  6
CONTINUOUS
 10
4.495480
 20
4.154480
  0
VERTEX
  8
0
  6
CONTINUOUS
 10
4.522320
 20
4.157120
  0
VERTEX
  8
0
  6
CONTINUOUS
 10
4.549160
 20
4.154480
  0
VERTEX
  8
0
  6
CONTINUOUS
 10
4.573800
 20
4.146560
  0
VERTEX
  8
0
  6
CONTINUOUS
 10
4.596680
 20
4.134240
  0
VERTEX
  8
0
  6
CONTINUOUS
 10
4.616480
 20
4.117960
  0
VERTEX
  8
0
  6
CONTINUOUS
 10
4.632760
 20
4.098160
  0
VERTEX
  8
0
  6
CONTINUOUS
 10
4.645080
 20
4.075280
  0
VERTEX
  8
0
  6
CONTINUOUS
 10
4.653000
 20
4.050640
  0
VERTEX
  8
0
  6
CONTINUOUS
 10
4.655640
 20
4.023800
  0
VERTEX
  8
0
  6
CONTINUOUS
 10
4.653880
 20
4.021600
  0
VERTEX
  8
0
  6
CONTINUOUS
 10
4.674560
 20
4.022040
  0
VERTEX
  8
0
  6
CONTINUOUS
 10
4.677200
 20
4.048880
  0
VERTEX
  8
0
  6
CONTINUOUS
 10
4.685560
 20
4.073960
  0
VERTEX
  8
0
  6
CONTINUOUS
 10
4.698320
 20
4.096840
  0
VERTEX
  8
0
  6
CONTINUOUS
 10
4.715040
 20
4.116640
  0
VERTEX
  8
0
  6
CONTINUOUS
 10
4.735280
 20
4.133360
  0
VERTEX
  8
0
  6
CONTINUOUS
 10
4.758160
 20
4.146120
  0
VERTEX
  8
0
  6
CONTINUOUS
 10
4.783240
 20
4.154480
  0
VERTEX
  8
0
  6
CONTINUOUS
 10
4.810080
 20
4.157120
  0
VERTEX
  8
0
  6
CONTINUOUS
 10
4.836480
 20
4.154480
  0
VERTEX
  8
0
  6
CONTINUOUS
 10
4.861560
 20
4.146560
  0
VERTEX
  8
0
  6
CONTINUOUS
 10
4.884000
 20
4.134240
  0
VERTEX
  8
0
  6
CONTINUOUS
 10
4.903800
 20
4.117960
  0
VERTEX
  8
0
  6
CONTINUOUS
 10
4.920520
 20
4.098160
  0
VERTEX
  8
0
  6
CONTINUOUS
 10
4.932840
 20
4.075280
  0
VERTEX
  8
0
  6
CONTINUOUS
 10
4.940760
 20
4.050640
  0
VERTEX
  8
0
  6
CONTINUOUS
 10
4.943400
 20
4.021600
  0
VERTEX
  8
0
  6
CONTINUOUS
 10
4.961880
 20
4.022040
  0
VERTEX
  8
0
  6
CONTINUOUS
 10
4.964520
 20
4.048880
  0
VERTEX
  8
0
  6
CONTINUOUS
 10
4.972880
 20
4.073960
  0
VERTEX
  8
0
  6
CONTINUOUS
 10
4.985640
 20
4.096840
  0
VERTEX
  8
0
  6
CONTINUOUS
 10
5.002360
 20
4.116640
  0
VERTEX
  8
0
  6
CONTINUOUS
 10
5.022600
 20
4.133360
  0
VERTEX
  8
0
  6
CONTINUOUS
 10
5.045480
 20
4.146120
  0
VERTEX
  8
0
  6
CONTINUOUS
 10
5.070560
 20
4.154480
  0
VERTEX
  8
0
  6
CONTINUOUS
 10
5.097400
 20
4.157120
  0
VERTEX
  8
0
  6
CONTINUOUS
 10
5.124240
 20
4.154480
  0
VERTEX
  8
0
  6
CONTINUOUS
 10
5.148880
 20
4.146560
  0
VERTEX
  8
0
  6
CONTINUOUS
 10
5.171760
 20
4.134240
  0
VERTEX
  8
0
  6
CONTINUOUS
 10
5.191560
 20
4.117960
  0
VERTEX
  8
0
  6
CONTINUOUS
 10
5.207840
 20
4.098160
  0
VERTEX
  8
0
  6
CONTINUOUS
 10
5.220160
 20
4.075280
  0
VERTEX
  8
0
  6
CONTINUOUS
 10
5.228080
 20
4.050640
  0
VERTEX
  8
0
  6
CONTINUOUS
 10
5.230720
 20
4.021600
  0
VERTEX
  8
0
  6
CONTINUOUS
 10
5.249640
 20
4.021600
  0
VERTEX
  8
0
  6
CONTINUOUS
 10
5.252280
 20
4.050640
  0
VERTEX
  8
0
  6
CONTINUOUS
 10
5.260640
 20
4.075720
  0
VERTEX
  8
0
  6
CONTINUOUS
 10
5.273400
 20
4.098600
  0
VERTEX
  8
0
  6
CONTINUOUS
 10
5.290120
 20
4.118840
  0
VERTEX
  8
0
  6
CONTINUOUS
 10
5.309920
 20
4.135560
  0
VERTEX
  8
0
  6
CONTINUOUS
 10
5.332800
 20
4.148320
  0
VERTEX
  8
0
  6
CONTINUOUS
 10
5.357880
 20
4.156680
  0
VERTEX
  8
0
  6
CONTINUOUS
 10
5.384720
 20
4.159320
  0
VERTEX
  8
0
  6
CONTINUOUS
 10
5.411560
 20
4.156680
  0
VERTEX
  8
0
  6
CONTINUOUS
 10
5.436200
 20
4.148760
  0
VERTEX
  8
0
  6
CONTINUOUS
 10
5.459080
 20
4.136440
  0
VERTEX
  8
0
  6
CONTINUOUS
 10
5.478880
 20
4.120160
  0
VERTEX
  8
0
  6
CONTINUOUS
 10
5.495160
 20
4.100360
  0
VERTEX
  8
0
  6
CONTINUOUS
 10
5.507480
 20
4.077480
  0
VERTEX
  8
0
  6
CONTINUOUS
 10
5.515400
 20
4.052840
  0
VERTEX
  8
0
  6
CONTINUOUS
 10
5.518040
 20
4.026000
  0
VERTEX
  8
0
  6
CONTINUOUS
 10
5.522440
 20
4.023800
  0
VERTEX
  8
0
  6
CONTINUOUS
 10
5.636840
 20
4.169880
  0
VERTEX
  8
0
  6
CONTINUOUS
 10
5.641240
 20
4.171640
  0
VERTEX
  8
0
  6
CONTINUOUS
 10
7.193120
 20
4.171640
  0
VERTEX
  8
0
  6
CONTINUOUS
 10
7.195320
 20
4.173840
  0
VERTEX
  8
0
  6
CONTINUOUS
 10
7.570200
 20
3.298680
  0
VERTEX
  8
0
  6
CONTINUOUS
 10
7.568440
 20
3.296920
  0
VERTEX
  8
0
  6
CONTINUOUS
 10
2.557720
 20
3.296920
  0
VERTEX
  8
0
  6
CONTINUOUS
 10
2.549360
 20
3.298680
  0
SEQEND
  8
0
  0
SOLID
  8
0
 62
    15
 10
4.885320
 20
1.916640
 11
4.889720
 21
2.646160
 12
4.888400
 22
1.889800
 13
4.892360
 23
2.619320
  0
POLYLINE
  8
0
  6
CONTINUOUS
 66
     1
 40
0.000000
 41
0.000000
  0
VERTEX
  8
0
  6
CONTINUOUS
 10
4.885320
 20
1.916640
  0
VERTEX
  8
0
  6
CONTINUOUS
 10
4.889720
 20
2.646160
  0
VERTEX
  8
0
  6
CONTINUOUS
 10
4.892360
 20
2.619320
  0
VERTEX
  8
0
  6
CONTINUOUS
 10
4.888400
 20
1.889800
  0
VERTEX
  8
0
  6
CONTINUOUS
 10
4.885320
 20
1.916640
  0
SEQEND
  8
0
  0
SOLID
  8
0
 62
    15
 10
2.564320
 20
1.790800
 11
2.568280
 21
2.520320
 12
2.631640
 22
1.806200
 13
2.635600
 23
2.535720
  0
POLYLINE
  8
0
  6
CONTINUOUS
 66
     1
 40
0.000000
 41
0.000000
  0
VERTEX
  8
0
  6
CONTINUOUS
 10
2.564320
 20
1.790800
  0
VERTEX
  8
0
  6
CONTINUOUS
 10
2.568280
 20
2.520320
  0
VERTEX
  8
0
  6
CONTINUOUS
 10
2.635600
 20
2.535720
  0
VERTEX
  8
0
  6
CONTINUOUS
 10
2.631640
 20
1.806200
  0
VERTEX
  8
0
  6
CONTINUOUS
 10
2.564320
 20
1.790800
  0
SEQEND
  8
0
  0
SOLID
  8
0
 62
    15
 10
2.631640
 20
1.806200
 11
2.635600
 21
2.535720
 12
2.692360
 22
1.832160
 13
2.696320
 23
2.561680
  0
POLYLINE
  8
0
  6
CONTINUOUS
 66
     1
 40
0.000000
 41
0.000000
  0
VERTEX
  8
0
  6
CONTINUOUS
 10
2.631640
 20
1.806200
  0
VERTEX
  8
0
  6
CONTINUOUS
 10
2.635600
 20
2.535720
  0
VERTEX
  8
0
  6
CONTINUOUS
 10
2.696320
 20
2.561680
  0
VERTEX
  8
0
  6
CONTINUOUS
 10
2.692360
 20
1.832160
  0
VERTEX
  8
0
  6
CONTINUOUS
 10
2.631640
 20
1.806200
  0
SEQEND
  8
0
  0
SOLID
  8
0
 62
    15
 10
2.692360
 20
1.832160
 11
2.696320
 21
2.561680
 12
2.746040
 22
1.865600
 13
2.750440
 23
2.595120
  0
POLYLINE
  8
0
  6
CONTINUOUS
 66
     1
 40
0.000000
 41
0.000000
  0
VERTEX
  8
0
  6
CONTINUOUS
 10
2.692360
 20
1.832160
  0
VERTEX
  8
0
  6
CONTINUOUS
 10
2.696320
 20
2.561680
  0
VERTEX
  8
0
  6
CONTINUOUS
 10
2.750440
 20
2.595120
  0
VERTEX
  8
0
  6
CONTINUOUS
 10
2.746040
 20
1.865600
  0
VERTEX
  8
0
  6
CONTINUOUS
 10
2.692360
 20
1.832160
  0
SEQEND
  8
0
  0
SOLID
  8
0
 62
    15
 10
2.746040
 20
1.865600
 11
2.750440
 21
2.595120
 12
2.791800
 22
1.905640
 13
2.795760
 23
2.635160
  0
POLYLINE
  8
0
  6
CONTINUOUS
 66
     1
 40
0.000000
 41
0.000000
  0
VERTEX
  8
0
  6
CONTINUOUS
 10
2.746040
 20
1.865600
  0
VERTEX
  8
0
  6
CONTINUOUS
 10
2.750440
 20
2.595120
  0
VERTEX
  8
0
  6
CONTINUOUS
 10
2.795760
 20
2.635160
  0
VERTEX
  8
0
  6
CONTINUOUS
 10
2.791800
 20
1.905640
  0
VERTEX
  8
0
  6
CONTINUOUS
 10
2.746040
 20
1.865600
  0
SEQEND
  8
0
  0
SOLID
  8
0
 62
    15
 10
2.791800
 20
1.905640
 11
2.795760
 21
2.635160
 12
2.827880
 22
1.948760
 13
2.831840
 23
2.678280
  0
POLYLINE
  8
0
  6
CONTINUOUS
 66
     1
 40
0.000000
 41
0.000000
  0
VERTEX
  8
0
  6
CONTINUOUS
 10
2.791800
 20
1.905640
  0
VERTEX
  8
0
  6
CONTINUOUS
 10
2.795760
 20
2.635160
  0
VERTEX
  8
0
  6
CONTINUOUS
 10
2.831840
 20
2.678280
  0
VERTEX
  8
0
  6
CONTINUOUS
 10
2.827880
 20
1.948760
  0
VERTEX
  8
0
  6
CONTINUOUS
 10
2.791800
 20
1.905640
  0
SEQEND
  8
0
  0
SOLID
  8
0
 62
    15
 10
2.827880
 20
1.948760
 11
2.831840
 21
2.678280
 12
2.853400
 22
1.993640
 13
2.857360
 23
2.723160
  0
POLYLINE
  8
0
  6
CONTINUOUS
 66
     1
 40
0.000000
 41
0.000000
  0
VERTEX
  8
0
  6
CONTINUOUS
 10
2.827880
 20
1.948760
  0
VERTEX
  8
0
  6
CONTINUOUS
 10
2.831840
 20
2.678280
  0
VERTEX
  8
0
  6
CONTINUOUS
 10
2.857360
 20
2.723160
  0
VERTEX
  8
0
  6
CONTINUOUS
 10
2.853400
 20
1.993640
  0
VERTEX
  8
0
  6
CONTINUOUS
 10
2.827880
 20
1.948760
  0
SEQEND
  8
0
  0
SOLID
  8
0
 62
    15
 10
2.853400
 20
1.993640
 11
2.857360
 21
2.723160
 12
2.867480
 22
2.037640
 13
2.871440
 23
2.767160
  0
POLYLINE
  8
0
  6
CONTINUOUS
 66
     1
 40
0.000000
 41
0.000000
  0
VERTEX
  8
0
  6
CONTINUOUS
 10
2.853400
 20
1.993640
  0
VERTEX
  8
0
  6
CONTINUOUS
 10
2.857360
 20
2.723160
  0
VERTEX
  8
0
  6
CONTINUOUS
 10
2.871440
 20
2.767160
  0
VERTEX
  8
0
  6
CONTINUOUS
 10
2.867480
 20
2.037640
  0
VERTEX
  8
0
  6
CONTINUOUS
 10
2.853400
 20
1.993640
  0
SEQEND
  8
0
  0
SOLID
  8
0
 62
    15
 10
2.867480
 20
2.037640
 11
2.871440
 21
2.767160
 12
4.206840
 22
2.037640
 13
4.211240
 23
2.767160
  0
POLYLINE
  8
0
  6
CONTINUOUS
 66
     1
 40
0.000000
 41
0.000000
  0
VERTEX
  8
0
  6
CONTINUOUS
 10
2.867480
 20
2.037640
  0
VERTEX
  8
0
  6
CONTINUOUS
 10
2.871440
 20
2.767160
  0
VERTEX
  8
0
  6
CONTINUOUS
 10
4.211240
 20
2.767160
  0
VERTEX
  8
0
  6
CONTINUOUS
 10
4.206840
 20
2.037640
  0
VERTEX
  8
0
  6
CONTINUOUS
 10
2.867480
 20
2.037640
  0
SEQEND
  8
0
  0
SOLID
  8
0
 62
    15
 10
4.206840
 20
2.037640
 11
4.211240
 21
2.767160
 12
4.331800
 22
1.887600
 13
4.336200
 23
2.617120
  0
POLYLINE
  8
0
  6
CONTINUOUS
 66
     1
 40
0.000000
 41
0.000000
  0
VERTEX
  8
0
  6
CONTINUOUS
 10
4.206840
 20
2.037640
  0
VERTEX
  8
0
  6
CONTINUOUS
 10
4.211240
 20
2.767160
  0
VERTEX
  8
0
  6
CONTINUOUS
 10
4.336200
 20
2.617120
  0
VERTEX
  8
0
  6
CONTINUOUS
 10
4.331800
 20
1.887600
  0
VERTEX
  8
0
  6
CONTINUOUS
 10
4.206840
 20
2.037640
  0
SEQEND
  8
0
  0
SOLID
  8
0
 62
    15
 10
4.331800
 20
1.887600
 11
4.336200
 21
2.617120
 12
4.334880
 22
1.914440
 13
4.338840
 23
2.643960
  0
POLYLINE
  8
0
  6
CONTINUOUS
 66
     1
 40
0.000000
 41
0.000000
  0
VERTEX
  8
0
  6
CONTINUOUS
 10
4.331800
 20
1.887600
  0
VERTEX
  8
0
  6
CONTINUOUS
 10
4.336200
 20
2.617120
  0
VERTEX
  8
0
  6
CONTINUOUS
 10
4.338840
 20
2.643960
  0
VERTEX
  8
0
  6
CONTINUOUS
 10
4.334880
 20
1.914440
  0
VERTEX
  8
0
  6
CONTINUOUS
 10
4.331800
 20
1.887600
  0
SEQEND
  8
0
  0
SOLID
  8
0
 62
    15
 10
4.334880
 20
1.914440
 11
4.338840
 21
2.643960
 12
4.342800
 22
1.939520
 13
4.346760
 23
2.669040
  0
POLYLINE
  8
0
  6
CONTINUOUS
 66
     1
 40
0.000000
 41
0.000000
  0
VERTEX
  8
0
  6
CONTINUOUS
 10
4.334880
 20
1.914440
  0
VERTEX
  8
0
  6
CONTINUOUS
 10
4.338840
 20
2.643960
  0
VERTEX
  8
0
  6
CONTINUOUS
 10
4.346760
 20
2.669040
  0
VERTEX
  8
0
  6
CONTINUOUS
 10
4.342800
 20
1.939520
  0
VERTEX
  8
0
  6
CONTINUOUS
 10
4.334880
 20
1.914440
  0
SEQEND
  8
0
  0
SOLID
  8
0
 62
    15
 10
4.342800
 20
1.939520
 11
4.346760
 21
2.669040
 12
4.355560
 22
1.962400
 13
4.359520
 23
2.691920
  0
POLYLINE
  8
0
  6
CONTINUOUS
 66
     1
 40
0.000000
 41
0.000000
  0
VERTEX
  8
0
  6
CONTINUOUS
 10
4.342800
 20
1.939520
  0
VERTEX
  8
0
  6
CONTINUOUS
 10
4.346760
 20
2.669040
  0
VERTEX
  8
0
  6
CONTINUOUS
 10
4.359520
 20
2.691920
  0
VERTEX
  8
0
  6
CONTINUOUS
 10
4.355560
 20
1.962400
  0
VERTEX
  8
0
  6
CONTINUOUS
 10
4.342800
 20
1.939520
  0
SEQEND
  8
0
  0
SOLID
  8
0
 62
    15
 10
4.355560
 20
1.962400
 11
4.359520
 21
2.691920
 12
4.372280
 22
1.982640
 13
4.376240
 23
2.712160
  0
POLYLINE
  8
0
  6
CONTINUOUS
 66
     1
 40
0.000000
 41
0.000000
  0
VERTEX
  8
0
  6
CONTINUOUS
 10
4.355560
 20
1.962400
  0
VERTEX
  8
0
  6
CONTINUOUS
 10
4.359520
 20
2.691920
  0
VERTEX
  8
0
  6
CONTINUOUS
 10
4.376240
 20
2.712160
  0
VERTEX
  8
0
  6
CONTINUOUS
 10
4.372280
 20
1.982640
  0
VERTEX
  8
0
  6
CONTINUOUS
 10
4.355560
 20
1.962400
  0
SEQEND
  8
0
  0
SOLID
  8
0
 62
    15
 10
4.372280
 20
1.982640
 11
4.376240
 21
2.712160
 12
4.392520
 22
1.999360
 13
4.396480
 23
2.728880
  0
POLYLINE
  8
0
  6
CONTINUOUS
 66
     1
 40
0.000000
 41
0.000000
  0
VERTEX
  8
0
  6
CONTINUOUS
 10
4.372280
 20
1.982640
  0
VERTEX
  8
0
  6
CONTINUOUS
 10
4.376240
 20
2.712160
  0
VERTEX
  8
0
  6
CONTINUOUS
 10
4.396480
 20
2.728880
  0
VERTEX
  8
0
  6
CONTINUOUS
 10
4.392520
 20
1.999360
  0
VERTEX
  8
0
  6
CONTINUOUS
 10
4.372280
 20
1.982640
  0
SEQEND
  8
0
  0
SOLID
  8
0
 62
    15
 10
4.392520
 20
1.999360
 11
4.396480
 21
2.728880
 12
4.415400
 22
2.012120
 13
4.419360
 23
2.741640
  0
POLYLINE
  8
0
  6
CONTINUOUS
 66
     1
 40
0.000000
 41
0.000000
  0
VERTEX
  8
0
  6
CONTINUOUS
 10
4.392520
 20
1.999360
  0
VERTEX
  8
0
  6
CONTINUOUS
 10
4.396480
 20
2.728880
  0
VERTEX
  8
0
  6
CONTINUOUS
 10
4.419360
 20
2.741640
  0
VERTEX
  8
0
  6
CONTINUOUS
 10
4.415400
 20
2.012120
  0
VERTEX
  8
0
  6
CONTINUOUS
 10
4.392520
 20
1.999360
  0
SEQEND
  8
0
  0
SOLID
  8
0
 62
    15
 10
4.415400
 20
2.012120
 11
4.419360
 21
2.741640
 12
4.440480
 22
2.020040
 13
4.444880
 23
2.749560
  0
POLYLINE
  8
0
  6
CONTINUOUS
 66
     1
 40
0.000000
 41
0.000000
  0
VERTEX
  8
0
  6
CONTINUOUS
 10
4.415400
 20
2.012120
  0
VERTEX
  8
0
  6
CONTINUOUS
 10
4.419360
 20
2.741640
  0
VERTEX
  8
0
  6
CONTINUOUS
 10
4.444880
 20
2.749560
  0
VERTEX
  8
0
  6
CONTINUOUS
 10
4.440480
 20
2.020040
  0
VERTEX
  8
0
  6
CONTINUOUS
 10
4.415400
 20
2.012120
  0
SEQEND
  8
0
  0
SOLID
  8
0
 62
    15
 10
4.440480
 20
2.020040
 11
4.444880
 21
2.749560
 12
4.467320
 22
2.023120
 13
4.471280
 23
2.752640
  0
POLYLINE
  8
0
  6
CONTINUOUS
 66
     1
 40
0.000000
 41
0.000000
  0
VERTEX
  8
0
  6
CONTINUOUS
 10
4.440480
 20
2.020040
  0
VERTEX
  8
0
  6
CONTINUOUS
 10
4.444880
 20
2.749560
  0
VERTEX
  8
0
  6
CONTINUOUS
 10
4.471280
 20
2.752640
  0
VERTEX
  8
0
  6
CONTINUOUS
 10
4.467320
 20
2.023120
  0
VERTEX
  8
0
  6
CONTINUOUS
 10
4.440480
 20
2.020040
  0
SEQEND
  8
0
  0
SOLID
  8
0
 62
    15
 10
4.467320
 20
2.023120
 11
4.471280
 21
2.752640
 12
4.494160
 22
2.020480
 13
4.498120
 23
2.750000
  0
POLYLINE
  8
0
  6
CONTINUOUS
 66
     1
 40
0.000000
 41
0.000000
  0
VERTEX
  8
0
  6
CONTINUOUS
 10
4.467320
 20
2.023120
  0
VERTEX
  8
0
  6
CONTINUOUS
 10
4.471280
 20
2.752640
  0
VERTEX
  8
0
  6
CONTINUOUS
 10
4.498120
 20
2.750000
  0
VERTEX
  8
0
  6
CONTINUOUS
 10
4.494160
 20
2.020480
  0
VERTEX
  8
0
  6
CONTINUOUS
 10
4.467320
 20
2.023120
  0
SEQEND
  8
0
  0
SOLID
  8
0
 62
    15
 10
4.494160
 20
2.020480
 11
4.498120
 21
2.750000
 12
4.518800
 22
2.012560
 13
4.523200
 23
2.742080
  0
POLYLINE
  8
0
  6
CONTINUOUS
 66
     1
 40
0.000000
 41
0.000000
  0
VERTEX
  8
0
  6
CONTINUOUS
 10
4.494160
 20
2.020480
  0
VERTEX
  8
0
  6
CONTINUOUS
 10
4.498120
 20
2.750000
  0
VERTEX
  8
0
  6
CONTINUOUS
 10
4.523200
 20
2.742080
  0
VERTEX
  8
0
  6
CONTINUOUS
 10
4.518800
 20
2.012560
  0
VERTEX
  8
0
  6
CONTINUOUS
 10
4.494160
 20
2.020480
  0
SEQEND
  8
0
  0
SOLID
  8
0
 62
    15
 10
4.518800
 20
2.012560
 11
4.523200
 21
2.742080
 12
4.541680
 22
2.000240
 13
4.545640
 23
2.729760
  0
POLYLINE
  8
0
  6
CONTINUOUS
 66
     1
 40
0.000000
 41
0.000000
  0
VERTEX
  8
0
  6
CONTINUOUS
 10
4.518800
 20
2.012560
  0
VERTEX
  8
0
  6
CONTINUOUS
 10
4.523200
 20
2.742080
  0
VERTEX
  8
0
  6
CONTINUOUS
 10
4.545640
 20
2.729760
  0
VERTEX
  8
0
  6
CONTINUOUS
 10
4.541680
 20
2.000240
  0
VERTEX
  8
0
  6
CONTINUOUS
 10
4.518800
 20
2.012560
  0
SEQEND
  8
0
  0
SOLID
  8
0
 62
    15
 10
4.541680
 20
2.000240
 11
4.545640
 21
2.729760
 12
4.561480
 22
1.983960
 13
4.565440
 23
2.713480
  0
POLYLINE
  8
0
  6
CONTINUOUS
 66
     1
 40
0.000000
 41
0.000000
  0
VERTEX
  8
0
  6
CONTINUOUS
 10
4.541680
 20
2.000240
  0
VERTEX
  8
0
  6
CONTINUOUS
 10
4.545640
 20
2.729760
  0
VERTEX
  8
0
  6
CONTINUOUS
 10
4.565440
 20
2.713480
  0
VERTEX
  8
0
  6
CONTINUOUS
 10
4.561480
 20
1.983960
  0
VERTEX
  8
0
  6
CONTINUOUS
 10
4.541680
 20
2.000240
  0
SEQEND
  8
0
  0
SOLID
  8
0
 62
    15
 10
4.561480
 20
1.983960
 11
4.565440
 21
2.713480
 12
4.577760
 22
1.964160
 13
4.581720
 23
2.693680
  0
POLYLINE
  8
0
  6
CONTINUOUS
 66
     1
 40
0.000000
 41
0.000000
  0
VERTEX
  8
0
  6
CONTINUOUS
 10
4.561480
 20
1.983960
  0
VERTEX
  8
0
  6
CONTINUOUS
 10
4.565440
 20
2.713480
  0
VERTEX
  8
0
  6
CONTINUOUS
 10
4.581720
 20
2.693680
  0
VERTEX
  8
0
  6
CONTINUOUS
 10
4.577760
 20
1.964160
  0
VERTEX
  8
0
  6
CONTINUOUS
 10
4.561480
 20
1.983960
  0
SEQEND
  8
0
  0
SOLID
  8
0
 62
    15
 10
4.577760
 20
1.964160
 11
4.581720
 21
2.693680
 12
4.590080
 22
1.941280
 13
4.594040
 23
2.670800
  0
POLYLINE
  8
0
  6
CONTINUOUS
 66
     1
 40
0.000000
 41
0.000000
  0
VERTEX
  8
0
  6
CONTINUOUS
 10
4.577760
 20
1.964160
  0
VERTEX
  8
0
  6
CONTINUOUS
 10
4.581720
 20
2.693680
  0
VERTEX
  8
0
  6
CONTINUOUS
 10
4.594040
 20
2.670800
  0
VERTEX
  8
0
  6
CONTINUOUS
 10
4.590080
 20
1.941280
  0
VERTEX
  8
0
  6
CONTINUOUS
 10
4.577760
 20
1.964160
  0
SEQEND
  8
0
  0
SOLID
  8
0
 62
    15
 10
4.590080
 20
1.941280
 11
4.594040
 21
2.670800
 12
4.598000
 22
1.916640
 13
4.601960
 23
2.646160
  0
POLYLINE
  8
0
  6
CONTINUOUS
 66
     1
 40
0.000000
 41
0.000000
  0
VERTEX
  8
0
  6
CONTINUOUS
 10
4.590080
 20
1.941280
  0
VERTEX
  8
0
  6
CONTINUOUS
 10
4.594040
 20
2.670800
  0
VERTEX
  8
0
  6
CONTINUOUS
 10
4.601960
 20
2.646160
  0
VERTEX
  8
0
  6
CONTINUOUS
 10
4.598000
 20
1.916640
  0
VERTEX
  8
0
  6
CONTINUOUS
 10
4.590080
 20
1.941280
  0
SEQEND
  8
0
  0
SOLID
  8
0
 62
    15
 10
4.598880
 20
1.887600
 11
4.602840
 21
2.617120
 12
4.619560
 22
1.887600
 13
4.623520
 23
2.617120
  0
POLYLINE
  8
0
  6
CONTINUOUS
 66
     1
 40
0.000000
 41
0.000000
  0
VERTEX
  8
0
  6
CONTINUOUS
 10
4.598880
 20
1.887600
  0
VERTEX
  8
0
  6
CONTINUOUS
 10
4.602840
 20
2.617120
  0
VERTEX
  8
0
  6
CONTINUOUS
 10
4.623520
 20
2.617120
  0
VERTEX
  8
0
  6
CONTINUOUS
 10
4.619560
 20
1.887600
  0
VERTEX
  8
0
  6
CONTINUOUS
 10
4.598880
 20
1.887600
  0
SEQEND
  8
0
  0
SOLID
  8
0
 62
    15
 10
4.598000
 20
1.916640
 11
4.601960
 21
2.646160
 12
4.600640
 22
1.889800
 13
4.604600
 23
2.619320
  0
POLYLINE
  8
0
  6
CONTINUOUS
 66
     1
 40
0.000000
 41
0.000000
  0
VERTEX
  8
0
  6
CONTINUOUS
 10
4.598000
 20
1.916640
  0
VERTEX
  8
0
  6
CONTINUOUS
 10
4.601960
 20
2.646160
  0
VERTEX
  8
0
  6
CONTINUOUS
 10
4.604600
 20
2.619320
  0
VERTEX
  8
0
  6
CONTINUOUS
 10
4.600640
 20
1.889800
  0
VERTEX
  8
0
  6
CONTINUOUS
 10
4.598000
 20
1.916640
  0
SEQEND
  8
0
  0
SOLID
  8
0
 62
    15
 10
4.619560
 20
1.887600
 11
4.623520
 21
2.617120
 12
4.622200
 22
1.914440
 13
4.626160
 23
2.643960
  0
POLYLINE
  8
0
  6
CONTINUOUS
 66
     1
 40
0.000000
 41
0.000000
  0
VERTEX
  8
0
  6
CONTINUOUS
 10
4.619560
 20
1.887600
  0
VERTEX
  8
0
  6
CONTINUOUS
 10
4.623520
 20
2.617120
  0
VERTEX
  8
0
  6
CONTINUOUS
 10
4.626160
 20
2.643960
  0
VERTEX
  8
0
  6
CONTINUOUS
 10
4.622200
 20
1.914440
  0
VERTEX
  8
0
  6
CONTINUOUS
 10
4.619560
 20
1.887600
  0
SEQEND
  8
0
  0
SOLID
  8
0
 62
    15
 10
4.622200
 20
1.914440
 11
4.626160
 21
2.643960
 12
4.630560
 22
1.939520
 13
4.634520
 23
2.669040
  0
POLYLINE
  8
0
  6
CONTINUOUS
 66
     1
 40
0.000000
 41
0.000000
  0
VERTEX
  8
0
  6
CONTINUOUS
 10
4.622200
 20
1.914440
  0
VERTEX
  8
0
  6
CONTINUOUS
 10
4.626160
 20
2.643960
  0
VERTEX
  8
0
  6
CONTINUOUS
 10
4.634520
 20
2.669040
  0
VERTEX
  8
0
  6
CONTINUOUS
 10
4.630560
 20
1.939520
  0
VERTEX
  8
0
  6
CONTINUOUS
 10
4.622200
 20
1.914440
  0
SEQEND
  8
0
  0
SOLID
  8
0
 62
    15
 10
4.630560
 20
1.939520
 11
4.634520
 21
2.669040
 12
4.643320
 22
1.962400
 13
4.647280
 23
2.691920
  0
POLYLINE
  8
0
  6
CONTINUOUS
 66
     1
 40
0.000000
 41
0.000000
  0
VERTEX
  8
0
  6
CONTINUOUS
 10
4.630560
 20
1.939520
  0
VERTEX
  8
0
  6
CONTINUOUS
 10
4.634520
 20
2.669040
  0
VERTEX
  8
0
  6
CONTINUOUS
 10
4.647280
 20
2.691920
  0
VERTEX
  8
0
  6
CONTINUOUS
 10
4.643320
 20
1.962400
  0
VERTEX
  8
0
  6
CONTINUOUS
 10
4.630560
 20
1.939520
  0
SEQEND
  8
0
  0
SOLID
  8
0
 62
    15
 10
4.643320
 20
1.962400
 11
4.647280
 21
2.691920
 12
4.660040
 22
1.982640
 13
4.664000
 23
2.712160
  0
POLYLINE
  8
0
  6
CONTINUOUS
 66
     1
 40
0.000000
 41
0.000000
  0
VERTEX
  8
0
  6
CONTINUOUS
 10
4.643320
 20
1.962400
  0
VERTEX
  8
0
  6
CONTINUOUS
 10
4.647280
 20
2.691920
  0
VERTEX
  8
0
  6
CONTINUOUS
 10
4.664000
 20
2.712160
  0
VERTEX
  8
0
  6
CONTINUOUS
 10
4.660040
 20
1.982640
  0
VERTEX
  8
0
  6
CONTINUOUS
 10
4.643320
 20
1.962400
  0
SEQEND
  8
0
  0
SOLID
  8
0
 62
    15
 10
4.660040
 20
1.982640
 11
4.664000
 21
2.712160
 12
4.679840
 22
1.999360
 13
4.684240
 23
2.728880
  0
POLYLINE
  8
0
  6
CONTINUOUS
 66
     1
 40
0.000000
 41
0.000000
  0
VERTEX
  8
0
  6
CONTINUOUS
 10
4.660040
 20
1.982640
  0
VERTEX
  8
0
  6
CONTINUOUS
 10
4.664000
 20
2.712160
  0
VERTEX
  8
0
  6
CONTINUOUS
 10
4.684240
 20
2.728880
  0
VERTEX
  8
0
  6
CONTINUOUS
 10
4.679840
 20
1.999360
  0
VERTEX
  8
0
  6
CONTINUOUS
 10
4.660040
 20
1.982640
  0
SEQEND
  8
0
  0
SOLID
  8
0
 62
    15
 10
4.679840
 20
1.999360
 11
4.684240
 21
2.728880
 12
4.703160
 22
2.012120
 13
4.707120
 23
2.741640
  0
POLYLINE
  8
0
  6
CONTINUOUS
 66
     1
 40
0.000000
 41
0.000000
  0
VERTEX
  8
0
  6
CONTINUOUS
 10
4.679840
 20
1.999360
  0
VERTEX
  8
0
  6
CONTINUOUS
 10
4.684240
 20
2.728880
  0
VERTEX
  8
0
  6
CONTINUOUS
 10
4.707120
 20
2.741640
  0
VERTEX
  8
0
  6
CONTINUOUS
 10
4.703160
 20
2.012120
  0
VERTEX
  8
0
  6
CONTINUOUS
 10
4.679840
 20
1.999360
  0
SEQEND
  8
0
  0
SOLID
  8
0
 62
    15
 10
4.703160
 20
2.012120
 11
4.707120
 21
2.741640
 12
4.728240
 22
2.020040
 13
4.732200
 23
2.749560
  0
POLYLINE
  8
0
  6
CONTINUOUS
 66
     1
 40
0.000000
 41
0.000000
  0
VERTEX
  8
0
  6
CONTINUOUS
 10
4.703160
 20
2.012120
  0
VERTEX
  8
0
  6
CONTINUOUS
 10
4.707120
 20
2.741640
  0
VERTEX
  8
0
  6
CONTINUOUS
 10
4.732200
 20
2.749560
  0
VERTEX
  8
0
  6
CONTINUOUS
 10
4.728240
 20
2.020040
  0
VERTEX
  8
0
  6
CONTINUOUS
 10
4.703160
 20
2.012120
  0
SEQEND
  8
0
  0
SOLID
  8
0
 62
    15
 10
4.728240
 20
2.020040
 11
4.732200
 21
2.749560
 12
4.755080
 22
2.023120
 13
4.759040
 23
2.752640
  0
POLYLINE
  8
0
  6
CONTINUOUS
 66
     1
 40
0.000000
 41
0.000000
  0
VERTEX
  8
0
  6
CONTINUOUS
 10
4.728240
 20
2.020040
  0
VERTEX
  8
0
  6
CONTINUOUS
 10
4.732200
 20
2.749560
  0
VERTEX
  8
0
  6
CONTINUOUS
 10
4.759040
 20
2.752640
  0
VERTEX
  8
0
  6
CONTINUOUS
 10
4.755080
 20
2.023120
  0
VERTEX
  8
0
  6
CONTINUOUS
 10
4.728240
 20
2.020040
  0
SEQEND
  8
0
  0
SOLID
  8
0
 62
    15
 10
4.755080
 20
2.023120
 11
4.759040
 21
2.752640
 12
4.781480
 22
2.020480
 13
4.785440
 23
2.750000
  0
POLYLINE
  8
0
  6
CONTINUOUS
 66
     1
 40
0.000000
 41
0.000000
  0
VERTEX
  8
0
  6
CONTINUOUS
 10
4.755080
 20
2.023120
  0
VERTEX
  8
0
  6
CONTINUOUS
 10
4.759040
 20
2.752640
  0
VERTEX
  8
0
  6
CONTINUOUS
 10
4.785440
 20
2.750000
  0
VERTEX
  8
0
  6
CONTINUOUS
 10
4.781480
 20
2.020480
  0
VERTEX
  8
0
  6
CONTINUOUS
 10
4.755080
 20
2.023120
  0
SEQEND
  8
0
  0
SOLID
  8
0
 62
    15
 10
4.781480
 20
2.020480
 11
4.785440
 21
2.750000
 12
4.806560
 22
2.012560
 13
4.810520
 23
2.742080
  0
POLYLINE
  8
0
  6
CONTINUOUS
 66
     1
 40
0.000000
 41
0.000000
  0
VERTEX
  8
0
  6
CONTINUOUS
 10
4.781480
 20
2.020480
  0
VERTEX
  8
0
  6
CONTINUOUS
 10
4.785440
 20
2.750000
  0
VERTEX
  8
0
  6
CONTINUOUS
 10
4.810520
 20
2.742080
  0
VERTEX
  8
0
  6
CONTINUOUS
 10
4.806560
 20
2.012560
  0
VERTEX
  8
0
  6
CONTINUOUS
 10
4.781480
 20
2.020480
  0
SEQEND
  8
0
  0
SOLID
  8
0
 62
    15
 10
4.806560
 20
2.012560
 11
4.810520
 21
2.742080
 12
4.829000
 22
2.000240
 13
4.833400
 23
2.729760
  0
POLYLINE
  8
0
  6
CONTINUOUS
 66
     1
 40
0.000000
 41
0.000000
  0
VERTEX
  8
0
  6
CONTINUOUS
 10
4.806560
 20
2.012560
  0
VERTEX
  8
0
  6
CONTINUOUS
 10
4.810520
 20
2.742080
  0
VERTEX
  8
0
  6
CONTINUOUS
 10
4.833400
 20
2.729760
  0
VERTEX
  8
0
  6
CONTINUOUS
 10
4.829000
 20
2.000240
  0
VERTEX
  8
0
  6
CONTINUOUS
 10
4.806560
 20
2.012560
  0
SEQEND
  8
0
  0
SOLID
  8
0
 62
    15
 10
4.829000
 20
2.000240
 11
4.833400
 21
2.729760
 12
4.848800
 22
1.983960
 13
4.852760
 23
2.713480
  0
POLYLINE
  8
0
  6
CONTINUOUS
 66
     1
 40
0.000000
 41
0.000000
  0
VERTEX
  8
0
  6
CONTINUOUS
 10
4.829000
 20
2.000240
  0
VERTEX
  8
0
  6
CONTINUOUS
 10
4.833400
 20
2.729760
  0
VERTEX
  8
0
  6
CONTINUOUS
 10
4.852760
 20
2.713480
  0
VERTEX
  8
0
  6
CONTINUOUS
 10
4.848800
 20
1.983960
  0
VERTEX
  8
0
  6
CONTINUOUS
 10
4.829000
 20
2.000240
  0
SEQEND
  8
0
  0
SOLID
  8
0
 62
    15
 10
4.848800
 20
1.983960
 11
4.852760
 21
2.713480
 12
4.865080
 22
1.964160
 13
4.869480
 23
2.693680
  0
POLYLINE
  8
0
  6
CONTINUOUS
 66
     1
 40
0.000000
 41
0.000000
  0
VERTEX
  8
0
  6
CONTINUOUS
 10
4.848800
 20
1.983960
  0
VERTEX
  8
0
  6
CONTINUOUS
 10
4.852760
 20
2.713480
  0
VERTEX
  8
0
  6
CONTINUOUS
 10
4.869480
 20
2.693680
  0
VERTEX
  8
0
  6
CONTINUOUS
 10
4.865080
 20
1.964160
  0
VERTEX
  8
0
  6
CONTINUOUS
 10
4.848800
 20
1.983960
  0
SEQEND
  8
0
  0
SOLID
  8
0
 62
    15
 10
4.865080
 20
1.964160
 11
4.869480
 21
2.693680
 12
4.877840
 22
1.941280
 13
4.881800
 23
2.670800
  0
POLYLINE
  8
0
  6
CONTINUOUS
 66
     1
 40
0.000000
 41
0.000000
  0
VERTEX
  8
0
  6
CONTINUOUS
 10
4.865080
 20
1.964160
  0
VERTEX
  8
0
  6
CONTINUOUS
 10
4.869480
 20
2.693680
  0
VERTEX
  8
0
  6
CONTINUOUS
 10
4.881800
 20
2.670800
  0
VERTEX
  8
0
  6
CONTINUOUS
 10
4.877840
 20
1.941280
  0
VERTEX
  8
0
  6
CONTINUOUS
 10
4.865080
 20
1.964160
  0
SEQEND
  8
0
  0
SOLID
  8
0
 62
    15
 10
4.877840
 20
1.941280
 11
4.881800
 21
2.670800
 12
4.885320
 22
1.916640
 13
4.889720
 23
2.646160
  0
POLYLINE
  8
0
  6
CONTINUOUS
 66
     1
 40
0.000000
 41
0.000000
  0
VERTEX
  8
0
  6
CONTINUOUS
 10
4.877840
 20
1.941280
  0
VERTEX
  8
0
  6
CONTINUOUS
 10
4.881800
 20
2.670800
  0
VERTEX
  8
0
  6
CONTINUOUS
 10
4.889720
 20
2.646160
  0
VERTEX
  8
0
  6
CONTINUOUS
 10
4.885320
 20
1.916640
  0
VERTEX
  8
0
  6
CONTINUOUS
 10
4.877840
 20
1.941280
  0
SEQEND
  8
0
  0
SOLID
  8
0
 62
    15
 10
2.492600
 20
1.787720
 11
2.496560
 21
2.517240
 12
2.564320
 22
1.790800
 13
2.568280
 23
2.520320
  0
POLYLINE
  8
0
  6
CONTINUOUS
 66
     1
 40
0.000000
 41
0.000000
  0
VERTEX
  8
0
  6
CONTINUOUS
 10
2.492600
 20
1.787720
  0
VERTEX
  8
0
  6
CONTINUOUS
 10
2.496560
 20
2.517240
  0
VERTEX
  8
0
  6
CONTINUOUS
 10
2.568280
 20
2.520320
  0
VERTEX
  8
0
  6
CONTINUOUS
 10
2.564320
 20
1.790800
  0
VERTEX
  8
0
  6
CONTINUOUS
 10
2.492600
 20
1.787720
  0
SEQEND
  8
0
  0
SOLID
  8
0
 62
    15
 10
4.888400
 20
1.889800
 11
4.892360
 21
2.619320
 12
4.888400
 22
1.887600
 13
4.892360
 23
2.617120
  0
POLYLINE
  8
0
  6
CONTINUOUS
 66
     1
 40
0.000000
 41
0.000000
  0
VERTEX
  8
0
  6
CONTINUOUS
 10
4.888400
 20
1.889800
  0
VERTEX
  8
0
  6
CONTINUOUS
 10
4.892360
 20
2.619320
  0
VERTEX
  8
0
  6
CONTINUOUS
 10
4.892360
 20
2.617120
  0
VERTEX
  8
0
  6
CONTINUOUS
 10
4.888400
 20
1.887600
  0
VERTEX
  8
0
  6
CONTINUOUS
 10
4.888400
 20
1.889800
  0
SEQEND
  8
0
  0
SOLID
  8
0
 62
    15
 10
4.888400
 20
1.887600
 11
4.892360
 21
2.617120
 12
4.906880
 22
1.887600
 13
4.910840
 23
2.617120
  0
POLYLINE
  8
0
  6
CONTINUOUS
 66
     1
 40
0.000000
 41
0.000000
  0
VERTEX
  8
0
  6
CONTINUOUS
 10
4.888400
 20
1.887600
  0
VERTEX
  8
0
  6
CONTINUOUS
 10
4.892360
 20
2.617120
  0
VERTEX
  8
0
  6
CONTINUOUS
 10
4.910840
 20
2.617120
  0
VERTEX
  8
0
  6
CONTINUOUS
 10
4.906880
 20
1.887600
  0
VERTEX
  8
0
  6
CONTINUOUS
 10
4.888400
 20
1.887600
  0
SEQEND
  8
0
  0
SOLID
  8
0
 62
    15
 10
4.906880
 20
1.887600
 11
4.910840
 21
2.617120
 12
4.909960
 22
1.914440
 13
4.913920
 23
2.643960
  0
POLYLINE
  8
0
  6
CONTINUOUS
 66
     1
 40
0.000000
 41
0.000000
  0
VERTEX
  8
0
  6
CONTINUOUS
 10
4.906880
 20
1.887600
  0
VERTEX
  8
0
  6
CONTINUOUS
 10
4.910840
 20
2.617120
  0
VERTEX
  8
0
  6
CONTINUOUS
 10
4.913920
 20
2.643960
  0
VERTEX
  8
0
  6
CONTINUOUS
 10
4.909960
 20
1.914440
  0
VERTEX
  8
0
  6
CONTINUOUS
 10
4.906880
 20
1.887600
  0
SEQEND
  8
0
  0
SOLID
  8
0
 62
    15
 10
4.909960
 20
1.914440
 11
4.913920
 21
2.643960
 12
4.917880
 22
1.939520
 13
4.921840
 23
2.669040
  0
POLYLINE
  8
0
  6
CONTINUOUS
 66
     1
 40
0.000000
 41
0.000000
  0
VERTEX
  8
0
  6
CONTINUOUS
 10
4.909960
 20
1.914440
  0
VERTEX
  8
0
  6
CONTINUOUS
 10
4.913920
 20
2.643960
  0
VERTEX
  8
0
  6
CONTINUOUS
 10
4.921840
 20
2.669040
  0
VERTEX
  8
0
  6
CONTINUOUS
 10
4.917880
 20
1.939520
  0
VERTEX
  8
0
  6
CONTINUOUS
 10
4.909960
 20
1.914440
  0
SEQEND
  8
0
  0
SOLID
  8
0
 62
    15
 10
4.917880
 20
1.939520
 11
4.921840
 21
2.669040
 12
4.930640
 22
1.962400
 13
4.934600
 23
2.691920
  0
POLYLINE
  8
0
  6
CONTINUOUS
 66
     1
 40
0.000000
 41
0.000000
  0
VERTEX
  8
0
  6
CONTINUOUS
 10
4.917880
 20
1.939520
  0
VERTEX
  8
0
  6
CONTINUOUS
 10
4.921840
 20
2.669040
  0
VERTEX
  8
0
  6
CONTINUOUS
 10
4.934600
 20
2.691920
  0
VERTEX
  8
0
  6
CONTINUOUS
 10
4.930640
 20
1.962400
  0
VERTEX
  8
0
  6
CONTINUOUS
 10
4.917880
 20
1.939520
  0
SEQEND
  8
0
  0
SOLID
  8
0
 62
    15
 10
4.930640
 20
1.962400
 11
4.934600
 21
2.691920
 12
4.947360
 22
1.982640
 13
4.951320
 23
2.712160
  0
POLYLINE
  8
0
  6
CONTINUOUS
 66
     1
 40
0.000000
 41
0.000000
  0
VERTEX
  8
0
  6
CONTINUOUS
 10
4.930640
 20
1.962400
  0
VERTEX
  8
0
  6
CONTINUOUS
 10
4.934600
 20
2.691920
  0
VERTEX
  8
0
  6
CONTINUOUS
 10
4.951320
 20
2.712160
  0
VERTEX
  8
0
  6
CONTINUOUS
 10
4.947360
 20
1.982640
  0
VERTEX
  8
0
  6
CONTINUOUS
 10
4.930640
 20
1.962400
  0
SEQEND
  8
0
  0
SOLID
  8
0
 62
    15
 10
4.947360
 20
1.982640
 11
4.951320
 21
2.712160
 12
4.967600
 22
1.999360
 13
4.971560
 23
2.728880
  0
POLYLINE
  8
0
  6
CONTINUOUS
 66
     1
 40
0.000000
 41
0.000000
  0
VERTEX
  8
0
  6
CONTINUOUS
 10
4.947360
 20
1.982640
  0
VERTEX
  8
0
  6
CONTINUOUS
 10
4.951320
 20
2.712160
  0
VERTEX
  8
0
  6
CONTINUOUS
 10
4.971560
 20
2.728880
  0
VERTEX
  8
0
  6
CONTINUOUS
 10
4.967600
 20
1.999360
  0
VERTEX
  8
0
  6
CONTINUOUS
 10
4.947360
 20
1.982640
  0
SEQEND
  8
0
  0
SOLID
  8
0
 62
    15
 10
4.967600
 20
1.999360
 11
4.971560
 21
2.728880
 12
4.990480
 22
2.012120
 13
4.994440
 23
2.741640
  0
POLYLINE
  8
0
  6
CONTINUOUS
 66
     1
 40
0.000000
 41
0.000000
  0
VERTEX
  8
0
  6
CONTINUOUS
 10
4.967600
 20
1.999360
  0
VERTEX
  8
0
  6
CONTINUOUS
 10
4.971560
 20
2.728880
  0
VERTEX
  8
0
  6
CONTINUOUS
 10
4.994440
 20
2.741640
  0
VERTEX
  8
0
  6
CONTINUOUS
 10
4.990480
 20
2.012120
  0
VERTEX
  8
0
  6
CONTINUOUS
 10
4.967600
 20
1.999360
  0
SEQEND
  8
0
  0
SOLID
  8
0
 62
    15
 10
4.990480
 20
2.012120
 11
4.994440
 21
2.741640
 12
5.015560
 22
2.020040
 13
5.019520
 23
2.749560
  0
POLYLINE
  8
0
  6
CONTINUOUS
 66
     1
 40
0.000000
 41
0.000000
  0
VERTEX
  8
0
  6
CONTINUOUS
 10
4.990480
 20
2.012120
  0
VERTEX
  8
0
  6
CONTINUOUS
 10
4.994440
 20
2.741640
  0
VERTEX
  8
0
  6
CONTINUOUS
 10
5.019520
 20
2.749560
  0
VERTEX
  8
0
  6
CONTINUOUS
 10
5.015560
 20
2.020040
  0
VERTEX
  8
0
  6
CONTINUOUS
 10
4.990480
 20
2.012120
  0
SEQEND
  8
0
  0
SOLID
  8
0
 62
    15
 10
5.015560
 20
2.020040
 11
5.019520
 21
2.749560
 12
5.042400
 22
2.023120
 13
5.046360
 23
2.752640
  0
POLYLINE
  8
0
  6
CONTINUOUS
 66
     1
 40
0.000000
 41
0.000000
  0
VERTEX
  8
0
  6
CONTINUOUS
 10
5.015560
 20
2.020040
  0
VERTEX
  8
0
  6
CONTINUOUS
 10
5.019520
 20
2.749560
  0
VERTEX
  8
0
  6
CONTINUOUS
 10
5.046360
 20
2.752640
  0
VERTEX
  8
0
  6
CONTINUOUS
 10
5.042400
 20
2.023120
  0
VERTEX
  8
0
  6
CONTINUOUS
 10
5.015560
 20
2.020040
  0
SEQEND
  8
0
  0
SOLID
  8
0
 62
    15
 10
5.042400
 20
2.023120
 11
5.046360
 21
2.752640
 12
5.068800
 22
2.020480
 13
5.073200
 23
2.750000
  0
POLYLINE
  8
0
  6
CONTINUOUS
 66
     1
 40
0.000000
 41
0.000000
  0
VERTEX
  8
0
  6
CONTINUOUS
 10
5.042400
 20
2.023120
  0
VERTEX
  8
0
  6
CONTINUOUS
 10
5.046360
 20
2.752640
  0
VERTEX
  8
0
  6
CONTINUOUS
 10
5.073200
 20
2.750000
  0
VERTEX
  8
0
  6
CONTINUOUS
 10
5.068800
 20
2.020480
  0
VERTEX
  8
0
  6
CONTINUOUS
 10
5.042400
 20
2.023120
  0
SEQEND
  8
0
  0
SOLID
  8
0
 62
    15
 10
5.068800
 20
2.020480
 11
5.073200
 21
2.750000
 12
5.093880
 22
2.012560
 13
5.097840
 23
2.742080
  0
POLYLINE
  8
0
  6
CONTINUOUS
 66
     1
 40
0.000000
 41
0.000000
  0
VERTEX
  8
0
  6
CONTINUOUS
 10
5.068800
 20
2.020480
  0
VERTEX
  8
0
  6
CONTINUOUS
 10
5.073200
 20
2.750000
  0
VERTEX
  8
0
  6
CONTINUOUS
 10
5.097840
 20
2.742080
  0
VERTEX
  8
0
  6
CONTINUOUS
 10
5.093880
 20
2.012560
  0
VERTEX
  8
0
  6
CONTINUOUS
 10
5.068800
 20
2.020480
  0
SEQEND
  8
0
  0
SOLID
  8
0
 62
    15
 10
5.093880
 20
2.012560
 11
5.097840
 21
2.742080
 12
5.116760
 22
2.000240
 13
5.120720
 23
2.729760
  0
POLYLINE
  8
0
  6
CONTINUOUS
 66
     1
 40
0.000000
 41
0.000000
  0
VERTEX
  8
0
  6
CONTINUOUS
 10
5.093880
 20
2.012560
  0
VERTEX
  8
0
  6
CONTINUOUS
 10
5.097840
 20
2.742080
  0
VERTEX
  8
0
  6
CONTINUOUS
 10
5.120720
 20
2.729760
  0
VERTEX
  8
0
  6
CONTINUOUS
 10
5.116760
 20
2.000240
  0
VERTEX
  8
0
  6
CONTINUOUS
 10
5.093880
 20
2.012560
  0
SEQEND
  8
0
  0
SOLID
  8
0
 62
    15
 10
5.116760
 20
2.000240
 11
5.120720
 21
2.729760
 12
5.136560
 22
1.983960
 13
5.140520
 23
2.713480
  0
POLYLINE
  8
0
  6
CONTINUOUS
 66
     1
 40
0.000000
 41
0.000000
  0
VERTEX
  8
0
  6
CONTINUOUS
 10
5.116760
 20
2.000240
  0
VERTEX
  8
0
  6
CONTINUOUS
 10
5.120720
 20
2.729760
  0
VERTEX
  8
0
  6
CONTINUOUS
 10
5.140520
 20
2.713480
  0
VERTEX
  8
0
  6
CONTINUOUS
 10
5.136560
 20
1.983960
  0
VERTEX
  8
0
  6
CONTINUOUS
 10
5.116760
 20
2.000240
  0
SEQEND
  8
0
  0
SOLID
  8
0
 62
    15
 10
5.136560
 20
1.983960
 11
5.140520
 21
2.713480
 12
5.152840
 22
1.964160
 13
5.156800
 23
2.693680
  0
POLYLINE
  8
0
  6
CONTINUOUS
 66
     1
 40
0.000000
 41
0.000000
  0
VERTEX
  8
0
  6
CONTINUOUS
 10
5.136560
 20
1.983960
  0
VERTEX
  8
0
  6
CONTINUOUS
 10
5.140520
 20
2.713480
  0
VERTEX
  8
0
  6
CONTINUOUS
 10
5.156800
 20
2.693680
  0
VERTEX
  8
0
  6
CONTINUOUS
 10
5.152840
 20
1.964160
  0
VERTEX
  8
0
  6
CONTINUOUS
 10
5.136560
 20
1.983960
  0
SEQEND
  8
0
  0
SOLID
  8
0
 62
    15
 10
5.152840
 20
1.964160
 11
5.156800
 21
2.693680
 12
5.165160
 22
1.941280
 13
5.169120
 23
2.670800
  0
POLYLINE
  8
0
  6
CONTINUOUS
 66
     1
 40
0.000000
 41
0.000000
  0
VERTEX
  8
0
  6
CONTINUOUS
 10
5.152840
 20
1.964160
  0
VERTEX
  8
0
  6
CONTINUOUS
 10
5.156800
 20
2.693680
  0
VERTEX
  8
0
  6
CONTINUOUS
 10
5.169120
 20
2.670800
  0
VERTEX
  8
0
  6
CONTINUOUS
 10
5.165160
 20
1.941280
  0
VERTEX
  8
0
  6
CONTINUOUS
 10
5.152840
 20
1.964160
  0
SEQEND
  8
0
  0
SOLID
  8
0
 62
    15
 10
5.165160
 20
1.941280
 11
5.169120
 21
2.670800
 12
5.173080
 22
1.916640
 13
5.177040
 23
2.646160
  0
POLYLINE
  8
0
  6
CONTINUOUS
 66
     1
 40
0.000000
 41
0.000000
  0
VERTEX
  8
0
  6
CONTINUOUS
 10
5.165160
 20
1.941280
  0
VERTEX
  8
0
  6
CONTINUOUS
 10
5.169120
 20
2.670800
  0
VERTEX
  8
0
  6
CONTINUOUS
 10
5.177040
 20
2.646160
  0
VERTEX
  8
0
  6
CONTINUOUS
 10
5.173080
 20
1.916640
  0
VERTEX
  8
0
  6
CONTINUOUS
 10
5.165160
 20
1.941280
  0
SEQEND
  8
0
  0
SOLID
  8
0
 62
    15
 10
5.175720
 20
1.887600
 11
5.179680
 21
2.617120
 12
5.194640
 22
1.887600
 13
5.198600
 23
2.617120
  0
POLYLINE
  8
0
  6
CONTINUOUS
 66
     1
 40
0.000000
 41
0.000000
  0
VERTEX
  8
0
  6
CONTINUOUS
 10
5.175720
 20
1.887600
  0
VERTEX
  8
0
  6
CONTINUOUS
 10
5.179680
 20
2.617120
  0
VERTEX
  8
0
  6
CONTINUOUS
 10
5.198600
 20
2.617120
  0
VERTEX
  8
0
  6
CONTINUOUS
 10
5.194640
 20
1.887600
  0
VERTEX
  8
0
  6
CONTINUOUS
 10
5.175720
 20
1.887600
  0
SEQEND
  8
0
  0
SOLID
  8
0
 62
    15
 10
5.175720
 20
1.889800
 11
5.179680
 21
2.619320
 12
5.175720
 22
1.887600
 13
5.179680
 23
2.617120
  0
POLYLINE
  8
0
  6
CONTINUOUS
 66
     1
 40
0.000000
 41
0.000000
  0
VERTEX
  8
0
  6
CONTINUOUS
 10
5.175720
 20
1.889800
  0
VERTEX
  8
0
  6
CONTINUOUS
 10
5.179680
 20
2.619320
  0
VERTEX
  8
0
  6
CONTINUOUS
 10
5.179680
 20
2.617120
  0
VERTEX
  8
0
  6
CONTINUOUS
 10
5.175720
 20
1.887600
  0
VERTEX
  8
0
  6
CONTINUOUS
 10
5.175720
 20
1.889800
  0
SEQEND
  8
0
  0
SOLID
  8
0
 62
    15
 10
5.173080
 20
1.916640
 11
5.177040
 21
2.646160
 12
5.175720
 22
1.889800
 13
5.179680
 23
2.619320
  0
POLYLINE
  8
0
  6
CONTINUOUS
 66
     1
 40
0.000000
 41
0.000000
  0
VERTEX
  8
0
  6
CONTINUOUS
 10
5.173080
 20
1.916640
  0
VERTEX
  8
0
  6
CONTINUOUS
 10
5.177040
 20
2.646160
  0
VERTEX
  8
0
  6
CONTINUOUS
 10
5.179680
 20
2.619320
  0
VERTEX
  8
0
  6
CONTINUOUS
 10
5.175720
 20
1.889800
  0
VERTEX
  8
0
  6
CONTINUOUS
 10
5.173080
 20
1.916640
  0
SEQEND
  8
0
  0
SOLID
  8
0
 62
    15
 10
5.194640
 20
1.889800
 11
5.198600
 21
2.619320
 12
5.197280
 22
1.916640
 13
5.201240
 23
2.646160
  0
POLYLINE
  8
0
  6
CONTINUOUS
 66
     1
 40
0.000000
 41
0.000000
  0
VERTEX
  8
0
  6
CONTINUOUS
 10
5.194640
 20
1.889800
  0
VERTEX
  8
0
  6
CONTINUOUS
 10
5.198600
 20
2.619320
  0
VERTEX
  8
0
  6
CONTINUOUS
 10
5.201240
 20
2.646160
  0
VERTEX
  8
0
  6
CONTINUOUS
 10
5.197280
 20
1.916640
  0
VERTEX
  8
0
  6
CONTINUOUS
 10
5.194640
 20
1.889800
  0
SEQEND
  8
0
  0
SOLID
  8
0
 62
    15
 10
5.197280
 20
1.916640
 11
5.201240
 21
2.646160
 12
5.205200
 22
1.941720
 13
5.209600
 23
2.671240
  0
POLYLINE
  8
0
  6
CONTINUOUS
 66
     1
 40
0.000000
 41
0.000000
  0
VERTEX
  8
0
  6
CONTINUOUS
 10
5.197280
 20
1.916640
  0
VERTEX
  8
0
  6
CONTINUOUS
 10
5.201240
 20
2.646160
  0
VERTEX
  8
0
  6
CONTINUOUS
 10
5.209600
 20
2.671240
  0
VERTEX
  8
0
  6
CONTINUOUS
 10
5.205200
 20
1.941720
  0
VERTEX
  8
0
  6
CONTINUOUS
 10
5.197280
 20
1.916640
  0
SEQEND
  8
0
  0
SOLID
  8
0
 62
    15
 10
5.205200
 20
1.941720
 11
5.209600
 21
2.671240
 12
5.217960
 22
1.964600
 13
5.222360
 23
2.694120
  0
POLYLINE
  8
0
  6
CONTINUOUS
 66
     1
 40
0.000000
 41
0.000000
  0
VERTEX
  8
0
  6
CONTINUOUS
 10
5.205200
 20
1.941720
  0
VERTEX
  8
0
  6
CONTINUOUS
 10
5.209600
 20
2.671240
  0
VERTEX
  8
0
  6
CONTINUOUS
 10
5.222360
 20
2.694120
  0
VERTEX
  8
0
  6
CONTINUOUS
 10
5.217960
 20
1.964600
  0
VERTEX
  8
0
  6
CONTINUOUS
 10
5.205200
 20
1.941720
  0
SEQEND
  8
0
  0
SOLID
  8
0
 62
    15
 10
5.217960
 20
1.964600
 11
5.222360
 21
2.694120
 12
5.234680
 22
1.984840
 13
5.239080
 23
2.714360
  0
POLYLINE
  8
0
  6
CONTINUOUS
 66
     1
 40
0.000000
 41
0.000000
  0
VERTEX
  8
0
  6
CONTINUOUS
 10
5.217960
 20
1.964600
  0
VERTEX
  8
0
  6
CONTINUOUS
 10
5.222360
 20
2.694120
  0
VERTEX
  8
0
  6
CONTINUOUS
 10
5.239080
 20
2.714360
  0
VERTEX
  8
0
  6
CONTINUOUS
 10
5.234680
 20
1.984840
  0
VERTEX
  8
0
  6
CONTINUOUS
 10
5.217960
 20
1.964600
  0
SEQEND
  8
0
  0
SOLID
  8
0
 62
    15
 10
5.234680
 20
1.984840
 11
5.239080
 21
2.714360
 12
5.254920
 22
2.001560
 13
5.258880
 23
2.731080
  0
POLYLINE
  8
0
  6
CONTINUOUS
 66
     1
 40
0.000000
 41
0.000000
  0
VERTEX
  8
0
  6
CONTINUOUS
 10
5.234680
 20
1.984840
  0
VERTEX
  8
0
  6
CONTINUOUS
 10
5.239080
 20
2.714360
  0
VERTEX
  8
0
  6
CONTINUOUS
 10
5.258880
 20
2.731080
  0
VERTEX
  8
0
  6
CONTINUOUS
 10
5.254920
 20
2.001560
  0
VERTEX
  8
0
  6
CONTINUOUS
 10
5.234680
 20
1.984840
  0
SEQEND
  8
0
  0
SOLID
  8
0
 62
    15
 10
5.254920
 20
2.001560
 11
5.258880
 21
2.731080
 12
5.277800
 22
2.014320
 13
5.282200
 23
2.743840
  0
POLYLINE
  8
0
  6
CONTINUOUS
 66
     1
 40
0.000000
 41
0.000000
  0
VERTEX
  8
0
  6
CONTINUOUS
 10
5.254920
 20
2.001560
  0
VERTEX
  8
0
  6
CONTINUOUS
 10
5.258880
 20
2.731080
  0
VERTEX
  8
0
  6
CONTINUOUS
 10
5.282200
 20
2.743840
  0
VERTEX
  8
0
  6
CONTINUOUS
 10
5.277800
 20
2.014320
  0
VERTEX
  8
0
  6
CONTINUOUS
 10
5.254920
 20
2.001560
  0
SEQEND
  8
0
  0
SOLID
  8
0
 62
    15
 10
5.277800
 20
2.014320
 11
5.282200
 21
2.743840
 12
5.303320
 22
2.022240
 13
5.307280
 23
2.751760
  0
POLYLINE
  8
0
  6
CONTINUOUS
 66
     1
 40
0.000000
 41
0.000000
  0
VERTEX
  8
0
  6
CONTINUOUS
 10
5.277800
 20
2.014320
  0
VERTEX
  8
0
  6
CONTINUOUS
 10
5.282200
 20
2.743840
  0
VERTEX
  8
0
  6
CONTINUOUS
 10
5.307280
 20
2.751760
  0
VERTEX
  8
0
  6
CONTINUOUS
 10
5.303320
 20
2.022240
  0
VERTEX
  8
0
  6
CONTINUOUS
 10
5.277800
 20
2.014320
  0
SEQEND
  8
0
  0
SOLID
  8
0
 62
    15
 10
5.303320
 20
2.022240
 11
5.307280
 21
2.751760
 12
5.329720
 22
2.025320
 13
5.334120
 23
2.754840
  0
POLYLINE
  8
0
  6
CONTINUOUS
 66
     1
 40
0.000000
 41
0.000000
  0
VERTEX
  8
0
  6
CONTINUOUS
 10
5.303320
 20
2.022240
  0
VERTEX
  8
0
  6
CONTINUOUS
 10
5.307280
 20
2.751760
  0
VERTEX
  8
0
  6
CONTINUOUS
 10
5.334120
 20
2.754840
  0
VERTEX
  8
0
  6
CONTINUOUS
 10
5.329720
 20
2.025320
  0
VERTEX
  8
0
  6
CONTINUOUS
 10
5.303320
 20
2.022240
  0
SEQEND
  8
0
  0
SOLID
  8
0
 62
    15
 10
5.329720
 20
2.025320
 11
5.334120
 21
2.754840
 12
5.356560
 22
2.022240
 13
5.360520
 23
2.751760
  0
POLYLINE
  8
0
  6
CONTINUOUS
 66
     1
 40
0.000000
 41
0.000000
  0
VERTEX
  8
0
  6
CONTINUOUS
 10
5.329720
 20
2.025320
  0
VERTEX
  8
0
  6
CONTINUOUS
 10
5.334120
 20
2.754840
  0
VERTEX
  8
0
  6
CONTINUOUS
 10
5.360520
 20
2.751760
  0
VERTEX
  8
0
  6
CONTINUOUS
 10
5.356560
 20
2.022240
  0
VERTEX
  8
0
  6
CONTINUOUS
 10
5.329720
 20
2.025320
  0
SEQEND
  8
0
  0
SOLID
  8
0
 62
    15
 10
5.356560
 20
2.022240
 11
5.360520
 21
2.751760
 12
5.381640
 22
2.014760
 13
5.385600
 23
2.744280
  0
POLYLINE
  8
0
  6
CONTINUOUS
 66
     1
 40
0.000000
 41
0.000000
  0
VERTEX
  8
0
  6
CONTINUOUS
 10
5.356560
 20
2.022240
  0
VERTEX
  8
0
  6
CONTINUOUS
 10
5.360520
 20
2.751760
  0
VERTEX
  8
0
  6
CONTINUOUS
 10
5.385600
 20
2.744280
  0
VERTEX
  8
0
  6
CONTINUOUS
 10
5.381640
 20
2.014760
  0
VERTEX
  8
0
  6
CONTINUOUS
 10
5.356560
 20
2.022240
  0
SEQEND
  8
0
  0
SOLID
  8
0
 62
    15
 10
5.381640
 20
2.014760
 11
5.385600
 21
2.744280
 12
5.404080
 22
2.002000
 13
5.408040
 23
2.731960
  0
POLYLINE
  8
0
  6
CONTINUOUS
 66
     1
 40
0.000000
 41
0.000000
  0
VERTEX
  8
0
  6
CONTINUOUS
 10
5.381640
 20
2.014760
  0
VERTEX
  8
0
  6
CONTINUOUS
 10
5.385600
 20
2.744280
  0
VERTEX
  8
0
  6
CONTINUOUS
 10
5.408040
 20
2.731960
  0
VERTEX
  8
0
  6
CONTINUOUS
 10
5.404080
 20
2.002000
  0
VERTEX
  8
0
  6
CONTINUOUS
 10
5.381640
 20
2.014760
  0
SEQEND
  8
0
  0
SOLID
  8
0
 62
    15
 10
5.404080
 20
2.002000
 11
5.408040
 21
2.731960
 12
5.423880
 22
1.985720
 13
5.427840
 23
2.715240
  0
POLYLINE
  8
0
  6
CONTINUOUS
 66
     1
 40
0.000000
 41
0.000000
  0
VERTEX
  8
0
  6
CONTINUOUS
 10
5.404080
 20
2.002000
  0
VERTEX
  8
0
  6
CONTINUOUS
 10
5.408040
 20
2.731960
  0
VERTEX
  8
0
  6
CONTINUOUS
 10
5.427840
 20
2.715240
  0
VERTEX
  8
0
  6
CONTINUOUS
 10
5.423880
 20
1.985720
  0
VERTEX
  8
0
  6
CONTINUOUS
 10
5.404080
 20
2.002000
  0
SEQEND
  8
0
  0
SOLID
  8
0
 62
    15
 10
5.423880
 20
1.985720
 11
5.427840
 21
2.715240
 12
5.440160
 22
1.965920
 13
5.444120
 23
2.695440
  0
POLYLINE
  8
0
  6
CONTINUOUS
 66
     1
 40
0.000000
 41
0.000000
  0
VERTEX
  8
0
  6
CONTINUOUS
 10
5.423880
 20
1.985720
  0
VERTEX
  8
0
  6
CONTINUOUS
 10
5.427840
 20
2.715240
  0
VERTEX
  8
0
  6
CONTINUOUS
 10
5.444120
 20
2.695440
  0
VERTEX
  8
0
  6
CONTINUOUS
 10
5.440160
 20
1.965920
  0
VERTEX
  8
0
  6
CONTINUOUS
 10
5.423880
 20
1.985720
  0
SEQEND
  8
0
  0
SOLID
  8
0
 62
    15
 10
5.440160
 20
1.965920
 11
5.444120
 21
2.695440
 12
5.452480
 22
1.943480
 13
5.456880
 23
2.673000
  0
POLYLINE
  8
0
  6
CONTINUOUS
 66
     1
 40
0.000000
 41
0.000000
  0
VERTEX
  8
0
  6
CONTINUOUS
 10
5.440160
 20
1.965920
  0
VERTEX
  8
0
  6
CONTINUOUS
 10
5.444120
 20
2.695440
  0
VERTEX
  8
0
  6
CONTINUOUS
 10
5.456880
 20
2.673000
  0
VERTEX
  8
0
  6
CONTINUOUS
 10
5.452480
 20
1.943480
  0
VERTEX
  8
0
  6
CONTINUOUS
 10
5.440160
 20
1.965920
  0
SEQEND
  8
0
  0
SOLID
  8
0
 62
    15
 10
5.452480
 20
1.943480
 11
5.456880
 21
2.673000
 12
5.460400
 22
1.918400
 13
5.464360
 23
2.647920
  0
POLYLINE
  8
0
  6
CONTINUOUS
 66
     1
 40
0.000000
 41
0.000000
  0
VERTEX
  8
0
  6
CONTINUOUS
 10
5.452480
 20
1.943480
  0
VERTEX
  8
0
  6
CONTINUOUS
 10
5.456880
 20
2.673000
  0
VERTEX
  8
0
  6
CONTINUOUS
 10
5.464360
 20
2.647920
  0
VERTEX
  8
0
  6
CONTINUOUS
 10
5.460400
 20
1.918400
  0
VERTEX
  8
0
  6
CONTINUOUS
 10
5.452480
 20
1.943480
  0
SEQEND
  8
0
  0
SOLID
  8
0
 62
    15
 10
5.460400
 20
1.918400
 11
5.464360
 21
2.647920
 12
5.463040
 22
1.892000
 13
5.467440
 23
2.621520
  0
POLYLINE
  8
0
  6
CONTINUOUS
 66
     1
 40
0.000000
 41
0.000000
  0
VERTEX
  8
0
  6
CONTINUOUS
 10
5.460400
 20
1.918400
  0
VERTEX
  8
0
  6
CONTINUOUS
 10
5.464360
 20
2.647920
  0
VERTEX
  8
0
  6
CONTINUOUS
 10
5.467440
 20
2.621520
  0
VERTEX
  8
0
  6
CONTINUOUS
 10
5.463040
 20
1.892000
  0
VERTEX
  8
0
  6
CONTINUOUS
 10
5.460400
 20
1.918400
  0
SEQEND
  8
0
  0
SOLID
  8
0
 62
    15
 10
5.463040
 20
1.892000
 11
5.467440
 21
2.621520
 12
5.467440
 22
1.889800
 13
5.471400
 23
2.619320
  0
POLYLINE
  8
0
  6
CONTINUOUS
 66
     1
 40
0.000000
 41
0.000000
  0
VERTEX
  8
0
  6
CONTINUOUS
 10
5.463040
 20
1.892000
  0
VERTEX
  8
0
  6
CONTINUOUS
 10
5.467440
 20
2.621520
  0
VERTEX
  8
0
  6
CONTINUOUS
 10
5.471400
 20
2.619320
  0
VERTEX
  8
0
  6
CONTINUOUS
 10
5.467440
 20
1.889800
  0
VERTEX
  8
0
  6
CONTINUOUS
 10
5.463040
 20
1.892000
  0
SEQEND
  8
0
  0
SOLID
  8
0
 62
    15
 10
5.467440
 20
1.889800
 11
5.471400
 21
2.619320
 12
5.581840
 22
2.035440
 13
5.586240
 23
2.764960
  0
POLYLINE
  8
0
  6
CONTINUOUS
 66
     1
 40
0.000000
 41
0.000000
  0
VERTEX
  8
0
  6
CONTINUOUS
 10
5.467440
 20
1.889800
  0
VERTEX
  8
0
  6
CONTINUOUS
 10
5.471400
 20
2.619320
  0
VERTEX
  8
0
  6
CONTINUOUS
 10
5.586240
 20
2.764960
  0
VERTEX
  8
0
  6
CONTINUOUS
 10
5.581840
 20
2.035440
  0
VERTEX
  8
0
  6
CONTINUOUS
 10
5.467440
 20
1.889800
  0
SEQEND
  8
0
  0
SOLID
  8
0
 62
    15
 10
5.581840
 20
2.035440
 11
5.586240
 21
2.764960
 12
5.586240
 22
2.037640
 13
5.590200
 23
2.767160
  0
POLYLINE
  8
0
  6
CONTINUOUS
 66
     1
 40
0.000000
 41
0.000000
  0
VERTEX
  8
0
  6
CONTINUOUS
 10
5.581840
 20
2.035440
  0
VERTEX
  8
0
  6
CONTINUOUS
 10
5.586240
 20
2.764960
  0
VERTEX
  8
0
  6
CONTINUOUS
 10
5.590200
 20
2.767160
  0
VERTEX
  8
0
  6
CONTINUOUS
 10
5.586240
 20
2.037640
  0
VERTEX
  8
0
  6
CONTINUOUS
 10
5.581840
 20
2.035440
  0
SEQEND
  8
0
  0
SOLID
  8
0
 62
    15
 10
5.586240
 20
2.037640
 11
5.590200
 21
2.767160
 12
7.138120
 22
2.037640
 13
7.142080
 23
2.767160
  0
POLYLINE
  8
0
  6
CONTINUOUS
 66
     1
 40
0.000000
 41
0.000000
  0
VERTEX
  8
0
  6
CONTINUOUS
 10
5.586240
 20
2.037640
  0
VERTEX
  8
0
  6
CONTINUOUS
 10
5.590200
 20
2.767160
  0
VERTEX
  8
0
  6
CONTINUOUS
 10
7.142080
 20
2.767160
  0
VERTEX
  8
0
  6
CONTINUOUS
 10
7.138120
 20
2.037640
  0
VERTEX
  8
0
  6
CONTINUOUS
 10
5.586240
 20
2.037640
  0
SEQEND
  8
0
  0
SOLID
  8
0
 62
    15
 10
7.140320
 20
2.039840
 11
7.144280
 21
2.769360
 12
7.515200
 22
1.164680
 13
7.519160
 23
1.894200
  0
POLYLINE
  8
0
  6
CONTINUOUS
 66
     1
 40
0.000000
 41
0.000000
  0
VERTEX
  8
0
  6
CONTINUOUS
 10
7.140320
 20
2.039840
  0
VERTEX
  8
0
  6
CONTINUOUS
 10
7.144280
 20
2.769360
  0
VERTEX
  8
0
  6
CONTINUOUS
 10
7.519160
 20
1.894200
  0
VERTEX
  8
0
  6
CONTINUOUS
 10
7.515200
 20
1.164680
  0
VERTEX
  8
0
  6
CONTINUOUS
 10
7.140320
 20
2.039840
  0
SEQEND
  8
0
  0
SOLID
  8
0
 62
    15
 10
7.138120
 20
2.037640
 11
7.142080
 21
2.767160
 12
7.140320
 22
2.039840
 13
7.144280
 23
2.769360
  0
POLYLINE
  8
0
  6
CONTINUOUS
 66
     1
 40
0.000000
 41
0.000000
  0
VERTEX
  8
0
  6
CONTINUOUS
 10
7.138120
 20
2.037640
  0
VERTEX
  8
0
  6
CONTINUOUS
 10
7.142080
 20
2.767160
  0
VERTEX
  8
0
  6
CONTINUOUS
 10
7.144280
 20
2.769360
  0
VERTEX
  8
0
  6
CONTINUOUS
 10
7.140320
 20
2.039840
  0
VERTEX
  8
0
  6
CONTINUOUS
 10
7.138120
 20
2.037640
  0
SEQEND
  8
0
  0
POLYLINE
  8
0
  6
CONTINUOUS
 66
     1
 40
0.000000
 41
0.000000
  0
VERTEX
  8
0
  6
CONTINUOUS
 10
2.494360
 20
1.164680
  0
VERTEX
  8
0
  6
CONTINUOUS
 10
2.494360
 20
1.787720
  0
VERTEX
  8
0
  6
CONTINUOUS
 10
2.492600
 20
1.787720
  0
VERTEX
  8
0
  6
CONTINUOUS
 10
2.564320
 20
1.790800
  0
VERTEX
  8
0
  6
CONTINUOUS
 10
2.631640
 20
1.806200
  0
VERTEX
  8
0
  6
CONTINUOUS
 10
2.692360
 20
1.832160
  0
VERTEX
  8
0
  6
CONTINUOUS
 10
2.746040
 20
1.865600
  0
VERTEX
  8
0
  6
CONTINUOUS
 10
2.791800
 20
1.905640
  0
VERTEX
  8
0
  6
CONTINUOUS
 10
2.827880
 20
1.948760
  0
VERTEX
  8
0
  6
CONTINUOUS
 10
2.853400
 20
1.993640
  0
VERTEX
  8
0
  6
CONTINUOUS
 10
2.867480
 20
2.037640
  0
VERTEX
  8
0
  6
CONTINUOUS
 10
4.206840
 20
2.037640
  0
VERTEX
  8
0
  6
CONTINUOUS
 10
4.331800
 20
1.887600
  0
VERTEX
  8
0
  6
CONTINUOUS
 10
4.334880
 20
1.914440
  0
VERTEX
  8
0
  6
CONTINUOUS
 10
4.342800
 20
1.939520
  0
VERTEX
  8
0
  6
CONTINUOUS
 10
4.355560
 20
1.962400
  0
VERTEX
  8
0
  6
CONTINUOUS
 10
4.372280
 20
1.982640
  0
VERTEX
  8
0
  6
CONTINUOUS
 10
4.392520
 20
1.999360
  0
VERTEX
  8
0
  6
CONTINUOUS
 10
4.415400
 20
2.012120
  0
VERTEX
  8
0
  6
CONTINUOUS
 10
4.440480
 20
2.020040
  0
VERTEX
  8
0
  6
CONTINUOUS
 10
4.467320
 20
2.023120
  0
VERTEX
  8
0
  6
CONTINUOUS
 10
4.494160
 20
2.020480
  0
VERTEX
  8
0
  6
CONTINUOUS
 10
4.518800
 20
2.012560
  0
VERTEX
  8
0
  6
CONTINUOUS
 10
4.541680
 20
2.000240
  0
VERTEX
  8
0
  6
CONTINUOUS
 10
4.561480
 20
1.983960
  0
VERTEX
  8
0
  6
CONTINUOUS
 10
4.577760
 20
1.964160
  0
VERTEX
  8
0
  6
CONTINUOUS
 10
4.590080
 20
1.941280
  0
VERTEX
  8
0
  6
CONTINUOUS
 10
4.598000
 20
1.916640
  0
VERTEX
  8
0
  6
CONTINUOUS
 10
4.600640
 20
1.889800
  0
VERTEX
  8
0
  6
CONTINUOUS
 10
4.598880
 20
1.887600
  0
VERTEX
  8
0
  6
CONTINUOUS
 10
4.619560
 20
1.887600
  0
VERTEX
  8
0
  6
CONTINUOUS
 10
4.622200
 20
1.914440
  0
VERTEX
  8
0
  6
CONTINUOUS
 10
4.630560
 20
1.939520
  0
VERTEX
  8
0
  6
CONTINUOUS
 10
4.643320
 20
1.962400
  0
VERTEX
  8
0
  6
CONTINUOUS
 10
4.660040
 20
1.982640
  0
VERTEX
  8
0
  6
CONTINUOUS
 10
4.679840
 20
1.999360
  0
VERTEX
  8
0
  6
CONTINUOUS
 10
4.703160
 20
2.012120
  0
VERTEX
  8
0
  6
CONTINUOUS
 10
4.728240
 20
2.020040
  0
VERTEX
  8
0
  6
CONTINUOUS
 10
4.755080
 20
2.023120
  0
VERTEX
  8
0
  6
CONTINUOUS
 10
4.781480
 20
2.020480
  0
VERTEX
  8
0
  6
CONTINUOUS
 10
4.806560
 20
2.012560
  0
VERTEX
  8
0
  6
CONTINUOUS
 10
4.829000
 20
2.000240
  0
VERTEX
  8
0
  6
CONTINUOUS
 10
4.848800
 20
1.983960
  0
VERTEX
  8
0
  6
CONTINUOUS
 10
4.865080
 20
1.964160
  0
VERTEX
  8
0
  6
CONTINUOUS
 10
4.877840
 20
1.941280
  0
VERTEX
  8
0
  6
CONTINUOUS
 10
4.885320
 20
1.916640
  0
VERTEX
  8
0
  6
CONTINUOUS
 10
4.888400
 20
1.887600
  0
VERTEX
  8
0
  6
CONTINUOUS
 10
4.906880
 20
1.887600
  0
VERTEX
  8
0
  6
CONTINUOUS
 10
4.909960
 20
1.914440
  0
VERTEX
  8
0
  6
CONTINUOUS
 10
4.917880
 20
1.939520
  0
VERTEX
  8
0
  6
CONTINUOUS
 10
4.930640
 20
1.962400
  0
VERTEX
  8
0
  6
CONTINUOUS
 10
4.947360
 20
1.982640
  0
VERTEX
  8
0
  6
CONTINUOUS
 10
4.967600
 20
1.999360
  0
VERTEX
  8
0
  6
CONTINUOUS
 10
4.990480
 20
2.012120
  0
VERTEX
  8
0
  6
CONTINUOUS
 10
5.015560
 20
2.020040
  0
VERTEX
  8
0
  6
CONTINUOUS
 10
5.042400
 20
2.023120
  0
VERTEX
  8
0
  6
CONTINUOUS
 10
5.068800
 20
2.020480
  0
VERTEX
  8
0
  6
CONTINUOUS
 10
5.093880
 20
2.012560
  0
VERTEX
  8
0
  6
CONTINUOUS
 10
5.116760
 20
2.000240
  0
VERTEX
  8
0
  6
CONTINUOUS
 10
5.136560
 20
1.983960
  0
VERTEX
  8
0
  6
CONTINUOUS
 10
5.152840
 20
1.964160
  0
VERTEX
  8
0
  6
CONTINUOUS
 10
5.165160
 20
1.941280
  0
VERTEX
  8
0
  6
CONTINUOUS
 10
5.173080
 20
1.916640
  0
VERTEX
  8
0
  6
CONTINUOUS
 10
5.175720
 20
1.887600
  0
VERTEX
  8
0
  6
CONTINUOUS
 10
5.194640
 20
1.887600
  0
VERTEX
  8
0
  6
CONTINUOUS
 10
5.197280
 20
1.916640
  0
VERTEX
  8
0
  6
CONTINUOUS
 10
5.205200
 20
1.941720
  0
VERTEX
  8
0
  6
CONTINUOUS
 10
5.217960
 20
1.964600
  0
VERTEX
  8
0
  6
CONTINUOUS
 10
5.234680
 20
1.984840
  0
VERTEX
  8
0
  6
CONTINUOUS
 10
5.254920
 20
2.001560
  0
VERTEX
  8
0
  6
CONTINUOUS
 10
5.277800
 20
2.014320
  0
VERTEX
  8
0
  6
CONTINUOUS
 10
5.303320
 20
2.022240
  0
VERTEX
  8
0
  6
CONTINUOUS
 10
5.329720
 20
2.025320
  0
VERTEX
  8
0
  6
CONTINUOUS
 10
5.356560
 20
2.022240
  0
VERTEX
  8
0
  6
CONTINUOUS
 10
5.381640
 20
2.014760
  0
VERTEX
  8
0
  6
CONTINUOUS
 10
5.404080
 20
2.002000
  0
VERTEX
  8
0
  6
CONTINUOUS
 10
5.423880
 20
1.985720
  0
VERTEX
  8
0
  6
CONTINUOUS
 10
5.440160
 20
1.965920
  0
VERTEX
  8
0
  6
CONTINUOUS
 10
5.452480
 20
1.943480
  0
VERTEX
  8
0
  6
CONTINUOUS
 10
5.460400
 20
1.918400
  0
VERTEX
  8
0
  6
CONTINUOUS
 10
5.463040
 20
1.892000
  0
VERTEX
  8
0
  6
CONTINUOUS
 10
5.467440
 20
1.889800
  0
VERTEX
  8
0
  6
CONTINUOUS
 10
5.581840
 20
2.035440
  0
VERTEX
  8
0
  6
CONTINUOUS
 10
5.586240
 20
2.037640
  0
VERTEX
  8
0
  6
CONTINUOUS
 10
7.138120
 20
2.037640
  0
VERTEX
  8
0
  6
CONTINUOUS
 10
7.140320
 20
2.039840
  0
VERTEX
  8
0
  6
CONTINUOUS
 10
7.515200
 20
1.164680
  0
VERTEX
  8
0
  6
CONTINUOUS
 10
7.513440
 20
1.162480
  0
VERTEX
  8
0
  6
CONTINUOUS
 10
2.502720
 20
1.162480
  0
VERTEX
  8
0
  6
CONTINUOUS
 10
2.494360
 20
1.164680
  0
SEQEND
  8
0
  0
TEXT
  8
0
 10
4.710640
 20
0.886160
 40
0.138213
  1
BA  484
 41
1.000000
  7
SN0
 71
     0
 72
     5
 11
5.301526
 21
0.886160
  0
TEXT
  8
0
 10
4.697880
 20
0.694320
 40
0.138213
  1
7/8" x 5"
 41
1.000000
  7
SN0
 71
     0
 72
     5
 11
5.314192
 21
0.694320
  0
ENDSEC
  0
EOF
