  0
SECTION
  2
HEADER
  9
$ACADVER
  1
AC1006
  9
$EXTMIN
 10
1.328800
 20
0.773080
  9
$EXTMAX
 10
7.388480
 20
5.056040
  9
$LTSCALE
 40
0.044000
  9
$PDMODE
 70
    35
  9
$PDSIZE
 40
0.035200
  0
ENDSEC
  0
SECTION
  2
TABLES
  0
TABLE
  2
LTYPE
 70
     9
  0
LTYPE
  2
CONTINUOUS
 70
    64
  3
Solid line
 72
    65
 73
     0
 40
0.000000
  0
LTYPE
  2
DASHED
 70
    64
  3
__ __ __ __ __ __ __ __ __ __ __ __ __ __ __
 72
    65
 73
     2
 40
0.000330
 49
0.000220
 49
-0.000110
  0
LTYPE
  2
HIDDEN
 70
    64
  3
 _ _ _ _ _ _ _ _ _ _ _ _ _ _ _ _ _ _ _ _ _ _
 72
    65
 73
     2
 40
0.000165
 49
0.000110
 49
-0.000055
  0
LTYPE
  2
CENTER
 70
    64
  3
____ _ ____ _ ____ _ ____ _ ____ _ ____ _ ____
 72
    65
 73
     4
 40
0.000880
 49
0.000550
 49
-0.000110
 49
0.000110
 49
-0.000110
  0
LTYPE
  2
PHANTOM
 70
    64
  3
_____ _ _ _____ _ _ _____ _ _ _____ _ _ ____
 72
    65
 73
     6
 40
0.001100
 49
0.000550
 49
-0.000110
 49
0.000110
 49
-0.000110
 49
0.000110
 49
-0.000110
  0
LTYPE
  2
DOT
 70
    64
  3
...............................................
 72
    65
 73
     2
 40
0.000110
 49
0.000000
 49
-0.000110
  0
LTYPE
  2
DASHDOT
 70
    64
  3
__ . __ . __ . __ . __ . __ . __ . __ . __ . __
 72
    65
 73
     4
 40
0.000440
 49
0.000220
 49
-0.000110
 49
0.000000
 49
-0.000110
  0
LTYPE
  2
BORDER
 70
    64
  3
__ __ . __ __ . __ __ . __ __ . __ __ . __ __
 72
    65
 73
     6
 40
0.000770
 49
0.000220
 49
-0.000110
 49
0.000220
 49
-0.000110
 49
0.000000
 49
-0.000110
  0
LTYPE
  2
DIVIDE
 70
    64
  3
__ . . __ . . __ . . __ . . __ . . __ . . __
 72
    65
 73
     6
 40
0.000550
 49
0.000220
 49
-0.000110
 49
0.000000
 49
-0.000110
 49
0.000000
 49
-0.000110
  0
LTYPE
  2
DOTDOT
 70
    64
  3
 . .  . .  . .  . .  . .  . . 
 72
    65
 73
     5
 40
0.000242
 49
-0.000110
 49
0.000000
 49
-0.000110
 49
0.000000
 49
-0.000110
  0
ENDTAB
  0
TABLE
  2
STYLE
 70
     2
  0
STYLE
 70
     0
  2
SN0
 40
0.000000
 41
0.000440
 50
0.000000
 71
     0
 42
0.000000
  3
ROMAND
  0
STYLE
 70
    68
  2
SV0
 40
0.000000
 41
0.000440
 50
0.000000
 71
     0
 42
0.000000
  3
ROMAND
  0
ENDTAB
  0
TABLE
  2
LAYER
 70
     3
  0
LAYER
  2
FOREGROUND
 70
    64
 62
     7
  6
CONTINUOUS
  0
LAYER
  2
BACKGROUND
 70
    65
 62
    -7
  6
CONTINUOUS
  0
LAYER
  2
0
 70
    64
 62
     7
  6
CONTINUOUS
  0
ENDTAB
  0
ENDSEC
  0
SECTION
  2
ENTITIES
  0
POLYLINE
  8
FOREGROUND
  6
CONTINUOUS
 66
     1
 40
0.000000
 41
0.000000
  0
VERTEX
  8
FOREGROUND
  6
CONTINUOUS
 10
0.000000
 20
5.829120
  0
VERTEX
  8
FOREGROUND
  6
CONTINUOUS
 10
8.499920
 20
5.829120
  0
VERTEX
  8
FOREGROUND
  6
CONTINUOUS
 10
8.499920
 20
-5.170880
  0
VERTEX
  8
FOREGROUND
  6
CONTINUOUS
 10
0.000000
 20
-5.170880
  0
VERTEX
  8
FOREGROUND
  6
CONTINUOUS
 10
0.000000
 20
5.829120
  0
SEQEND
  8
0
  0
POLYLINE
  8
FOREGROUND
  6
CONTINUOUS
 66
     1
 40
0.000000
 41
0.000000
  0
VERTEX
  8
FOREGROUND
  6
CONTINUOUS
 10
0.000000
 20
5.829120
  0
VERTEX
  8
FOREGROUND
  6
CONTINUOUS
 10
8.499920
 20
5.829120
  0
VERTEX
  8
FOREGROUND
  6
CONTINUOUS
 10
8.499920
 20
-5.170880
  0
VERTEX
  8
FOREGROUND
  6
CONTINUOUS
 10
0.000000
 20
-5.170880
  0
VERTEX
  8
FOREGROUND
  6
CONTINUOUS
 10
0.000000
 20
5.829120
  0
SEQEND
  8
0
  0
POLYLINE
  8
0
  6
CONTINUOUS
 66
     1
 40
0.014080
 41
0.014080
  0
VERTEX
  8
0
  6
CONTINUOUS
 10
1.737560
 20
4.800400
  0
VERTEX
  8
0
  6
CONTINUOUS
 10
1.598080
 20
4.800400
  0
VERTEX
  8
0
  6
CONTINUOUS
 10
1.595880
 20
4.798200
  0
VERTEX
  8
0
  6
CONTINUOUS
 10
1.590160
 20
4.753760
  0
VERTEX
  8
0
  6
CONTINUOUS
 10
1.579600
 20
4.713720
  0
VERTEX
  8
0
  6
CONTINUOUS
 10
1.570360
 20
4.689080
  0
VERTEX
  8
0
  6
CONTINUOUS
 10
1.559360
 20
4.666200
  0
VERTEX
  8
0
  6
CONTINUOUS
 10
1.546600
 20
4.645080
  0
VERTEX
  8
0
  6
CONTINUOUS
 10
1.532520
 20
4.625280
  0
VERTEX
  8
0
  6
CONTINUOUS
 10
1.499960
 20
4.591400
  0
VERTEX
  8
0
  6
CONTINUOUS
 10
1.481920
 20
4.576880
  0
VERTEX
  8
0
  6
CONTINUOUS
 10
1.463000
 20
4.564120
  0
VERTEX
  8
0
  6
CONTINUOUS
 10
1.422080
 20
4.543000
  0
VERTEX
  8
0
  6
CONTINUOUS
 10
1.400520
 20
4.534640
  0
VERTEX
  8
0
  6
CONTINUOUS
 10
1.378520
 20
4.528040
  0
VERTEX
  8
0
  6
CONTINUOUS
 10
1.356080
 20
4.523200
  0
VERTEX
  8
0
  6
CONTINUOUS
 10
1.352120
 20
4.517040
  0
VERTEX
  8
0
  6
CONTINUOUS
 10
1.352120
 20
3.644080
  0
VERTEX
  8
0
  6
CONTINUOUS
 10
1.349920
 20
3.644080
  0
VERTEX
  8
0
  6
CONTINUOUS
 10
7.381440
 20
3.644080
  0
VERTEX
  8
0
  6
CONTINUOUS
 10
7.376600
 20
3.701720
  0
VERTEX
  8
0
  6
CONTINUOUS
 10
7.369120
 20
3.754080
  0
VERTEX
  8
0
  6
CONTINUOUS
 10
7.355040
 20
3.817000
  0
VERTEX
  8
0
  6
CONTINUOUS
 10
7.346680
 20
3.845600
  0
VERTEX
  8
0
  6
CONTINUOUS
 10
7.326440
 20
3.896640
  0
VERTEX
  8
0
  6
CONTINUOUS
 10
7.303120
 20
3.941080
  0
VERTEX
  8
0
  6
CONTINUOUS
 10
7.276720
 20
3.978920
  0
VERTEX
  8
0
  6
CONTINUOUS
 10
7.248120
 20
4.010600
  0
VERTEX
  8
0
  6
CONTINUOUS
 10
7.217760
 20
4.037000
  0
VERTEX
  8
0
  6
CONTINUOUS
 10
7.169800
 20
4.067360
  0
VERTEX
  8
0
  6
CONTINUOUS
 10
7.120520
 20
4.088920
  0
VERTEX
  8
0
  6
CONTINUOUS
 10
7.072120
 20
4.102560
  0
VERTEX
  8
0
  6
CONTINUOUS
 10
7.011400
 20
4.113120
  0
VERTEX
  8
0
  6
CONTINUOUS
 10
6.921200
 20
4.122360
  0
VERTEX
  8
0
  6
CONTINUOUS
 10
6.871920
 20
4.131160
  0
VERTEX
  8
0
  6
CONTINUOUS
 10
6.847720
 20
4.136880
  0
VERTEX
  8
0
  6
CONTINUOUS
 10
6.801520
 20
4.153160
  0
VERTEX
  8
0
  6
CONTINUOUS
 10
6.779960
 20
4.163720
  0
VERTEX
  8
0
  6
CONTINUOUS
 10
6.758840
 20
4.176480
  0
VERTEX
  8
0
  6
CONTINUOUS
 10
6.729360
 20
4.198920
  0
VERTEX
  8
0
  6
CONTINUOUS
 10
6.702520
 20
4.226640
  0
VERTEX
  8
0
  6
CONTINUOUS
 10
6.678760
 20
4.260080
  0
VERTEX
  8
0
  6
CONTINUOUS
 10
6.658960
 20
4.299680
  0
VERTEX
  8
0
  6
CONTINUOUS
 10
6.647960
 20
4.329600
  0
VERTEX
  8
0
  6
CONTINUOUS
 10
6.212360
 20
4.329600
  0
VERTEX
  8
0
  6
CONTINUOUS
 10
6.189040
 20
4.277240
  0
VERTEX
  8
0
  6
CONTINUOUS
 10
6.163080
 20
4.230600
  0
VERTEX
  8
0
  6
CONTINUOUS
 10
6.134040
 20
4.189680
  0
VERTEX
  8
0
  6
CONTINUOUS
 10
6.100600
 20
4.155800
  0
VERTEX
  8
0
  6
CONTINUOUS
 10
6.071560
 20
4.135560
  0
VERTEX
  8
0
  6
CONTINUOUS
 10
6.039000
 20
4.119280
  0
VERTEX
  8
0
  6
CONTINUOUS
 10
6.014800
 20
4.111360
  0
VERTEX
  8
0
  6
CONTINUOUS
 10
5.975200
 20
4.103440
  0
VERTEX
  8
0
  6
CONTINUOUS
 10
5.946160
 20
4.101240
  0
VERTEX
  8
0
  6
CONTINUOUS
 10
5.897760
 20
4.102560
  0
VERTEX
  8
0
  6
CONTINUOUS
 10
5.854200
 20
4.108280
  0
VERTEX
  8
0
  6
CONTINUOUS
 10
5.809760
 20
4.117520
  0
VERTEX
  8
0
  6
CONTINUOUS
 10
5.743320
 20
4.137760
  0
VERTEX
  8
0
  6
CONTINUOUS
 10
5.678640
 20
4.163280
  0
VERTEX
  8
0
  6
CONTINUOUS
 10
5.596800
 20
4.202440
  0
VERTEX
  8
0
  6
CONTINUOUS
 10
5.507920
 20
4.253040
  0
VERTEX
  8
0
  6
CONTINUOUS
 10
5.420800
 20
4.310240
  0
VERTEX
  8
0
  6
CONTINUOUS
 10
5.382080
 20
4.337080
  0
VERTEX
  8
0
  6
CONTINUOUS
 10
5.310360
 20
4.376240
  0
VERTEX
  8
0
  6
CONTINUOUS
 10
5.225880
 20
4.414960
  0
VERTEX
  8
0
  6
CONTINUOUS
 10
5.142280
 20
4.446200
  0
VERTEX
  8
0
  6
CONTINUOUS
 10
5.072320
 20
4.467320
  0
VERTEX
  8
0
  6
CONTINUOUS
 10
4.997080
 20
4.484480
  0
VERTEX
  8
0
  6
CONTINUOUS
 10
4.944280
 20
4.492840
  0
VERTEX
  8
0
  6
CONTINUOUS
 10
4.890600
 20
4.498560
  0
VERTEX
  8
0
  6
CONTINUOUS
 10
4.835600
 20
4.500320
  0
VERTEX
  8
0
  6
CONTINUOUS
 10
4.781920
 20
4.498560
  0
VERTEX
  8
0
  6
CONTINUOUS
 10
4.731760
 20
4.492840
  0
VERTEX
  8
0
  6
CONTINUOUS
 10
4.685120
 20
4.484480
  0
VERTEX
  8
0
  6
CONTINUOUS
 10
4.621760
 20
4.466880
  0
VERTEX
  8
0
  6
CONTINUOUS
 10
4.565880
 20
4.444880
  0
VERTEX
  8
0
  6
CONTINUOUS
 10
4.517040
 20
4.420240
  0
VERTEX
  8
0
  6
CONTINUOUS
 10
4.475240
 20
4.394280
  0
VERTEX
  8
0
  6
CONTINUOUS
 10
4.429920
 20
4.360400
  0
VERTEX
  8
0
  6
CONTINUOUS
 10
4.364800
 20
4.302320
  0
VERTEX
  8
0
  6
CONTINUOUS
 10
4.354240
 20
4.298360
  0
VERTEX
  8
0
  6
CONTINUOUS
 10
4.131160
 20
4.298360
  0
VERTEX
  8
0
  6
CONTINUOUS
 10
4.124120
 20
4.328720
  0
VERTEX
  8
0
  6
CONTINUOUS
 10
4.109160
 20
4.371840
  0
VERTEX
  8
0
  6
CONTINUOUS
 10
4.088480
 20
4.411880
  0
VERTEX
  8
0
  6
CONTINUOUS
 10
4.072200
 20
4.436520
  0
VERTEX
  8
0
  6
CONTINUOUS
 10
4.054160
 20
4.459840
  0
VERTEX
  8
0
  6
CONTINUOUS
 10
4.034360
 20
4.480960
  0
VERTEX
  8
0
  6
CONTINUOUS
 10
4.012800
 20
4.500760
  0
VERTEX
  8
0
  6
CONTINUOUS
 10
3.990360
 20
4.518360
  0
VERTEX
  8
0
  6
CONTINUOUS
 10
3.967040
 20
4.533760
  0
VERTEX
  8
0
  6
CONTINUOUS
 10
3.942840
 20
4.547400
  0
VERTEX
  8
0
  6
CONTINUOUS
 10
3.917760
 20
4.558840
  0
VERTEX
  8
0
  6
CONTINUOUS
 10
3.892680
 20
4.567640
  0
VERTEX
  8
0
  6
CONTINUOUS
 10
3.867160
 20
4.574240
  0
VERTEX
  8
0
  6
CONTINUOUS
 10
3.829320
 20
4.579080
  0
VERTEX
  8
0
  6
CONTINUOUS
 10
2.893880
 20
4.579520
  0
VERTEX
  8
0
  6
CONTINUOUS
 10
2.889480
 20
4.581720
  0
VERTEX
  8
0
  6
CONTINUOUS
 10
2.858240
 20
4.659600
  0
VERTEX
  8
0
  6
CONTINUOUS
 10
2.824800
 20
4.728680
  0
VERTEX
  8
0
  6
CONTINUOUS
 10
2.789160
 20
4.788520
  0
VERTEX
  8
0
  6
CONTINUOUS
 10
2.752200
 20
4.840880
  0
VERTEX
  8
0
  6
CONTINUOUS
 10
2.713920
 20
4.885320
  0
VERTEX
  8
0
  6
CONTINUOUS
 10
2.675200
 20
4.923160
  0
VERTEX
  8
0
  6
CONTINUOUS
 10
2.636040
 20
4.954840
  0
VERTEX
  8
0
  6
CONTINUOUS
 10
2.577080
 20
4.991360
  0
VERTEX
  8
0
  6
CONTINUOUS
 10
2.538360
 20
5.009400
  0
VERTEX
  8
0
  6
CONTINUOUS
 10
2.500960
 20
5.023480
  0
VERTEX
  8
0
  6
CONTINUOUS
 10
2.464440
 20
5.033600
  0
VERTEX
  8
0
  6
CONTINUOUS
 10
2.413400
 20
5.042840
  0
VERTEX
  8
0
  6
CONTINUOUS
 10
2.367200
 20
5.047240
  0
VERTEX
  8
0
  6
CONTINUOUS
 10
2.314840
 20
5.048120
  0
VERTEX
  8
0
  6
CONTINUOUS
 10
2.273480
 20
5.045480
  0
VERTEX
  8
0
  6
CONTINUOUS
 10
2.210120
 20
5.036240
  0
VERTEX
  8
0
  6
CONTINUOUS
 10
2.175800
 20
5.029640
  0
VERTEX
  8
0
  6
CONTINUOUS
 10
2.102320
 20
5.009840
  0
VERTEX
  8
0
  6
CONTINUOUS
 10
2.024880
 20
4.981680
  0
VERTEX
  8
0
  6
CONTINUOUS
 10
1.984840
 20
4.964080
  0
VERTEX
  8
0
  6
CONTINUOUS
 10
1.944800
 20
4.944280
  0
VERTEX
  8
0
  6
CONTINUOUS
 10
1.884520
 20
4.909520
  0
VERTEX
  8
0
  6
CONTINUOUS
 10
1.825120
 20
4.868600
  0
VERTEX
  8
0
  6
CONTINUOUS
 10
1.785960
 20
4.838240
  0
VERTEX
  8
0
  6
CONTINUOUS
 10
1.748120
 20
4.804360
  0
VERTEX
  8
0
  6
CONTINUOUS
 10
1.737560
 20
4.800400
  0
SEQEND
  8
0
  0
SOLID
  8
0
 62
    15
 10
5.359200
 20
1.972960
 11
5.360520
 21
2.724480
 12
5.368000
 22
1.967680
 13
5.369320
 23
2.719200
  0
POLYLINE
  8
0
  6
CONTINUOUS
 66
     1
 40
0.000000
 41
0.000000
  0
VERTEX
  8
0
  6
CONTINUOUS
 10
5.359200
 20
1.972960
  0
VERTEX
  8
0
  6
CONTINUOUS
 10
5.360520
 20
2.724480
  0
VERTEX
  8
0
  6
CONTINUOUS
 10
5.369320
 20
2.719200
  0
VERTEX
  8
0
  6
CONTINUOUS
 10
5.368000
 20
1.967680
  0
VERTEX
  8
0
  6
CONTINUOUS
 10
5.359200
 20
1.972960
  0
SEQEND
  8
0
  0
SOLID
  8
0
 62
    15
 10
1.802240
 20
2.504920
 11
1.803560
 21
3.256440
 12
1.881880
 22
2.557720
 13
1.883200
 23
3.309680
  0
POLYLINE
  8
0
  6
CONTINUOUS
 66
     1
 40
0.000000
 41
0.000000
  0
VERTEX
  8
0
  6
CONTINUOUS
 10
1.802240
 20
2.504920
  0
VERTEX
  8
0
  6
CONTINUOUS
 10
1.803560
 20
3.256440
  0
VERTEX
  8
0
  6
CONTINUOUS
 10
1.883200
 20
3.309680
  0
VERTEX
  8
0
  6
CONTINUOUS
 10
1.881880
 20
2.557720
  0
VERTEX
  8
0
  6
CONTINUOUS
 10
1.802240
 20
2.504920
  0
SEQEND
  8
0
  0
SOLID
  8
0
 62
    15
 10
1.881880
 20
2.557720
 11
1.883200
 21
3.309680
 12
1.961960
 22
2.599960
 13
1.963720
 23
3.351920
  0
POLYLINE
  8
0
  6
CONTINUOUS
 66
     1
 40
0.000000
 41
0.000000
  0
VERTEX
  8
0
  6
CONTINUOUS
 10
1.881880
 20
2.557720
  0
VERTEX
  8
0
  6
CONTINUOUS
 10
1.883200
 20
3.309680
  0
VERTEX
  8
0
  6
CONTINUOUS
 10
1.963720
 20
3.351920
  0
VERTEX
  8
0
  6
CONTINUOUS
 10
1.961960
 20
2.599960
  0
VERTEX
  8
0
  6
CONTINUOUS
 10
1.881880
 20
2.557720
  0
SEQEND
  8
0
  0
SOLID
  8
0
 62
    15
 10
1.961960
 20
2.599960
 11
1.963720
 21
3.351920
 12
2.041160
 22
2.632960
 13
2.042920
 23
3.384480
  0
POLYLINE
  8
0
  6
CONTINUOUS
 66
     1
 40
0.000000
 41
0.000000
  0
VERTEX
  8
0
  6
CONTINUOUS
 10
1.961960
 20
2.599960
  0
VERTEX
  8
0
  6
CONTINUOUS
 10
1.963720
 20
3.351920
  0
VERTEX
  8
0
  6
CONTINUOUS
 10
2.042920
 20
3.384480
  0
VERTEX
  8
0
  6
CONTINUOUS
 10
2.041160
 20
2.632960
  0
VERTEX
  8
0
  6
CONTINUOUS
 10
1.961960
 20
2.599960
  0
SEQEND
  8
0
  0
SOLID
  8
0
 62
    15
 10
2.041160
 20
2.632960
 11
2.042920
 21
3.384480
 12
2.116840
 22
2.656720
 13
2.118600
 23
3.408240
  0
POLYLINE
  8
0
  6
CONTINUOUS
 66
     1
 40
0.000000
 41
0.000000
  0
VERTEX
  8
0
  6
CONTINUOUS
 10
2.041160
 20
2.632960
  0
VERTEX
  8
0
  6
CONTINUOUS
 10
2.042920
 20
3.384480
  0
VERTEX
  8
0
  6
CONTINUOUS
 10
2.118600
 20
3.408240
  0
VERTEX
  8
0
  6
CONTINUOUS
 10
2.116840
 20
2.656720
  0
VERTEX
  8
0
  6
CONTINUOUS
 10
2.041160
 20
2.632960
  0
SEQEND
  8
0
  0
SOLID
  8
0
 62
    15
 10
2.116840
 20
2.656720
 11
2.118600
 21
3.408240
 12
2.187240
 22
2.672560
 13
2.189000
 23
3.424080
  0
POLYLINE
  8
0
  6
CONTINUOUS
 66
     1
 40
0.000000
 41
0.000000
  0
VERTEX
  8
0
  6
CONTINUOUS
 10
2.116840
 20
2.656720
  0
VERTEX
  8
0
  6
CONTINUOUS
 10
2.118600
 20
3.408240
  0
VERTEX
  8
0
  6
CONTINUOUS
 10
2.189000
 20
3.424080
  0
VERTEX
  8
0
  6
CONTINUOUS
 10
2.187240
 20
2.672560
  0
VERTEX
  8
0
  6
CONTINUOUS
 10
2.116840
 20
2.656720
  0
SEQEND
  8
0
  0
SOLID
  8
0
 62
    15
 10
2.187240
 20
2.672560
 11
2.189000
 21
3.424080
 12
2.250600
 22
2.681360
 13
2.251920
 23
3.433320
  0
POLYLINE
  8
0
  6
CONTINUOUS
 66
     1
 40
0.000000
 41
0.000000
  0
VERTEX
  8
0
  6
CONTINUOUS
 10
2.187240
 20
2.672560
  0
VERTEX
  8
0
  6
CONTINUOUS
 10
2.189000
 20
3.424080
  0
VERTEX
  8
0
  6
CONTINUOUS
 10
2.251920
 20
3.433320
  0
VERTEX
  8
0
  6
CONTINUOUS
 10
2.250600
 20
2.681360
  0
VERTEX
  8
0
  6
CONTINUOUS
 10
2.187240
 20
2.672560
  0
SEQEND
  8
0
  0
SOLID
  8
0
 62
    15
 10
2.250600
 20
2.681360
 11
2.251920
 21
3.433320
 12
2.304280
 22
2.684440
 13
2.305600
 23
3.435960
  0
POLYLINE
  8
0
  6
CONTINUOUS
 66
     1
 40
0.000000
 41
0.000000
  0
VERTEX
  8
0
  6
CONTINUOUS
 10
2.250600
 20
2.681360
  0
VERTEX
  8
0
  6
CONTINUOUS
 10
2.251920
 20
3.433320
  0
VERTEX
  8
0
  6
CONTINUOUS
 10
2.305600
 20
3.435960
  0
VERTEX
  8
0
  6
CONTINUOUS
 10
2.304280
 20
2.684440
  0
VERTEX
  8
0
  6
CONTINUOUS
 10
2.250600
 20
2.681360
  0
SEQEND
  8
0
  0
SOLID
  8
0
 62
    15
 10
2.304280
 20
2.684440
 11
2.305600
 21
3.435960
 12
2.358840
 22
2.682240
 13
2.360600
 23
3.434200
  0
POLYLINE
  8
0
  6
CONTINUOUS
 66
     1
 40
0.000000
 41
0.000000
  0
VERTEX
  8
0
  6
CONTINUOUS
 10
2.304280
 20
2.684440
  0
VERTEX
  8
0
  6
CONTINUOUS
 10
2.305600
 20
3.435960
  0
VERTEX
  8
0
  6
CONTINUOUS
 10
2.360600
 20
3.434200
  0
VERTEX
  8
0
  6
CONTINUOUS
 10
2.358840
 20
2.682240
  0
VERTEX
  8
0
  6
CONTINUOUS
 10
2.304280
 20
2.684440
  0
SEQEND
  8
0
  0
SOLID
  8
0
 62
    15
 10
2.358840
 20
2.682240
 11
2.360600
 21
3.434200
 12
2.423960
 22
2.673440
 13
2.425720
 23
3.425400
  0
POLYLINE
  8
0
  6
CONTINUOUS
 66
     1
 40
0.000000
 41
0.000000
  0
VERTEX
  8
0
  6
CONTINUOUS
 10
2.358840
 20
2.682240
  0
VERTEX
  8
0
  6
CONTINUOUS
 10
2.360600
 20
3.434200
  0
VERTEX
  8
0
  6
CONTINUOUS
 10
2.425720
 20
3.425400
  0
VERTEX
  8
0
  6
CONTINUOUS
 10
2.423960
 20
2.673440
  0
VERTEX
  8
0
  6
CONTINUOUS
 10
2.358840
 20
2.682240
  0
SEQEND
  8
0
  0
SOLID
  8
0
 62
    15
 10
2.423960
 20
2.673440
 11
2.425720
 21
3.425400
 12
2.496560
 22
2.653200
 13
2.498320
 23
3.404720
  0
POLYLINE
  8
0
  6
CONTINUOUS
 66
     1
 40
0.000000
 41
0.000000
  0
VERTEX
  8
0
  6
CONTINUOUS
 10
2.423960
 20
2.673440
  0
VERTEX
  8
0
  6
CONTINUOUS
 10
2.425720
 20
3.425400
  0
VERTEX
  8
0
  6
CONTINUOUS
 10
2.498320
 20
3.404720
  0
VERTEX
  8
0
  6
CONTINUOUS
 10
2.496560
 20
2.653200
  0
VERTEX
  8
0
  6
CONTINUOUS
 10
2.423960
 20
2.673440
  0
SEQEND
  8
0
  0
SOLID
  8
0
 62
    15
 10
2.496560
 20
2.653200
 11
2.498320
 21
3.404720
 12
2.573560
 22
2.616680
 13
2.575320
 23
3.368200
  0
POLYLINE
  8
0
  6
CONTINUOUS
 66
     1
 40
0.000000
 41
0.000000
  0
VERTEX
  8
0
  6
CONTINUOUS
 10
2.496560
 20
2.653200
  0
VERTEX
  8
0
  6
CONTINUOUS
 10
2.498320
 20
3.404720
  0
VERTEX
  8
0
  6
CONTINUOUS
 10
2.575320
 20
3.368200
  0
VERTEX
  8
0
  6
CONTINUOUS
 10
2.573560
 20
2.616680
  0
VERTEX
  8
0
  6
CONTINUOUS
 10
2.496560
 20
2.653200
  0
SEQEND
  8
0
  0
SOLID
  8
0
 62
    15
 10
2.573560
 20
2.616680
 11
2.575320
 21
3.368200
 12
2.652320
 22
2.559480
 13
2.653640
 23
3.311000
  0
POLYLINE
  8
0
  6
CONTINUOUS
 66
     1
 40
0.000000
 41
0.000000
  0
VERTEX
  8
0
  6
CONTINUOUS
 10
2.573560
 20
2.616680
  0
VERTEX
  8
0
  6
CONTINUOUS
 10
2.575320
 20
3.368200
  0
VERTEX
  8
0
  6
CONTINUOUS
 10
2.653640
 20
3.311000
  0
VERTEX
  8
0
  6
CONTINUOUS
 10
2.652320
 20
2.559480
  0
VERTEX
  8
0
  6
CONTINUOUS
 10
2.573560
 20
2.616680
  0
SEQEND
  8
0
  0
SOLID
  8
0
 62
    15
 10
2.652320
 20
2.559480
 11
2.653640
 21
3.311000
 12
2.691040
 22
2.521640
 13
2.692800
 23
3.273160
  0
POLYLINE
  8
0
  6
CONTINUOUS
 66
     1
 40
0.000000
 41
0.000000
  0
VERTEX
  8
0
  6
CONTINUOUS
 10
2.652320
 20
2.559480
  0
VERTEX
  8
0
  6
CONTINUOUS
 10
2.653640
 20
3.311000
  0
VERTEX
  8
0
  6
CONTINUOUS
 10
2.692800
 20
3.273160
  0
VERTEX
  8
0
  6
CONTINUOUS
 10
2.691040
 20
2.521640
  0
VERTEX
  8
0
  6
CONTINUOUS
 10
2.652320
 20
2.559480
  0
SEQEND
  8
0
  0
SOLID
  8
0
 62
    15
 10
2.691040
 20
2.521640
 11
2.692800
 21
3.273160
 12
2.729320
 22
2.476760
 13
2.730640
 23
3.228720
  0
POLYLINE
  8
0
  6
CONTINUOUS
 66
     1
 40
0.000000
 41
0.000000
  0
VERTEX
  8
0
  6
CONTINUOUS
 10
2.691040
 20
2.521640
  0
VERTEX
  8
0
  6
CONTINUOUS
 10
2.692800
 20
3.273160
  0
VERTEX
  8
0
  6
CONTINUOUS
 10
2.730640
 20
3.228720
  0
VERTEX
  8
0
  6
CONTINUOUS
 10
2.729320
 20
2.476760
  0
VERTEX
  8
0
  6
CONTINUOUS
 10
2.691040
 20
2.521640
  0
SEQEND
  8
0
  0
SOLID
  8
0
 62
    15
 10
2.729320
 20
2.476760
 11
2.730640
 21
3.228720
 12
2.766280
 22
2.424840
 13
2.767600
 23
3.176360
  0
POLYLINE
  8
0
  6
CONTINUOUS
 66
     1
 40
0.000000
 41
0.000000
  0
VERTEX
  8
0
  6
CONTINUOUS
 10
2.729320
 20
2.476760
  0
VERTEX
  8
0
  6
CONTINUOUS
 10
2.730640
 20
3.228720
  0
VERTEX
  8
0
  6
CONTINUOUS
 10
2.767600
 20
3.176360
  0
VERTEX
  8
0
  6
CONTINUOUS
 10
2.766280
 20
2.424840
  0
VERTEX
  8
0
  6
CONTINUOUS
 10
2.729320
 20
2.476760
  0
SEQEND
  8
0
  0
SOLID
  8
0
 62
    15
 10
2.766280
 20
2.424840
 11
2.767600
 21
3.176360
 12
2.801920
 22
2.364560
 13
2.803240
 23
3.116080
  0
POLYLINE
  8
0
  6
CONTINUOUS
 66
     1
 40
0.000000
 41
0.000000
  0
VERTEX
  8
0
  6
CONTINUOUS
 10
2.766280
 20
2.424840
  0
VERTEX
  8
0
  6
CONTINUOUS
 10
2.767600
 20
3.176360
  0
VERTEX
  8
0
  6
CONTINUOUS
 10
2.803240
 20
3.116080
  0
VERTEX
  8
0
  6
CONTINUOUS
 10
2.801920
 20
2.364560
  0
VERTEX
  8
0
  6
CONTINUOUS
 10
2.766280
 20
2.424840
  0
SEQEND
  8
0
  0
SOLID
  8
0
 62
    15
 10
2.801920
 20
2.364560
 11
2.803240
 21
3.116080
 12
2.835360
 22
2.295480
 13
2.836680
 23
3.047440
  0
POLYLINE
  8
0
  6
CONTINUOUS
 66
     1
 40
0.000000
 41
0.000000
  0
VERTEX
  8
0
  6
CONTINUOUS
 10
2.801920
 20
2.364560
  0
VERTEX
  8
0
  6
CONTINUOUS
 10
2.803240
 20
3.116080
  0
VERTEX
  8
0
  6
CONTINUOUS
 10
2.836680
 20
3.047440
  0
VERTEX
  8
0
  6
CONTINUOUS
 10
2.835360
 20
2.295480
  0
VERTEX
  8
0
  6
CONTINUOUS
 10
2.801920
 20
2.364560
  0
SEQEND
  8
0
  0
SOLID
  8
0
 62
    15
 10
2.835360
 20
2.295480
 11
2.836680
 21
3.047440
 12
2.866600
 22
2.217600
 13
2.868360
 23
2.969120
  0
POLYLINE
  8
0
  6
CONTINUOUS
 66
     1
 40
0.000000
 41
0.000000
  0
VERTEX
  8
0
  6
CONTINUOUS
 10
2.835360
 20
2.295480
  0
VERTEX
  8
0
  6
CONTINUOUS
 10
2.836680
 20
3.047440
  0
VERTEX
  8
0
  6
CONTINUOUS
 10
2.868360
 20
2.969120
  0
VERTEX
  8
0
  6
CONTINUOUS
 10
2.866600
 20
2.217600
  0
VERTEX
  8
0
  6
CONTINUOUS
 10
2.835360
 20
2.295480
  0
SEQEND
  8
0
  0
SOLID
  8
0
 62
    15
 10
2.866600
 20
2.217600
 11
2.868360
 21
2.969120
 12
2.871000
 22
2.215400
 13
2.872320
 23
2.967360
  0
POLYLINE
  8
0
  6
CONTINUOUS
 66
     1
 40
0.000000
 41
0.000000
  0
VERTEX
  8
0
  6
CONTINUOUS
 10
2.866600
 20
2.217600
  0
VERTEX
  8
0
  6
CONTINUOUS
 10
2.868360
 20
2.969120
  0
VERTEX
  8
0
  6
CONTINUOUS
 10
2.872320
 20
2.967360
  0
VERTEX
  8
0
  6
CONTINUOUS
 10
2.871000
 20
2.215400
  0
VERTEX
  8
0
  6
CONTINUOUS
 10
2.866600
 20
2.217600
  0
SEQEND
  8
0
  0
SOLID
  8
0
 62
    15
 10
2.871000
 20
2.215400
 11
2.872320
 21
2.967360
 12
3.793680
 22
2.215400
 13
3.795440
 23
2.967360
  0
POLYLINE
  8
0
  6
CONTINUOUS
 66
     1
 40
0.000000
 41
0.000000
  0
VERTEX
  8
0
  6
CONTINUOUS
 10
2.871000
 20
2.215400
  0
VERTEX
  8
0
  6
CONTINUOUS
 10
2.872320
 20
2.967360
  0
VERTEX
  8
0
  6
CONTINUOUS
 10
3.795440
 20
2.967360
  0
VERTEX
  8
0
  6
CONTINUOUS
 10
3.793680
 20
2.215400
  0
VERTEX
  8
0
  6
CONTINUOUS
 10
2.871000
 20
2.215400
  0
SEQEND
  8
0
  0
SOLID
  8
0
 62
    15
 10
3.793680
 20
2.215400
 11
3.795440
 21
2.967360
 12
3.844280
 22
2.210120
 13
3.846040
 23
2.962080
  0
POLYLINE
  8
0
  6
CONTINUOUS
 66
     1
 40
0.000000
 41
0.000000
  0
VERTEX
  8
0
  6
CONTINUOUS
 10
3.793680
 20
2.215400
  0
VERTEX
  8
0
  6
CONTINUOUS
 10
3.795440
 20
2.967360
  0
VERTEX
  8
0
  6
CONTINUOUS
 10
3.846040
 20
2.962080
  0
VERTEX
  8
0
  6
CONTINUOUS
 10
3.844280
 20
2.210120
  0
VERTEX
  8
0
  6
CONTINUOUS
 10
3.793680
 20
2.215400
  0
SEQEND
  8
0
  0
SOLID
  8
0
 62
    15
 10
3.844280
 20
2.210120
 11
3.846040
 21
2.962080
 12
3.895320
 22
2.194720
 13
3.896640
 23
2.946240
  0
POLYLINE
  8
0
  6
CONTINUOUS
 66
     1
 40
0.000000
 41
0.000000
  0
VERTEX
  8
0
  6
CONTINUOUS
 10
3.844280
 20
2.210120
  0
VERTEX
  8
0
  6
CONTINUOUS
 10
3.846040
 20
2.962080
  0
VERTEX
  8
0
  6
CONTINUOUS
 10
3.896640
 20
2.946240
  0
VERTEX
  8
0
  6
CONTINUOUS
 10
3.895320
 20
2.194720
  0
VERTEX
  8
0
  6
CONTINUOUS
 10
3.844280
 20
2.210120
  0
SEQEND
  8
0
  0
SOLID
  8
0
 62
    15
 10
3.895320
 20
2.194720
 11
3.896640
 21
2.946240
 12
3.944160
 22
2.170080
 13
3.945920
 23
2.921600
  0
POLYLINE
  8
0
  6
CONTINUOUS
 66
     1
 40
0.000000
 41
0.000000
  0
VERTEX
  8
0
  6
CONTINUOUS
 10
3.895320
 20
2.194720
  0
VERTEX
  8
0
  6
CONTINUOUS
 10
3.896640
 20
2.946240
  0
VERTEX
  8
0
  6
CONTINUOUS
 10
3.945920
 20
2.921600
  0
VERTEX
  8
0
  6
CONTINUOUS
 10
3.944160
 20
2.170080
  0
VERTEX
  8
0
  6
CONTINUOUS
 10
3.895320
 20
2.194720
  0
SEQEND
  8
0
  0
SOLID
  8
0
 62
    15
 10
3.944160
 20
2.170080
 11
3.945920
 21
2.921600
 12
3.990360
 22
2.136640
 13
3.991680
 23
2.888160
  0
POLYLINE
  8
0
  6
CONTINUOUS
 66
     1
 40
0.000000
 41
0.000000
  0
VERTEX
  8
0
  6
CONTINUOUS
 10
3.944160
 20
2.170080
  0
VERTEX
  8
0
  6
CONTINUOUS
 10
3.945920
 20
2.921600
  0
VERTEX
  8
0
  6
CONTINUOUS
 10
3.991680
 20
2.888160
  0
VERTEX
  8
0
  6
CONTINUOUS
 10
3.990360
 20
2.136640
  0
VERTEX
  8
0
  6
CONTINUOUS
 10
3.944160
 20
2.170080
  0
SEQEND
  8
0
  0
SOLID
  8
0
 62
    15
 10
3.990360
 20
2.136640
 11
3.991680
 21
2.888160
 12
4.031280
 22
2.095720
 13
4.032600
 23
2.847240
  0
POLYLINE
  8
0
  6
CONTINUOUS
 66
     1
 40
0.000000
 41
0.000000
  0
VERTEX
  8
0
  6
CONTINUOUS
 10
3.990360
 20
2.136640
  0
VERTEX
  8
0
  6
CONTINUOUS
 10
3.991680
 20
2.888160
  0
VERTEX
  8
0
  6
CONTINUOUS
 10
4.032600
 20
2.847240
  0
VERTEX
  8
0
  6
CONTINUOUS
 10
4.031280
 20
2.095720
  0
VERTEX
  8
0
  6
CONTINUOUS
 10
3.990360
 20
2.136640
  0
SEQEND
  8
0
  0
SOLID
  8
0
 62
    15
 10
4.031280
 20
2.095720
 11
4.032600
 21
2.847240
 12
4.065600
 22
2.047760
 13
4.067360
 23
2.799280
  0
POLYLINE
  8
0
  6
CONTINUOUS
 66
     1
 40
0.000000
 41
0.000000
  0
VERTEX
  8
0
  6
CONTINUOUS
 10
4.031280
 20
2.095720
  0
VERTEX
  8
0
  6
CONTINUOUS
 10
4.032600
 20
2.847240
  0
VERTEX
  8
0
  6
CONTINUOUS
 10
4.067360
 20
2.799280
  0
VERTEX
  8
0
  6
CONTINUOUS
 10
4.065600
 20
2.047760
  0
VERTEX
  8
0
  6
CONTINUOUS
 10
4.031280
 20
2.095720
  0
SEQEND
  8
0
  0
SOLID
  8
0
 62
    15
 10
4.065600
 20
2.047760
 11
4.067360
 21
2.799280
 12
4.092000
 22
1.993640
 13
4.093760
 23
2.745160
  0
POLYLINE
  8
0
  6
CONTINUOUS
 66
     1
 40
0.000000
 41
0.000000
  0
VERTEX
  8
0
  6
CONTINUOUS
 10
4.065600
 20
2.047760
  0
VERTEX
  8
0
  6
CONTINUOUS
 10
4.067360
 20
2.799280
  0
VERTEX
  8
0
  6
CONTINUOUS
 10
4.093760
 20
2.745160
  0
VERTEX
  8
0
  6
CONTINUOUS
 10
4.092000
 20
1.993640
  0
VERTEX
  8
0
  6
CONTINUOUS
 10
4.065600
 20
2.047760
  0
SEQEND
  8
0
  0
SOLID
  8
0
 62
    15
 10
4.092000
 20
1.993640
 11
4.093760
 21
2.745160
 12
4.108280
 22
1.934240
 13
4.110040
 23
2.686200
  0
POLYLINE
  8
0
  6
CONTINUOUS
 66
     1
 40
0.000000
 41
0.000000
  0
VERTEX
  8
0
  6
CONTINUOUS
 10
4.092000
 20
1.993640
  0
VERTEX
  8
0
  6
CONTINUOUS
 10
4.093760
 20
2.745160
  0
VERTEX
  8
0
  6
CONTINUOUS
 10
4.110040
 20
2.686200
  0
VERTEX
  8
0
  6
CONTINUOUS
 10
4.108280
 20
1.934240
  0
VERTEX
  8
0
  6
CONTINUOUS
 10
4.092000
 20
1.993640
  0
SEQEND
  8
0
  0
SOLID
  8
0
 62
    15
 10
4.108280
 20
1.934240
 11
4.110040
 21
2.686200
 12
4.331360
 22
1.934240
 13
4.332680
 23
2.685760
  0
POLYLINE
  8
0
  6
CONTINUOUS
 66
     1
 40
0.000000
 41
0.000000
  0
VERTEX
  8
0
  6
CONTINUOUS
 10
4.108280
 20
1.934240
  0
VERTEX
  8
0
  6
CONTINUOUS
 10
4.110040
 20
2.686200
  0
VERTEX
  8
0
  6
CONTINUOUS
 10
4.332680
 20
2.685760
  0
VERTEX
  8
0
  6
CONTINUOUS
 10
4.331360
 20
1.934240
  0
VERTEX
  8
0
  6
CONTINUOUS
 10
4.108280
 20
1.934240
  0
SEQEND
  8
0
  0
SOLID
  8
0
 62
    15
 10
4.331360
 20
1.934240
 11
4.332680
 21
2.685760
 12
4.341920
 22
1.938640
 13
4.343240
 23
2.690160
  0
POLYLINE
  8
0
  6
CONTINUOUS
 66
     1
 40
0.000000
 41
0.000000
  0
VERTEX
  8
0
  6
CONTINUOUS
 10
4.331360
 20
1.934240
  0
VERTEX
  8
0
  6
CONTINUOUS
 10
4.332680
 20
2.685760
  0
VERTEX
  8
0
  6
CONTINUOUS
 10
4.343240
 20
2.690160
  0
VERTEX
  8
0
  6
CONTINUOUS
 10
4.341920
 20
1.938640
  0
VERTEX
  8
0
  6
CONTINUOUS
 10
4.331360
 20
1.934240
  0
SEQEND
  8
0
  0
SOLID
  8
0
 62
    15
 10
4.341920
 20
1.938640
 11
4.343240
 21
2.690160
 12
4.359960
 22
1.954920
 13
4.361720
 23
2.706440
  0
POLYLINE
  8
0
  6
CONTINUOUS
 66
     1
 40
0.000000
 41
0.000000
  0
VERTEX
  8
0
  6
CONTINUOUS
 10
4.341920
 20
1.938640
  0
VERTEX
  8
0
  6
CONTINUOUS
 10
4.343240
 20
2.690160
  0
VERTEX
  8
0
  6
CONTINUOUS
 10
4.361720
 20
2.706440
  0
VERTEX
  8
0
  6
CONTINUOUS
 10
4.359960
 20
1.954920
  0
VERTEX
  8
0
  6
CONTINUOUS
 10
4.341920
 20
1.938640
  0
SEQEND
  8
0
  0
SOLID
  8
0
 62
    15
 10
4.359960
 20
1.954920
 11
4.361720
 21
2.706440
 12
4.373160
 22
1.966800
 13
4.374480
 23
2.718320
  0
POLYLINE
  8
0
  6
CONTINUOUS
 66
     1
 40
0.000000
 41
0.000000
  0
VERTEX
  8
0
  6
CONTINUOUS
 10
4.359960
 20
1.954920
  0
VERTEX
  8
0
  6
CONTINUOUS
 10
4.361720
 20
2.706440
  0
VERTEX
  8
0
  6
CONTINUOUS
 10
4.374480
 20
2.718320
  0
VERTEX
  8
0
  6
CONTINUOUS
 10
4.373160
 20
1.966800
  0
VERTEX
  8
0
  6
CONTINUOUS
 10
4.359960
 20
1.954920
  0
SEQEND
  8
0
  0
SOLID
  8
0
 62
    15
 10
4.373160
 20
1.966800
 11
4.374480
 21
2.718320
 12
4.388560
 22
1.980880
 13
4.390320
 23
2.732400
  0
POLYLINE
  8
0
  6
CONTINUOUS
 66
     1
 40
0.000000
 41
0.000000
  0
VERTEX
  8
0
  6
CONTINUOUS
 10
4.373160
 20
1.966800
  0
VERTEX
  8
0
  6
CONTINUOUS
 10
4.374480
 20
2.718320
  0
VERTEX
  8
0
  6
CONTINUOUS
 10
4.390320
 20
2.732400
  0
VERTEX
  8
0
  6
CONTINUOUS
 10
4.388560
 20
1.980880
  0
VERTEX
  8
0
  6
CONTINUOUS
 10
4.373160
 20
1.966800
  0
SEQEND
  8
0
  0
SOLID
  8
0
 62
    15
 10
4.388560
 20
1.980880
 11
4.390320
 21
2.732400
 12
4.428160
 22
2.013000
 13
4.429920
 23
2.764520
  0
POLYLINE
  8
0
  6
CONTINUOUS
 66
     1
 40
0.000000
 41
0.000000
  0
VERTEX
  8
0
  6
CONTINUOUS
 10
4.388560
 20
1.980880
  0
VERTEX
  8
0
  6
CONTINUOUS
 10
4.390320
 20
2.732400
  0
VERTEX
  8
0
  6
CONTINUOUS
 10
4.429920
 20
2.764520
  0
VERTEX
  8
0
  6
CONTINUOUS
 10
4.428160
 20
2.013000
  0
VERTEX
  8
0
  6
CONTINUOUS
 10
4.388560
 20
1.980880
  0
SEQEND
  8
0
  0
SOLID
  8
0
 62
    15
 10
4.428160
 20
2.013000
 11
4.429920
 21
2.764520
 12
4.479640
 22
2.047760
 13
4.480960
 23
2.799280
  0
POLYLINE
  8
0
  6
CONTINUOUS
 66
     1
 40
0.000000
 41
0.000000
  0
VERTEX
  8
0
  6
CONTINUOUS
 10
4.428160
 20
2.013000
  0
VERTEX
  8
0
  6
CONTINUOUS
 10
4.429920
 20
2.764520
  0
VERTEX
  8
0
  6
CONTINUOUS
 10
4.480960
 20
2.799280
  0
VERTEX
  8
0
  6
CONTINUOUS
 10
4.479640
 20
2.047760
  0
VERTEX
  8
0
  6
CONTINUOUS
 10
4.428160
 20
2.013000
  0
SEQEND
  8
0
  0
SOLID
  8
0
 62
    15
 10
4.479640
 20
2.047760
 11
4.480960
 21
2.799280
 12
4.543000
 22
2.080760
 13
4.544320
 23
2.832720
  0
POLYLINE
  8
0
  6
CONTINUOUS
 66
     1
 40
0.000000
 41
0.000000
  0
VERTEX
  8
0
  6
CONTINUOUS
 10
4.479640
 20
2.047760
  0
VERTEX
  8
0
  6
CONTINUOUS
 10
4.480960
 20
2.799280
  0
VERTEX
  8
0
  6
CONTINUOUS
 10
4.544320
 20
2.832720
  0
VERTEX
  8
0
  6
CONTINUOUS
 10
4.543000
 20
2.080760
  0
VERTEX
  8
0
  6
CONTINUOUS
 10
4.479640
 20
2.047760
  0
SEQEND
  8
0
  0
SOLID
  8
0
 62
    15
 10
4.543000
 20
2.080760
 11
4.544320
 21
2.832720
 12
4.619120
 22
2.109360
 13
4.620880
 23
2.860880
  0
POLYLINE
  8
0
  6
CONTINUOUS
 66
     1
 40
0.000000
 41
0.000000
  0
VERTEX
  8
0
  6
CONTINUOUS
 10
4.543000
 20
2.080760
  0
VERTEX
  8
0
  6
CONTINUOUS
 10
4.544320
 20
2.832720
  0
VERTEX
  8
0
  6
CONTINUOUS
 10
4.620880
 20
2.860880
  0
VERTEX
  8
0
  6
CONTINUOUS
 10
4.619120
 20
2.109360
  0
VERTEX
  8
0
  6
CONTINUOUS
 10
4.543000
 20
2.080760
  0
SEQEND
  8
0
  0
SOLID
  8
0
 62
    15
 10
4.619120
 20
2.109360
 11
4.620880
 21
2.860880
 12
4.708880
 22
2.129160
 13
4.710640
 23
2.880680
  0
POLYLINE
  8
0
  6
CONTINUOUS
 66
     1
 40
0.000000
 41
0.000000
  0
VERTEX
  8
0
  6
CONTINUOUS
 10
4.619120
 20
2.109360
  0
VERTEX
  8
0
  6
CONTINUOUS
 10
4.620880
 20
2.860880
  0
VERTEX
  8
0
  6
CONTINUOUS
 10
4.710640
 20
2.880680
  0
VERTEX
  8
0
  6
CONTINUOUS
 10
4.708880
 20
2.129160
  0
VERTEX
  8
0
  6
CONTINUOUS
 10
4.619120
 20
2.109360
  0
SEQEND
  8
0
  0
SOLID
  8
0
 62
    15
 10
4.708880
 20
2.129160
 11
4.710640
 21
2.880680
 12
4.812720
 22
2.136200
 13
4.814040
 23
2.888160
  0
POLYLINE
  8
0
  6
CONTINUOUS
 66
     1
 40
0.000000
 41
0.000000
  0
VERTEX
  8
0
  6
CONTINUOUS
 10
4.708880
 20
2.129160
  0
VERTEX
  8
0
  6
CONTINUOUS
 10
4.710640
 20
2.880680
  0
VERTEX
  8
0
  6
CONTINUOUS
 10
4.814040
 20
2.888160
  0
VERTEX
  8
0
  6
CONTINUOUS
 10
4.812720
 20
2.136200
  0
VERTEX
  8
0
  6
CONTINUOUS
 10
4.708880
 20
2.129160
  0
SEQEND
  8
0
  0
SOLID
  8
0
 62
    15
 10
4.812720
 20
2.136200
 11
4.814040
 21
2.888160
 12
4.921400
 22
2.129160
 13
4.923160
 23
2.880680
  0
POLYLINE
  8
0
  6
CONTINUOUS
 66
     1
 40
0.000000
 41
0.000000
  0
VERTEX
  8
0
  6
CONTINUOUS
 10
4.812720
 20
2.136200
  0
VERTEX
  8
0
  6
CONTINUOUS
 10
4.814040
 20
2.888160
  0
VERTEX
  8
0
  6
CONTINUOUS
 10
4.923160
 20
2.880680
  0
VERTEX
  8
0
  6
CONTINUOUS
 10
4.921400
 20
2.129160
  0
VERTEX
  8
0
  6
CONTINUOUS
 10
4.812720
 20
2.136200
  0
SEQEND
  8
0
  0
SOLID
  8
0
 62
    15
 10
4.921400
 20
2.129160
 11
4.923160
 21
2.880680
 12
5.024800
 22
2.109800
 13
5.026120
 23
2.861320
  0
POLYLINE
  8
0
  6
CONTINUOUS
 66
     1
 40
0.000000
 41
0.000000
  0
VERTEX
  8
0
  6
CONTINUOUS
 10
4.921400
 20
2.129160
  0
VERTEX
  8
0
  6
CONTINUOUS
 10
4.923160
 20
2.880680
  0
VERTEX
  8
0
  6
CONTINUOUS
 10
5.026120
 20
2.861320
  0
VERTEX
  8
0
  6
CONTINUOUS
 10
5.024800
 20
2.109800
  0
VERTEX
  8
0
  6
CONTINUOUS
 10
4.921400
 20
2.129160
  0
SEQEND
  8
0
  0
SOLID
  8
0
 62
    15
 10
5.024800
 20
2.109800
 11
5.026120
 21
2.861320
 12
5.119400
 22
2.082520
 13
5.120720
 23
2.834040
  0
POLYLINE
  8
0
  6
CONTINUOUS
 66
     1
 40
0.000000
 41
0.000000
  0
VERTEX
  8
0
  6
CONTINUOUS
 10
5.024800
 20
2.109800
  0
VERTEX
  8
0
  6
CONTINUOUS
 10
5.026120
 20
2.861320
  0
VERTEX
  8
0
  6
CONTINUOUS
 10
5.120720
 20
2.834040
  0
VERTEX
  8
0
  6
CONTINUOUS
 10
5.119400
 20
2.082520
  0
VERTEX
  8
0
  6
CONTINUOUS
 10
5.024800
 20
2.109800
  0
SEQEND
  8
0
  0
SOLID
  8
0
 62
    15
 10
5.119400
 20
2.082520
 11
5.120720
 21
2.834040
 12
5.202560
 22
2.050840
 13
5.204320
 23
2.802800
  0
POLYLINE
  8
0
  6
CONTINUOUS
 66
     1
 40
0.000000
 41
0.000000
  0
VERTEX
  8
0
  6
CONTINUOUS
 10
5.119400
 20
2.082520
  0
VERTEX
  8
0
  6
CONTINUOUS
 10
5.120720
 20
2.834040
  0
VERTEX
  8
0
  6
CONTINUOUS
 10
5.204320
 20
2.802800
  0
VERTEX
  8
0
  6
CONTINUOUS
 10
5.202560
 20
2.050840
  0
VERTEX
  8
0
  6
CONTINUOUS
 10
5.119400
 20
2.082520
  0
SEQEND
  8
0
  0
SOLID
  8
0
 62
    15
 10
5.202560
 20
2.050840
 11
5.204320
 21
2.802800
 12
5.272520
 22
2.019600
 13
5.273840
 23
2.771120
  0
POLYLINE
  8
0
  6
CONTINUOUS
 66
     1
 40
0.000000
 41
0.000000
  0
VERTEX
  8
0
  6
CONTINUOUS
 10
5.202560
 20
2.050840
  0
VERTEX
  8
0
  6
CONTINUOUS
 10
5.204320
 20
2.802800
  0
VERTEX
  8
0
  6
CONTINUOUS
 10
5.273840
 20
2.771120
  0
VERTEX
  8
0
  6
CONTINUOUS
 10
5.272520
 20
2.019600
  0
VERTEX
  8
0
  6
CONTINUOUS
 10
5.202560
 20
2.050840
  0
SEQEND
  8
0
  0
SOLID
  8
0
 62
    15
 10
5.272520
 20
2.019600
 11
5.273840
 21
2.771120
 12
5.325320
 22
1.992320
 13
5.326640
 23
2.743840
  0
POLYLINE
  8
0
  6
CONTINUOUS
 66
     1
 40
0.000000
 41
0.000000
  0
VERTEX
  8
0
  6
CONTINUOUS
 10
5.272520
 20
2.019600
  0
VERTEX
  8
0
  6
CONTINUOUS
 10
5.273840
 20
2.771120
  0
VERTEX
  8
0
  6
CONTINUOUS
 10
5.326640
 20
2.743840
  0
VERTEX
  8
0
  6
CONTINUOUS
 10
5.325320
 20
1.992320
  0
VERTEX
  8
0
  6
CONTINUOUS
 10
5.272520
 20
2.019600
  0
SEQEND
  8
0
  0
SOLID
  8
0
 62
    15
 10
5.325320
 20
1.992320
 11
5.326640
 21
2.743840
 12
5.359200
 22
1.972960
 13
5.360520
 23
2.724480
  0
POLYLINE
  8
0
  6
CONTINUOUS
 66
     1
 40
0.000000
 41
0.000000
  0
VERTEX
  8
0
  6
CONTINUOUS
 10
5.325320
 20
1.992320
  0
VERTEX
  8
0
  6
CONTINUOUS
 10
5.326640
 20
2.743840
  0
VERTEX
  8
0
  6
CONTINUOUS
 10
5.360520
 20
2.724480
  0
VERTEX
  8
0
  6
CONTINUOUS
 10
5.359200
 20
1.972960
  0
VERTEX
  8
0
  6
CONTINUOUS
 10
5.325320
 20
1.992320
  0
SEQEND
  8
0
  0
SOLID
  8
0
 62
    15
 10
1.725240
 20
2.440680
 11
1.726560
 21
3.192200
 12
1.802240
 22
2.504920
 13
1.803560
 23
3.256440
  0
POLYLINE
  8
0
  6
CONTINUOUS
 66
     1
 40
0.000000
 41
0.000000
  0
VERTEX
  8
0
  6
CONTINUOUS
 10
1.725240
 20
2.440680
  0
VERTEX
  8
0
  6
CONTINUOUS
 10
1.726560
 20
3.192200
  0
VERTEX
  8
0
  6
CONTINUOUS
 10
1.803560
 20
3.256440
  0
VERTEX
  8
0
  6
CONTINUOUS
 10
1.802240
 20
2.504920
  0
VERTEX
  8
0
  6
CONTINUOUS
 10
1.725240
 20
2.440680
  0
SEQEND
  8
0
  0
SOLID
  8
0
 62
    15
 10
5.368000
 20
1.967680
 11
5.369320
 21
2.719200
 12
5.371080
 22
1.965480
 13
5.372400
 23
2.717440
  0
POLYLINE
  8
0
  6
CONTINUOUS
 66
     1
 40
0.000000
 41
0.000000
  0
VERTEX
  8
0
  6
CONTINUOUS
 10
5.368000
 20
1.967680
  0
VERTEX
  8
0
  6
CONTINUOUS
 10
5.369320
 20
2.719200
  0
VERTEX
  8
0
  6
CONTINUOUS
 10
5.372400
 20
2.717440
  0
VERTEX
  8
0
  6
CONTINUOUS
 10
5.371080
 20
1.965480
  0
VERTEX
  8
0
  6
CONTINUOUS
 10
5.368000
 20
1.967680
  0
SEQEND
  8
0
  0
SOLID
  8
0
 62
    15
 10
5.371080
 20
1.965480
 11
5.372400
 21
2.717440
 12
5.382960
 22
1.956680
 13
5.384720
 23
2.708200
  0
POLYLINE
  8
0
  6
CONTINUOUS
 66
     1
 40
0.000000
 41
0.000000
  0
VERTEX
  8
0
  6
CONTINUOUS
 10
5.371080
 20
1.965480
  0
VERTEX
  8
0
  6
CONTINUOUS
 10
5.372400
 20
2.717440
  0
VERTEX
  8
0
  6
CONTINUOUS
 10
5.384720
 20
2.708200
  0
VERTEX
  8
0
  6
CONTINUOUS
 10
5.382960
 20
1.956680
  0
VERTEX
  8
0
  6
CONTINUOUS
 10
5.371080
 20
1.965480
  0
SEQEND
  8
0
  0
SOLID
  8
0
 62
    15
 10
5.382960
 20
1.956680
 11
5.384720
 21
2.708200
 12
5.417280
 22
1.932920
 13
5.418600
 23
2.684440
  0
POLYLINE
  8
0
  6
CONTINUOUS
 66
     1
 40
0.000000
 41
0.000000
  0
VERTEX
  8
0
  6
CONTINUOUS
 10
5.382960
 20
1.956680
  0
VERTEX
  8
0
  6
CONTINUOUS
 10
5.384720
 20
2.708200
  0
VERTEX
  8
0
  6
CONTINUOUS
 10
5.418600
 20
2.684440
  0
VERTEX
  8
0
  6
CONTINUOUS
 10
5.417280
 20
1.932920
  0
VERTEX
  8
0
  6
CONTINUOUS
 10
5.382960
 20
1.956680
  0
SEQEND
  8
0
  0
SOLID
  8
0
 62
    15
 10
5.417280
 20
1.932920
 11
5.418600
 21
2.684440
 12
5.469640
 22
1.898600
 13
5.470960
 23
2.650560
  0
POLYLINE
  8
0
  6
CONTINUOUS
 66
     1
 40
0.000000
 41
0.000000
  0
VERTEX
  8
0
  6
CONTINUOUS
 10
5.417280
 20
1.932920
  0
VERTEX
  8
0
  6
CONTINUOUS
 10
5.418600
 20
2.684440
  0
VERTEX
  8
0
  6
CONTINUOUS
 10
5.470960
 20
2.650560
  0
VERTEX
  8
0
  6
CONTINUOUS
 10
5.469640
 20
1.898600
  0
VERTEX
  8
0
  6
CONTINUOUS
 10
5.417280
 20
1.932920
  0
SEQEND
  8
0
  0
SOLID
  8
0
 62
    15
 10
5.469640
 20
1.898600
 11
5.470960
 21
2.650560
 12
5.536520
 22
1.859000
 13
5.537840
 23
2.610960
  0
POLYLINE
  8
0
  6
CONTINUOUS
 66
     1
 40
0.000000
 41
0.000000
  0
VERTEX
  8
0
  6
CONTINUOUS
 10
5.469640
 20
1.898600
  0
VERTEX
  8
0
  6
CONTINUOUS
 10
5.470960
 20
2.650560
  0
VERTEX
  8
0
  6
CONTINUOUS
 10
5.537840
 20
2.610960
  0
VERTEX
  8
0
  6
CONTINUOUS
 10
5.536520
 20
1.859000
  0
VERTEX
  8
0
  6
CONTINUOUS
 10
5.469640
 20
1.898600
  0
SEQEND
  8
0
  0
SOLID
  8
0
 62
    15
 10
5.536520
 20
1.859000
 11
5.537840
 21
2.610960
 12
5.613960
 22
1.818520
 13
5.615280
 23
2.570480
  0
POLYLINE
  8
0
  6
CONTINUOUS
 66
     1
 40
0.000000
 41
0.000000
  0
VERTEX
  8
0
  6
CONTINUOUS
 10
5.536520
 20
1.859000
  0
VERTEX
  8
0
  6
CONTINUOUS
 10
5.537840
 20
2.610960
  0
VERTEX
  8
0
  6
CONTINUOUS
 10
5.615280
 20
2.570480
  0
VERTEX
  8
0
  6
CONTINUOUS
 10
5.613960
 20
1.818520
  0
VERTEX
  8
0
  6
CONTINUOUS
 10
5.536520
 20
1.859000
  0
SEQEND
  8
0
  0
SOLID
  8
0
 62
    15
 10
5.613960
 20
1.818520
 11
5.615280
 21
2.570480
 12
5.698880
 22
1.782000
 13
5.700200
 23
2.533520
  0
POLYLINE
  8
0
  6
CONTINUOUS
 66
     1
 40
0.000000
 41
0.000000
  0
VERTEX
  8
0
  6
CONTINUOUS
 10
5.613960
 20
1.818520
  0
VERTEX
  8
0
  6
CONTINUOUS
 10
5.615280
 20
2.570480
  0
VERTEX
  8
0
  6
CONTINUOUS
 10
5.700200
 20
2.533520
  0
VERTEX
  8
0
  6
CONTINUOUS
 10
5.698880
 20
1.782000
  0
VERTEX
  8
0
  6
CONTINUOUS
 10
5.613960
 20
1.818520
  0
SEQEND
  8
0
  0
SOLID
  8
0
 62
    15
 10
5.698880
 20
1.782000
 11
5.700200
 21
2.533520
 12
5.786880
 22
1.753840
 13
5.788640
 23
2.505360
  0
POLYLINE
  8
0
  6
CONTINUOUS
 66
     1
 40
0.000000
 41
0.000000
  0
VERTEX
  8
0
  6
CONTINUOUS
 10
5.698880
 20
1.782000
  0
VERTEX
  8
0
  6
CONTINUOUS
 10
5.700200
 20
2.533520
  0
VERTEX
  8
0
  6
CONTINUOUS
 10
5.788640
 20
2.505360
  0
VERTEX
  8
0
  6
CONTINUOUS
 10
5.786880
 20
1.753840
  0
VERTEX
  8
0
  6
CONTINUOUS
 10
5.698880
 20
1.782000
  0
SEQEND
  8
0
  0
SOLID
  8
0
 62
    15
 10
5.786880
 20
1.753840
 11
5.788640
 21
2.505360
 12
5.875320
 22
1.738440
 13
5.876640
 23
2.489960
  0
POLYLINE
  8
0
  6
CONTINUOUS
 66
     1
 40
0.000000
 41
0.000000
  0
VERTEX
  8
0
  6
CONTINUOUS
 10
5.786880
 20
1.753840
  0
VERTEX
  8
0
  6
CONTINUOUS
 10
5.788640
 20
2.505360
  0
VERTEX
  8
0
  6
CONTINUOUS
 10
5.876640
 20
2.489960
  0
VERTEX
  8
0
  6
CONTINUOUS
 10
5.875320
 20
1.738440
  0
VERTEX
  8
0
  6
CONTINUOUS
 10
5.786880
 20
1.753840
  0
SEQEND
  8
0
  0
SOLID
  8
0
 62
    15
 10
5.875320
 20
1.738440
 11
5.876640
 21
2.489960
 12
5.938240
 22
1.738000
 13
5.939560
 23
2.489960
  0
POLYLINE
  8
0
  6
CONTINUOUS
 66
     1
 40
0.000000
 41
0.000000
  0
VERTEX
  8
0
  6
CONTINUOUS
 10
5.875320
 20
1.738440
  0
VERTEX
  8
0
  6
CONTINUOUS
 10
5.876640
 20
2.489960
  0
VERTEX
  8
0
  6
CONTINUOUS
 10
5.939560
 20
2.489960
  0
VERTEX
  8
0
  6
CONTINUOUS
 10
5.938240
 20
1.738000
  0
VERTEX
  8
0
  6
CONTINUOUS
 10
5.875320
 20
1.738440
  0
SEQEND
  8
0
  0
SOLID
  8
0
 62
    15
 10
5.938240
 20
1.738000
 11
5.939560
 21
2.489960
 12
5.992360
 22
1.747240
 13
5.993680
 23
2.499200
  0
POLYLINE
  8
0
  6
CONTINUOUS
 66
     1
 40
0.000000
 41
0.000000
  0
VERTEX
  8
0
  6
CONTINUOUS
 10
5.938240
 20
1.738000
  0
VERTEX
  8
0
  6
CONTINUOUS
 10
5.939560
 20
2.489960
  0
VERTEX
  8
0
  6
CONTINUOUS
 10
5.993680
 20
2.499200
  0
VERTEX
  8
0
  6
CONTINUOUS
 10
5.992360
 20
1.747240
  0
VERTEX
  8
0
  6
CONTINUOUS
 10
5.938240
 20
1.738000
  0
SEQEND
  8
0
  0
SOLID
  8
0
 62
    15
 10
5.992360
 20
1.747240
 11
5.993680
 21
2.499200
 12
6.038560
 22
1.765280
 13
6.039880
 23
2.517240
  0
POLYLINE
  8
0
  6
CONTINUOUS
 66
     1
 40
0.000000
 41
0.000000
  0
VERTEX
  8
0
  6
CONTINUOUS
 10
5.992360
 20
1.747240
  0
VERTEX
  8
0
  6
CONTINUOUS
 10
5.993680
 20
2.499200
  0
VERTEX
  8
0
  6
CONTINUOUS
 10
6.039880
 20
2.517240
  0
VERTEX
  8
0
  6
CONTINUOUS
 10
6.038560
 20
1.765280
  0
VERTEX
  8
0
  6
CONTINUOUS
 10
5.992360
 20
1.747240
  0
SEQEND
  8
0
  0
SOLID
  8
0
 62
    15
 10
6.038560
 20
1.765280
 11
6.039880
 21
2.517240
 12
6.077720
 22
1.791680
 13
6.079040
 23
2.543640
  0
POLYLINE
  8
0
  6
CONTINUOUS
 66
     1
 40
0.000000
 41
0.000000
  0
VERTEX
  8
0
  6
CONTINUOUS
 10
6.038560
 20
1.765280
  0
VERTEX
  8
0
  6
CONTINUOUS
 10
6.039880
 20
2.517240
  0
VERTEX
  8
0
  6
CONTINUOUS
 10
6.079040
 20
2.543640
  0
VERTEX
  8
0
  6
CONTINUOUS
 10
6.077720
 20
1.791680
  0
VERTEX
  8
0
  6
CONTINUOUS
 10
6.038560
 20
1.765280
  0
SEQEND
  8
0
  0
SOLID
  8
0
 62
    15
 10
6.077720
 20
1.791680
 11
6.079040
 21
2.543640
 12
6.111160
 22
1.826000
 13
6.112920
 23
2.577520
  0
POLYLINE
  8
0
  6
CONTINUOUS
 66
     1
 40
0.000000
 41
0.000000
  0
VERTEX
  8
0
  6
CONTINUOUS
 10
6.077720
 20
1.791680
  0
VERTEX
  8
0
  6
CONTINUOUS
 10
6.079040
 20
2.543640
  0
VERTEX
  8
0
  6
CONTINUOUS
 10
6.112920
 20
2.577520
  0
VERTEX
  8
0
  6
CONTINUOUS
 10
6.111160
 20
1.826000
  0
VERTEX
  8
0
  6
CONTINUOUS
 10
6.077720
 20
1.791680
  0
SEQEND
  8
0
  0
SOLID
  8
0
 62
    15
 10
6.111160
 20
1.826000
 11
6.112920
 21
2.577520
 12
6.140640
 22
1.866480
 13
6.141960
 23
2.618000
  0
POLYLINE
  8
0
  6
CONTINUOUS
 66
     1
 40
0.000000
 41
0.000000
  0
VERTEX
  8
0
  6
CONTINUOUS
 10
6.111160
 20
1.826000
  0
VERTEX
  8
0
  6
CONTINUOUS
 10
6.112920
 20
2.577520
  0
VERTEX
  8
0
  6
CONTINUOUS
 10
6.141960
 20
2.618000
  0
VERTEX
  8
0
  6
CONTINUOUS
 10
6.140640
 20
1.866480
  0
VERTEX
  8
0
  6
CONTINUOUS
 10
6.111160
 20
1.826000
  0
SEQEND
  8
0
  0
SOLID
  8
0
 62
    15
 10
6.140640
 20
1.866480
 11
6.141960
 21
2.618000
 12
6.189920
 22
1.965480
 13
6.191240
 23
2.717440
  0
POLYLINE
  8
0
  6
CONTINUOUS
 66
     1
 40
0.000000
 41
0.000000
  0
VERTEX
  8
0
  6
CONTINUOUS
 10
6.140640
 20
1.866480
  0
VERTEX
  8
0
  6
CONTINUOUS
 10
6.141960
 20
2.618000
  0
VERTEX
  8
0
  6
CONTINUOUS
 10
6.191240
 20
2.717440
  0
VERTEX
  8
0
  6
CONTINUOUS
 10
6.189920
 20
1.965480
  0
VERTEX
  8
0
  6
CONTINUOUS
 10
6.140640
 20
1.866480
  0
SEQEND
  8
0
  0
SOLID
  8
0
 62
    15
 10
6.649280
 20
1.908280
 11
6.650600
 21
2.660240
 12
6.679640
 22
1.862520
 13
6.680960
 23
2.614480
  0
POLYLINE
  8
0
  6
CONTINUOUS
 66
     1
 40
0.000000
 41
0.000000
  0
VERTEX
  8
0
  6
CONTINUOUS
 10
6.649280
 20
1.908280
  0
VERTEX
  8
0
  6
CONTINUOUS
 10
6.650600
 20
2.660240
  0
VERTEX
  8
0
  6
CONTINUOUS
 10
6.680960
 20
2.614480
  0
VERTEX
  8
0
  6
CONTINUOUS
 10
6.679640
 20
1.862520
  0
VERTEX
  8
0
  6
CONTINUOUS
 10
6.649280
 20
1.908280
  0
SEQEND
  8
0
  0
SOLID
  8
0
 62
    15
 10
6.625080
 20
1.965480
 11
6.626840
 21
2.717440
 12
6.649280
 22
1.908280
 13
6.650600
 23
2.660240
  0
POLYLINE
  8
0
  6
CONTINUOUS
 66
     1
 40
0.000000
 41
0.000000
  0
VERTEX
  8
0
  6
CONTINUOUS
 10
6.625080
 20
1.965480
  0
VERTEX
  8
0
  6
CONTINUOUS
 10
6.626840
 20
2.717440
  0
VERTEX
  8
0
  6
CONTINUOUS
 10
6.650600
 20
2.660240
  0
VERTEX
  8
0
  6
CONTINUOUS
 10
6.649280
 20
1.908280
  0
VERTEX
  8
0
  6
CONTINUOUS
 10
6.625080
 20
1.965480
  0
SEQEND
  8
0
  0
SOLID
  8
0
 62
    15
 10
6.189920
 20
1.965480
 11
6.191240
 21
2.717440
 12
6.625080
 22
1.965480
 13
6.626840
 23
2.717440
  0
POLYLINE
  8
0
  6
CONTINUOUS
 66
     1
 40
0.000000
 41
0.000000
  0
VERTEX
  8
0
  6
CONTINUOUS
 10
6.189920
 20
1.965480
  0
VERTEX
  8
0
  6
CONTINUOUS
 10
6.191240
 20
2.717440
  0
VERTEX
  8
0
  6
CONTINUOUS
 10
6.626840
 20
2.717440
  0
VERTEX
  8
0
  6
CONTINUOUS
 10
6.625080
 20
1.965480
  0
VERTEX
  8
0
  6
CONTINUOUS
 10
6.189920
 20
1.965480
  0
SEQEND
  8
0
  0
SOLID
  8
0
 62
    15
 10
6.679640
 20
1.862520
 11
6.680960
 21
2.614480
 12
6.715720
 22
1.826880
 13
6.717480
 23
2.578840
  0
POLYLINE
  8
0
  6
CONTINUOUS
 66
     1
 40
0.000000
 41
0.000000
  0
VERTEX
  8
0
  6
CONTINUOUS
 10
6.679640
 20
1.862520
  0
VERTEX
  8
0
  6
CONTINUOUS
 10
6.680960
 20
2.614480
  0
VERTEX
  8
0
  6
CONTINUOUS
 10
6.717480
 20
2.578840
  0
VERTEX
  8
0
  6
CONTINUOUS
 10
6.715720
 20
1.826880
  0
VERTEX
  8
0
  6
CONTINUOUS
 10
6.679640
 20
1.862520
  0
SEQEND
  8
0
  0
SOLID
  8
0
 62
    15
 10
6.715720
 20
1.826880
 11
6.717480
 21
2.578840
 12
6.757080
 22
1.800040
 13
6.758400
 23
2.551560
  0
POLYLINE
  8
0
  6
CONTINUOUS
 66
     1
 40
0.000000
 41
0.000000
  0
VERTEX
  8
0
  6
CONTINUOUS
 10
6.715720
 20
1.826880
  0
VERTEX
  8
0
  6
CONTINUOUS
 10
6.717480
 20
2.578840
  0
VERTEX
  8
0
  6
CONTINUOUS
 10
6.758400
 20
2.551560
  0
VERTEX
  8
0
  6
CONTINUOUS
 10
6.757080
 20
1.800040
  0
VERTEX
  8
0
  6
CONTINUOUS
 10
6.715720
 20
1.826880
  0
SEQEND
  8
0
  0
SOLID
  8
0
 62
    15
 10
6.757080
 20
1.800040
 11
6.758400
 21
2.551560
 12
6.801520
 22
1.780240
 13
6.802840
 23
2.532200
  0
POLYLINE
  8
0
  6
CONTINUOUS
 66
     1
 40
0.000000
 41
0.000000
  0
VERTEX
  8
0
  6
CONTINUOUS
 10
6.757080
 20
1.800040
  0
VERTEX
  8
0
  6
CONTINUOUS
 10
6.758400
 20
2.551560
  0
VERTEX
  8
0
  6
CONTINUOUS
 10
6.802840
 20
2.532200
  0
VERTEX
  8
0
  6
CONTINUOUS
 10
6.801520
 20
1.780240
  0
VERTEX
  8
0
  6
CONTINUOUS
 10
6.757080
 20
1.800040
  0
SEQEND
  8
0
  0
SOLID
  8
0
 62
    15
 10
6.801520
 20
1.780240
 11
6.802840
 21
2.532200
 12
6.849040
 22
1.767040
 13
6.850360
 23
2.518560
  0
POLYLINE
  8
0
  6
CONTINUOUS
 66
     1
 40
0.000000
 41
0.000000
  0
VERTEX
  8
0
  6
CONTINUOUS
 10
6.801520
 20
1.780240
  0
VERTEX
  8
0
  6
CONTINUOUS
 10
6.802840
 20
2.532200
  0
VERTEX
  8
0
  6
CONTINUOUS
 10
6.850360
 20
2.518560
  0
VERTEX
  8
0
  6
CONTINUOUS
 10
6.849040
 20
1.767040
  0
VERTEX
  8
0
  6
CONTINUOUS
 10
6.801520
 20
1.780240
  0
SEQEND
  8
0
  0
SOLID
  8
0
 62
    15
 10
6.849040
 20
1.767040
 11
6.850360
 21
2.518560
 12
6.948040
 22
1.752960
 13
6.949360
 23
2.504920
  0
POLYLINE
  8
0
  6
CONTINUOUS
 66
     1
 40
0.000000
 41
0.000000
  0
VERTEX
  8
0
  6
CONTINUOUS
 10
6.849040
 20
1.767040
  0
VERTEX
  8
0
  6
CONTINUOUS
 10
6.850360
 20
2.518560
  0
VERTEX
  8
0
  6
CONTINUOUS
 10
6.949360
 20
2.504920
  0
VERTEX
  8
0
  6
CONTINUOUS
 10
6.948040
 20
1.752960
  0
VERTEX
  8
0
  6
CONTINUOUS
 10
6.849040
 20
1.767040
  0
SEQEND
  8
0
  0
SOLID
  8
0
 62
    15
 10
6.948040
 20
1.752960
 11
6.949360
 21
2.504920
 12
7.003040
 22
1.747240
 13
7.004360
 23
2.499200
  0
POLYLINE
  8
0
  6
CONTINUOUS
 66
     1
 40
0.000000
 41
0.000000
  0
VERTEX
  8
0
  6
CONTINUOUS
 10
6.948040
 20
1.752960
  0
VERTEX
  8
0
  6
CONTINUOUS
 10
6.949360
 20
2.504920
  0
VERTEX
  8
0
  6
CONTINUOUS
 10
7.004360
 20
2.499200
  0
VERTEX
  8
0
  6
CONTINUOUS
 10
7.003040
 20
1.747240
  0
VERTEX
  8
0
  6
CONTINUOUS
 10
6.948040
 20
1.752960
  0
SEQEND
  8
0
  0
SOLID
  8
0
 62
    15
 10
7.003040
 20
1.747240
 11
7.004360
 21
2.499200
 12
7.065080
 22
1.734920
 13
7.066840
 23
2.486440
  0
POLYLINE
  8
0
  6
CONTINUOUS
 66
     1
 40
0.000000
 41
0.000000
  0
VERTEX
  8
0
  6
CONTINUOUS
 10
7.003040
 20
1.747240
  0
VERTEX
  8
0
  6
CONTINUOUS
 10
7.004360
 20
2.499200
  0
VERTEX
  8
0
  6
CONTINUOUS
 10
7.066840
 20
2.486440
  0
VERTEX
  8
0
  6
CONTINUOUS
 10
7.065080
 20
1.734920
  0
VERTEX
  8
0
  6
CONTINUOUS
 10
7.003040
 20
1.747240
  0
SEQEND
  8
0
  0
SOLID
  8
0
 62
    15
 10
7.065080
 20
1.734920
 11
7.066840
 21
2.486440
 12
7.130200
 22
1.711600
 13
7.131960
 23
2.463120
  0
POLYLINE
  8
0
  6
CONTINUOUS
 66
     1
 40
0.000000
 41
0.000000
  0
VERTEX
  8
0
  6
CONTINUOUS
 10
7.065080
 20
1.734920
  0
VERTEX
  8
0
  6
CONTINUOUS
 10
7.066840
 20
2.486440
  0
VERTEX
  8
0
  6
CONTINUOUS
 10
7.131960
 20
2.463120
  0
VERTEX
  8
0
  6
CONTINUOUS
 10
7.130200
 20
1.711600
  0
VERTEX
  8
0
  6
CONTINUOUS
 10
7.065080
 20
1.734920
  0
SEQEND
  8
0
  0
SOLID
  8
0
 62
    15
 10
7.130200
 20
1.711600
 11
7.131960
 21
2.463120
 12
7.194440
 22
1.672880
 13
7.196200
 23
2.424400
  0
POLYLINE
  8
0
  6
CONTINUOUS
 66
     1
 40
0.000000
 41
0.000000
  0
VERTEX
  8
0
  6
CONTINUOUS
 10
7.130200
 20
1.711600
  0
VERTEX
  8
0
  6
CONTINUOUS
 10
7.131960
 20
2.463120
  0
VERTEX
  8
0
  6
CONTINUOUS
 10
7.196200
 20
2.424400
  0
VERTEX
  8
0
  6
CONTINUOUS
 10
7.194440
 20
1.672880
  0
VERTEX
  8
0
  6
CONTINUOUS
 10
7.130200
 20
1.711600
  0
SEQEND
  8
0
  0
SOLID
  8
0
 62
    15
 10
7.194440
 20
1.672880
 11
7.196200
 21
2.424400
 12
7.253840
 22
1.614800
 13
7.255160
 23
2.366320
  0
POLYLINE
  8
0
  6
CONTINUOUS
 66
     1
 40
0.000000
 41
0.000000
  0
VERTEX
  8
0
  6
CONTINUOUS
 10
7.194440
 20
1.672880
  0
VERTEX
  8
0
  6
CONTINUOUS
 10
7.196200
 20
2.424400
  0
VERTEX
  8
0
  6
CONTINUOUS
 10
7.255160
 20
2.366320
  0
VERTEX
  8
0
  6
CONTINUOUS
 10
7.253840
 20
1.614800
  0
VERTEX
  8
0
  6
CONTINUOUS
 10
7.194440
 20
1.672880
  0
SEQEND
  8
0
  0
SOLID
  8
0
 62
    15
 10
7.279800
 20
1.576960
 11
7.281560
 21
2.328920
 12
7.303560
 22
1.532960
 13
7.304880
 23
2.284480
  0
POLYLINE
  8
0
  6
CONTINUOUS
 66
     1
 40
0.000000
 41
0.000000
  0
VERTEX
  8
0
  6
CONTINUOUS
 10
7.279800
 20
1.576960
  0
VERTEX
  8
0
  6
CONTINUOUS
 10
7.281560
 20
2.328920
  0
VERTEX
  8
0
  6
CONTINUOUS
 10
7.304880
 20
2.284480
  0
VERTEX
  8
0
  6
CONTINUOUS
 10
7.303560
 20
1.532960
  0
VERTEX
  8
0
  6
CONTINUOUS
 10
7.279800
 20
1.576960
  0
SEQEND
  8
0
  0
SOLID
  8
0
 62
    15
 10
7.253840
 20
1.614800
 11
7.255160
 21
2.366320
 12
7.279800
 22
1.576960
 13
7.281560
 23
2.328920
  0
POLYLINE
  8
0
  6
CONTINUOUS
 66
     1
 40
0.000000
 41
0.000000
  0
VERTEX
  8
0
  6
CONTINUOUS
 10
7.253840
 20
1.614800
  0
VERTEX
  8
0
  6
CONTINUOUS
 10
7.255160
 20
2.366320
  0
VERTEX
  8
0
  6
CONTINUOUS
 10
7.281560
 20
2.328920
  0
VERTEX
  8
0
  6
CONTINUOUS
 10
7.279800
 20
1.576960
  0
VERTEX
  8
0
  6
CONTINUOUS
 10
7.253840
 20
1.614800
  0
SEQEND
  8
0
  0
SOLID
  8
0
 62
    15
 10
7.303560
 20
1.532960
 11
7.304880
 21
2.284480
 12
7.323360
 22
1.481480
 13
7.325120
 23
2.233440
  0
POLYLINE
  8
0
  6
CONTINUOUS
 66
     1
 40
0.000000
 41
0.000000
  0
VERTEX
  8
0
  6
CONTINUOUS
 10
7.303560
 20
1.532960
  0
VERTEX
  8
0
  6
CONTINUOUS
 10
7.304880
 20
2.284480
  0
VERTEX
  8
0
  6
CONTINUOUS
 10
7.325120
 20
2.233440
  0
VERTEX
  8
0
  6
CONTINUOUS
 10
7.323360
 20
1.481480
  0
VERTEX
  8
0
  6
CONTINUOUS
 10
7.303560
 20
1.532960
  0
SEQEND
  8
0
  0
SOLID
  8
0
 62
    15
 10
7.323360
 20
1.481480
 11
7.325120
 21
2.233440
 12
7.339640
 22
1.422520
 13
7.341400
 23
2.174480
  0
POLYLINE
  8
0
  6
CONTINUOUS
 66
     1
 40
0.000000
 41
0.000000
  0
VERTEX
  8
0
  6
CONTINUOUS
 10
7.323360
 20
1.481480
  0
VERTEX
  8
0
  6
CONTINUOUS
 10
7.325120
 20
2.233440
  0
VERTEX
  8
0
  6
CONTINUOUS
 10
7.341400
 20
2.174480
  0
VERTEX
  8
0
  6
CONTINUOUS
 10
7.339640
 20
1.422520
  0
VERTEX
  8
0
  6
CONTINUOUS
 10
7.323360
 20
1.481480
  0
SEQEND
  8
0
  0
SOLID
  8
0
 62
    15
 10
7.339640
 20
1.422520
 11
7.341400
 21
2.174480
 12
7.351520
 22
1.355640
 13
7.352840
 23
2.107600
  0
POLYLINE
  8
0
  6
CONTINUOUS
 66
     1
 40
0.000000
 41
0.000000
  0
VERTEX
  8
0
  6
CONTINUOUS
 10
7.339640
 20
1.422520
  0
VERTEX
  8
0
  6
CONTINUOUS
 10
7.341400
 20
2.174480
  0
VERTEX
  8
0
  6
CONTINUOUS
 10
7.352840
 20
2.107600
  0
VERTEX
  8
0
  6
CONTINUOUS
 10
7.351520
 20
1.355640
  0
VERTEX
  8
0
  6
CONTINUOUS
 10
7.339640
 20
1.422520
  0
SEQEND
  8
0
  0
SOLID
  8
0
 62
    15
 10
7.351520
 20
1.355640
 11
7.352840
 21
2.107600
 12
7.358560
 22
1.279960
 13
7.359880
 23
2.031920
  0
POLYLINE
  8
0
  6
CONTINUOUS
 66
     1
 40
0.000000
 41
0.000000
  0
VERTEX
  8
0
  6
CONTINUOUS
 10
7.351520
 20
1.355640
  0
VERTEX
  8
0
  6
CONTINUOUS
 10
7.352840
 20
2.107600
  0
VERTEX
  8
0
  6
CONTINUOUS
 10
7.359880
 20
2.031920
  0
VERTEX
  8
0
  6
CONTINUOUS
 10
7.358560
 20
1.279960
  0
VERTEX
  8
0
  6
CONTINUOUS
 10
7.351520
 20
1.355640
  0
SEQEND
  8
0
  0
SOLID
  8
0
 62
    15
 10
1.329240
 20
2.152920
 11
1.331000
 21
2.904880
 12
1.333640
 22
2.159080
 13
1.334960
 23
2.911040
  0
POLYLINE
  8
0
  6
CONTINUOUS
 66
     1
 40
0.000000
 41
0.000000
  0
VERTEX
  8
0
  6
CONTINUOUS
 10
1.329240
 20
2.152920
  0
VERTEX
  8
0
  6
CONTINUOUS
 10
1.331000
 20
2.904880
  0
VERTEX
  8
0
  6
CONTINUOUS
 10
1.334960
 20
2.911040
  0
VERTEX
  8
0
  6
CONTINUOUS
 10
1.333640
 20
2.159080
  0
VERTEX
  8
0
  6
CONTINUOUS
 10
1.329240
 20
2.152920
  0
SEQEND
  8
0
  0
SOLID
  8
0
 62
    15
 10
1.333640
 20
2.159080
 11
1.334960
 21
2.911040
 12
1.378080
 22
2.170960
 13
1.379400
 23
2.922480
  0
POLYLINE
  8
0
  6
CONTINUOUS
 66
     1
 40
0.000000
 41
0.000000
  0
VERTEX
  8
0
  6
CONTINUOUS
 10
1.333640
 20
2.159080
  0
VERTEX
  8
0
  6
CONTINUOUS
 10
1.334960
 20
2.911040
  0
VERTEX
  8
0
  6
CONTINUOUS
 10
1.379400
 20
2.922480
  0
VERTEX
  8
0
  6
CONTINUOUS
 10
1.378080
 20
2.170960
  0
VERTEX
  8
0
  6
CONTINUOUS
 10
1.333640
 20
2.159080
  0
SEQEND
  8
0
  0
SOLID
  8
0
 62
    15
 10
1.378080
 20
2.170960
 11
1.379400
 21
2.922480
 12
1.419880
 22
2.189000
 13
1.421640
 23
2.940520
  0
POLYLINE
  8
0
  6
CONTINUOUS
 66
     1
 40
0.000000
 41
0.000000
  0
VERTEX
  8
0
  6
CONTINUOUS
 10
1.378080
 20
2.170960
  0
VERTEX
  8
0
  6
CONTINUOUS
 10
1.379400
 20
2.922480
  0
VERTEX
  8
0
  6
CONTINUOUS
 10
1.421640
 20
2.940520
  0
VERTEX
  8
0
  6
CONTINUOUS
 10
1.419880
 20
2.189000
  0
VERTEX
  8
0
  6
CONTINUOUS
 10
1.378080
 20
2.170960
  0
SEQEND
  8
0
  0
SOLID
  8
0
 62
    15
 10
1.419880
 20
2.189000
 11
1.421640
 21
2.940520
 12
1.459040
 22
2.213200
 13
1.460360
 23
2.964720
  0
POLYLINE
  8
0
  6
CONTINUOUS
 66
     1
 40
0.000000
 41
0.000000
  0
VERTEX
  8
0
  6
CONTINUOUS
 10
1.419880
 20
2.189000
  0
VERTEX
  8
0
  6
CONTINUOUS
 10
1.421640
 20
2.940520
  0
VERTEX
  8
0
  6
CONTINUOUS
 10
1.460360
 20
2.964720
  0
VERTEX
  8
0
  6
CONTINUOUS
 10
1.459040
 20
2.213200
  0
VERTEX
  8
0
  6
CONTINUOUS
 10
1.419880
 20
2.189000
  0
SEQEND
  8
0
  0
SOLID
  8
0
 62
    15
 10
1.459040
 20
2.213200
 11
1.460360
 21
2.964720
 12
1.493800
 22
2.243560
 13
1.495560
 23
2.995520
  0
POLYLINE
  8
0
  6
CONTINUOUS
 66
     1
 40
0.000000
 41
0.000000
  0
VERTEX
  8
0
  6
CONTINUOUS
 10
1.459040
 20
2.213200
  0
VERTEX
  8
0
  6
CONTINUOUS
 10
1.460360
 20
2.964720
  0
VERTEX
  8
0
  6
CONTINUOUS
 10
1.495560
 20
2.995520
  0
VERTEX
  8
0
  6
CONTINUOUS
 10
1.493800
 20
2.243560
  0
VERTEX
  8
0
  6
CONTINUOUS
 10
1.459040
 20
2.213200
  0
SEQEND
  8
0
  0
SOLID
  8
0
 62
    15
 10
1.493800
 20
2.243560
 11
1.495560
 21
2.995520
 12
1.523720
 22
2.280960
 13
1.525040
 23
3.032920
  0
POLYLINE
  8
0
  6
CONTINUOUS
 66
     1
 40
0.000000
 41
0.000000
  0
VERTEX
  8
0
  6
CONTINUOUS
 10
1.493800
 20
2.243560
  0
VERTEX
  8
0
  6
CONTINUOUS
 10
1.495560
 20
2.995520
  0
VERTEX
  8
0
  6
CONTINUOUS
 10
1.525040
 20
3.032920
  0
VERTEX
  8
0
  6
CONTINUOUS
 10
1.523720
 20
2.280960
  0
VERTEX
  8
0
  6
CONTINUOUS
 10
1.493800
 20
2.243560
  0
SEQEND
  8
0
  0
SOLID
  8
0
 62
    15
 10
1.523720
 20
2.280960
 11
1.525040
 21
3.032920
 12
1.547480
 22
2.324960
 13
1.548800
 23
3.076920
  0
POLYLINE
  8
0
  6
CONTINUOUS
 66
     1
 40
0.000000
 41
0.000000
  0
VERTEX
  8
0
  6
CONTINUOUS
 10
1.523720
 20
2.280960
  0
VERTEX
  8
0
  6
CONTINUOUS
 10
1.525040
 20
3.032920
  0
VERTEX
  8
0
  6
CONTINUOUS
 10
1.548800
 20
3.076920
  0
VERTEX
  8
0
  6
CONTINUOUS
 10
1.547480
 20
2.324960
  0
VERTEX
  8
0
  6
CONTINUOUS
 10
1.523720
 20
2.280960
  0
SEQEND
  8
0
  0
SOLID
  8
0
 62
    15
 10
1.547480
 20
2.324960
 11
1.548800
 21
3.076920
 12
1.564200
 22
2.376000
 13
1.565520
 23
3.127960
  0
POLYLINE
  8
0
  6
CONTINUOUS
 66
     1
 40
0.000000
 41
0.000000
  0
VERTEX
  8
0
  6
CONTINUOUS
 10
1.547480
 20
2.324960
  0
VERTEX
  8
0
  6
CONTINUOUS
 10
1.548800
 20
3.076920
  0
VERTEX
  8
0
  6
CONTINUOUS
 10
1.565520
 20
3.127960
  0
VERTEX
  8
0
  6
CONTINUOUS
 10
1.564200
 20
2.376000
  0
VERTEX
  8
0
  6
CONTINUOUS
 10
1.547480
 20
2.324960
  0
SEQEND
  8
0
  0
SOLID
  8
0
 62
    15
 10
1.564200
 20
2.376000
 11
1.565520
 21
3.127960
 12
1.573000
 22
2.434080
 13
1.574320
 23
3.186040
  0
POLYLINE
  8
0
  6
CONTINUOUS
 66
     1
 40
0.000000
 41
0.000000
  0
VERTEX
  8
0
  6
CONTINUOUS
 10
1.564200
 20
2.376000
  0
VERTEX
  8
0
  6
CONTINUOUS
 10
1.565520
 20
3.127960
  0
VERTEX
  8
0
  6
CONTINUOUS
 10
1.574320
 20
3.186040
  0
VERTEX
  8
0
  6
CONTINUOUS
 10
1.573000
 20
2.434080
  0
VERTEX
  8
0
  6
CONTINUOUS
 10
1.564200
 20
2.376000
  0
SEQEND
  8
0
  0
SOLID
  8
0
 62
    15
 10
1.573000
 20
2.434080
 11
1.574320
 21
3.186040
 12
1.575200
 22
2.436280
 13
1.576520
 23
3.188240
  0
POLYLINE
  8
0
  6
CONTINUOUS
 66
     1
 40
0.000000
 41
0.000000
  0
VERTEX
  8
0
  6
CONTINUOUS
 10
1.573000
 20
2.434080
  0
VERTEX
  8
0
  6
CONTINUOUS
 10
1.574320
 20
3.186040
  0
VERTEX
  8
0
  6
CONTINUOUS
 10
1.576520
 20
3.188240
  0
VERTEX
  8
0
  6
CONTINUOUS
 10
1.575200
 20
2.436280
  0
VERTEX
  8
0
  6
CONTINUOUS
 10
1.573000
 20
2.434080
  0
SEQEND
  8
0
  0
SOLID
  8
0
 62
    15
 10
1.575200
 20
2.436280
 11
1.576520
 21
3.188240
 12
1.714680
 22
2.436280
 13
1.716440
 23
3.188240
  0
POLYLINE
  8
0
  6
CONTINUOUS
 66
     1
 40
0.000000
 41
0.000000
  0
VERTEX
  8
0
  6
CONTINUOUS
 10
1.575200
 20
2.436280
  0
VERTEX
  8
0
  6
CONTINUOUS
 10
1.576520
 20
3.188240
  0
VERTEX
  8
0
  6
CONTINUOUS
 10
1.716440
 20
3.188240
  0
VERTEX
  8
0
  6
CONTINUOUS
 10
1.714680
 20
2.436280
  0
VERTEX
  8
0
  6
CONTINUOUS
 10
1.575200
 20
2.436280
  0
SEQEND
  8
0
  0
SOLID
  8
0
 62
    15
 10
1.714680
 20
2.436280
 11
1.716440
 21
3.188240
 12
1.725240
 22
2.440680
 13
1.726560
 23
3.192200
  0
POLYLINE
  8
0
  6
CONTINUOUS
 66
     1
 40
0.000000
 41
0.000000
  0
VERTEX
  8
0
  6
CONTINUOUS
 10
1.714680
 20
2.436280
  0
VERTEX
  8
0
  6
CONTINUOUS
 10
1.716440
 20
3.188240
  0
VERTEX
  8
0
  6
CONTINUOUS
 10
1.726560
 20
3.192200
  0
VERTEX
  8
0
  6
CONTINUOUS
 10
1.725240
 20
2.440680
  0
VERTEX
  8
0
  6
CONTINUOUS
 10
1.714680
 20
2.436280
  0
SEQEND
  8
0
  0
POLYLINE
  8
0
  6
CONTINUOUS
 66
     1
 40
0.000000
 41
0.000000
  0
VERTEX
  8
0
  6
CONTINUOUS
 10
1.725240
 20
2.440680
  0
VERTEX
  8
0
  6
CONTINUOUS
 10
1.802240
 20
2.504920
  0
VERTEX
  8
0
  6
CONTINUOUS
 10
1.881880
 20
2.557720
  0
VERTEX
  8
0
  6
CONTINUOUS
 10
1.961960
 20
2.599960
  0
VERTEX
  8
0
  6
CONTINUOUS
 10
2.041160
 20
2.632960
  0
VERTEX
  8
0
  6
CONTINUOUS
 10
2.116840
 20
2.656720
  0
VERTEX
  8
0
  6
CONTINUOUS
 10
2.187240
 20
2.672560
  0
VERTEX
  8
0
  6
CONTINUOUS
 10
2.250600
 20
2.681360
  0
VERTEX
  8
0
  6
CONTINUOUS
 10
2.304280
 20
2.684440
  0
VERTEX
  8
0
  6
CONTINUOUS
 10
2.358840
 20
2.682240
  0
VERTEX
  8
0
  6
CONTINUOUS
 10
2.423960
 20
2.673440
  0
VERTEX
  8
0
  6
CONTINUOUS
 10
2.496560
 20
2.653200
  0
VERTEX
  8
0
  6
CONTINUOUS
 10
2.573560
 20
2.616680
  0
VERTEX
  8
0
  6
CONTINUOUS
 10
2.652320
 20
2.559480
  0
VERTEX
  8
0
  6
CONTINUOUS
 10
2.691040
 20
2.521640
  0
VERTEX
  8
0
  6
CONTINUOUS
 10
2.729320
 20
2.476760
  0
VERTEX
  8
0
  6
CONTINUOUS
 10
2.766280
 20
2.424840
  0
VERTEX
  8
0
  6
CONTINUOUS
 10
2.801920
 20
2.364560
  0
VERTEX
  8
0
  6
CONTINUOUS
 10
2.835360
 20
2.295480
  0
VERTEX
  8
0
  6
CONTINUOUS
 10
2.866600
 20
2.217600
  0
VERTEX
  8
0
  6
CONTINUOUS
 10
2.871000
 20
2.215400
  0
VERTEX
  8
0
  6
CONTINUOUS
 10
3.793680
 20
2.215400
  0
VERTEX
  8
0
  6
CONTINUOUS
 10
3.844280
 20
2.210120
  0
VERTEX
  8
0
  6
CONTINUOUS
 10
3.895320
 20
2.194720
  0
VERTEX
  8
0
  6
CONTINUOUS
 10
3.944160
 20
2.170080
  0
VERTEX
  8
0
  6
CONTINUOUS
 10
3.990360
 20
2.136640
  0
VERTEX
  8
0
  6
CONTINUOUS
 10
4.031280
 20
2.095720
  0
VERTEX
  8
0
  6
CONTINUOUS
 10
4.065600
 20
2.047760
  0
VERTEX
  8
0
  6
CONTINUOUS
 10
4.092000
 20
1.993640
  0
VERTEX
  8
0
  6
CONTINUOUS
 10
4.108280
 20
1.934240
  0
VERTEX
  8
0
  6
CONTINUOUS
 10
4.331360
 20
1.934240
  0
VERTEX
  8
0
  6
CONTINUOUS
 10
4.341920
 20
1.938640
  0
VERTEX
  8
0
  6
CONTINUOUS
 10
4.388560
 20
1.980880
  0
VERTEX
  8
0
  6
CONTINUOUS
 10
4.428160
 20
2.013000
  0
VERTEX
  8
0
  6
CONTINUOUS
 10
4.479640
 20
2.047760
  0
VERTEX
  8
0
  6
CONTINUOUS
 10
4.543000
 20
2.080760
  0
VERTEX
  8
0
  6
CONTINUOUS
 10
4.619120
 20
2.109360
  0
VERTEX
  8
0
  6
CONTINUOUS
 10
4.708880
 20
2.129160
  0
VERTEX
  8
0
  6
CONTINUOUS
 10
4.812720
 20
2.136200
  0
VERTEX
  8
0
  6
CONTINUOUS
 10
4.921400
 20
2.129160
  0
VERTEX
  8
0
  6
CONTINUOUS
 10
5.024800
 20
2.109800
  0
VERTEX
  8
0
  6
CONTINUOUS
 10
5.119400
 20
2.082520
  0
VERTEX
  8
0
  6
CONTINUOUS
 10
5.202560
 20
2.050840
  0
VERTEX
  8
0
  6
CONTINUOUS
 10
5.272520
 20
2.019600
  0
VERTEX
  8
0
  6
CONTINUOUS
 10
5.325320
 20
1.992320
  0
VERTEX
  8
0
  6
CONTINUOUS
 10
5.371080
 20
1.965480
  0
VERTEX
  8
0
  6
CONTINUOUS
 10
5.417280
 20
1.932920
  0
VERTEX
  8
0
  6
CONTINUOUS
 10
5.469640
 20
1.898600
  0
VERTEX
  8
0
  6
CONTINUOUS
 10
5.536520
 20
1.859000
  0
VERTEX
  8
0
  6
CONTINUOUS
 10
5.613960
 20
1.818520
  0
VERTEX
  8
0
  6
CONTINUOUS
 10
5.698880
 20
1.782000
  0
VERTEX
  8
0
  6
CONTINUOUS
 10
5.786880
 20
1.753840
  0
VERTEX
  8
0
  6
CONTINUOUS
 10
5.875320
 20
1.738440
  0
VERTEX
  8
0
  6
CONTINUOUS
 10
5.938240
 20
1.738000
  0
VERTEX
  8
0
  6
CONTINUOUS
 10
5.992360
 20
1.747240
  0
VERTEX
  8
0
  6
CONTINUOUS
 10
6.038560
 20
1.765280
  0
VERTEX
  8
0
  6
CONTINUOUS
 10
6.077720
 20
1.791680
  0
VERTEX
  8
0
  6
CONTINUOUS
 10
6.111160
 20
1.826000
  0
VERTEX
  8
0
  6
CONTINUOUS
 10
6.140640
 20
1.866480
  0
VERTEX
  8
0
  6
CONTINUOUS
 10
6.189920
 20
1.965480
  0
VERTEX
  8
0
  6
CONTINUOUS
 10
6.625080
 20
1.965480
  0
VERTEX
  8
0
  6
CONTINUOUS
 10
6.649280
 20
1.908280
  0
VERTEX
  8
0
  6
CONTINUOUS
 10
6.679640
 20
1.862520
  0
VERTEX
  8
0
  6
CONTINUOUS
 10
6.715720
 20
1.826880
  0
VERTEX
  8
0
  6
CONTINUOUS
 10
6.757080
 20
1.800040
  0
VERTEX
  8
0
  6
CONTINUOUS
 10
6.801520
 20
1.780240
  0
VERTEX
  8
0
  6
CONTINUOUS
 10
6.849040
 20
1.767040
  0
VERTEX
  8
0
  6
CONTINUOUS
 10
6.948040
 20
1.752960
  0
VERTEX
  8
0
  6
CONTINUOUS
 10
7.003040
 20
1.747240
  0
VERTEX
  8
0
  6
CONTINUOUS
 10
7.065080
 20
1.734920
  0
VERTEX
  8
0
  6
CONTINUOUS
 10
7.130200
 20
1.711600
  0
VERTEX
  8
0
  6
CONTINUOUS
 10
7.194440
 20
1.672880
  0
VERTEX
  8
0
  6
CONTINUOUS
 10
7.253840
 20
1.614800
  0
VERTEX
  8
0
  6
CONTINUOUS
 10
7.279800
 20
1.576960
  0
VERTEX
  8
0
  6
CONTINUOUS
 10
7.303560
 20
1.532960
  0
VERTEX
  8
0
  6
CONTINUOUS
 10
7.323360
 20
1.481480
  0
VERTEX
  8
0
  6
CONTINUOUS
 10
7.339640
 20
1.422520
  0
VERTEX
  8
0
  6
CONTINUOUS
 10
7.351520
 20
1.355640
  0
VERTEX
  8
0
  6
CONTINUOUS
 10
7.358560
 20
1.279960
  0
VERTEX
  8
0
  6
CONTINUOUS
 10
1.329240
 20
1.279960
  0
VERTEX
  8
0
  6
CONTINUOUS
 10
1.329240
 20
2.152920
  0
VERTEX
  8
0
  6
CONTINUOUS
 10
1.333640
 20
2.159080
  0
VERTEX
  8
0
  6
CONTINUOUS
 10
1.378080
 20
2.170960
  0
VERTEX
  8
0
  6
CONTINUOUS
 10
1.419880
 20
2.189000
  0
VERTEX
  8
0
  6
CONTINUOUS
 10
1.459040
 20
2.213200
  0
VERTEX
  8
0
  6
CONTINUOUS
 10
1.493800
 20
2.243560
  0
VERTEX
  8
0
  6
CONTINUOUS
 10
1.523720
 20
2.280960
  0
VERTEX
  8
0
  6
CONTINUOUS
 10
1.547480
 20
2.324960
  0
VERTEX
  8
0
  6
CONTINUOUS
 10
1.564200
 20
2.376000
  0
VERTEX
  8
0
  6
CONTINUOUS
 10
1.573000
 20
2.434080
  0
VERTEX
  8
0
  6
CONTINUOUS
 10
1.575200
 20
2.436280
  0
VERTEX
  8
0
  6
CONTINUOUS
 10
1.714680
 20
2.436280
  0
VERTEX
  8
0
  6
CONTINUOUS
 10
1.725240
 20
2.440680
  0
SEQEND
  8
0
  0
TEXT
  8
0
 10
4.049320
 20
1.007600
 40
0.138039
  1
BA  483
 41
1.000000
  7
SN0
 71
     0
 72
     5
 11
4.639230
 21
1.007600
  0
TEXT
  8
0
 10
3.962640
 20
0.816200
 40
0.138039
  1
1-3/8" x 6"
 41
1.000000
  7
SN0
 71
     0
 72
     5
 11
4.725251
 21
0.816200
  0
ENDSEC
  0
EOF
