  0
SECTION
  2
HEADER
  9
$ACADVER
  1
AC1006
  9
$EXTMIN
 10
3.762880
 20
0.641960
  9
$EXTMAX
 10
7.330400
 20
3.612840
  9
$LTSCALE
 40
0.044000
  9
$PDMODE
 70
    35
  9
$PDSIZE
 40
0.035200
  0
ENDSEC
  0
SECTION
  2
TABLES
  0
TABLE
  2
LTYPE
 70
     9
  0
LTYPE
  2
CONTINUOUS
 70
    64
  3
Solid line
 72
    65
 73
     0
 40
0.000000
  0
LTYPE
  2
DASHED
 70
    64
  3
__ __ __ __ __ __ __ __ __ __ __ __ __ __ __
 72
    65
 73
     2
 40
0.000330
 49
0.000220
 49
-0.000110
  0
LTYPE
  2
HIDDEN
 70
    64
  3
 _ _ _ _ _ _ _ _ _ _ _ _ _ _ _ _ _ _ _ _ _ _
 72
    65
 73
     2
 40
0.000165
 49
0.000110
 49
-0.000055
  0
LTYPE
  2
CENTER
 70
    64
  3
____ _ ____ _ ____ _ ____ _ ____ _ ____ _ ____
 72
    65
 73
     4
 40
0.000880
 49
0.000550
 49
-0.000110
 49
0.000110
 49
-0.000110
  0
LTYPE
  2
PHANTOM
 70
    64
  3
_____ _ _ _____ _ _ _____ _ _ _____ _ _ ____
 72
    65
 73
     6
 40
0.001100
 49
0.000550
 49
-0.000110
 49
0.000110
 49
-0.000110
 49
0.000110
 49
-0.000110
  0
LTYPE
  2
DOT
 70
    64
  3
...............................................
 72
    65
 73
     2
 40
0.000110
 49
0.000000
 49
-0.000110
  0
LTYPE
  2
DASHDOT
 70
    64
  3
__ . __ . __ . __ . __ . __ . __ . __ . __ . __
 72
    65
 73
     4
 40
0.000440
 49
0.000220
 49
-0.000110
 49
0.000000
 49
-0.000110
  0
LTYPE
  2
BORDER
 70
    64
  3
__ __ . __ __ . __ __ . __ __ . __ __ . __ __
 72
    65
 73
     6
 40
0.000770
 49
0.000220
 49
-0.000110
 49
0.000220
 49
-0.000110
 49
0.000000
 49
-0.000110
  0
LTYPE
  2
DIVIDE
 70
    64
  3
__ . . __ . . __ . . __ . . __ . . __ . . __
 72
    65
 73
     6
 40
0.000550
 49
0.000220
 49
-0.000110
 49
0.000000
 49
-0.000110
 49
0.000000
 49
-0.000110
  0
LTYPE
  2
DOTDOT
 70
    64
  3
 . .  . .  . .  . .  . .  . . 
 72
    65
 73
     5
 40
0.000242
 49
-0.000110
 49
0.000000
 49
-0.000110
 49
0.000000
 49
-0.000110
  0
ENDTAB
  0
TABLE
  2
STYLE
 70
     2
  0
STYLE
 70
     0
  2
SN0
 40
0.000000
 41
0.000440
 50
0.000000
 71
     0
 42
0.000000
  3
ROMAND
  0
STYLE
 70
    68
  2
SV0
 40
0.000000
 41
0.000440
 50
0.000000
 71
     0
 42
0.000000
  3
ROMAND
  0
ENDTAB
  0
TABLE
  2
LAYER
 70
     3
  0
LAYER
  2
FOREGROUND
 70
    64
 62
     7
  6
CONTINUOUS
  0
LAYER
  2
BACKGROUND
 70
    65
 62
    -7
  6
CONTINUOUS
  0
LAYER
  2
0
 70
    64
 62
     7
  6
CONTINUOUS
  0
ENDTAB
  0
ENDSEC
  0
SECTION
  2
ENTITIES
  0
SOLID
  8
FOREGROUND
 62
     7
 10
0.000000
 20
4.254800
 11
8.499920
 21
4.254800
 12
0.000000
 22
-6.745200
 13
8.499920
 23
-6.745200
  0
POLYLINE
  8
FOREGROUND
 62
     7
  6
CONTINUOUS
 66
     1
 40
0.000000
 41
0.000000
  0
VERTEX
  8
FOREGROUND
 62
     7
  6
CONTINUOUS
 10
0.000000
 20
4.254800
  0
VERTEX
  8
FOREGROUND
 62
     7
  6
CONTINUOUS
 10
8.499920
 20
4.254800
  0
VERTEX
  8
FOREGROUND
 62
     7
  6
CONTINUOUS
 10
8.499920
 20
-6.745200
  0
VERTEX
  8
FOREGROUND
 62
     7
  6
CONTINUOUS
 10
0.000000
 20
-6.745200
  0
VERTEX
  8
FOREGROUND
 62
     7
  6
CONTINUOUS
 10
0.000000
 20
4.254800
  0
SEQEND
  8
0
  0
POLYLINE
  8
0
  6
CONTINUOUS
 66
     1
 40
0.014080
 41
0.014080
  0
VERTEX
  8
0
  6
CONTINUOUS
 10
3.996080
 20
3.463240
  0
VERTEX
  8
0
  6
CONTINUOUS
 10
3.914240
 20
3.463240
  0
VERTEX
  8
0
  6
CONTINUOUS
 10
3.912920
 20
3.462360
  0
VERTEX
  8
0
  6
CONTINUOUS
 10
3.911160
 20
3.445200
  0
VERTEX
  8
0
  6
CONTINUOUS
 10
3.903240
 20
3.413960
  0
VERTEX
  8
0
  6
CONTINUOUS
 10
3.891360
 20
3.386680
  0
VERTEX
  8
0
  6
CONTINUOUS
 10
3.875960
 20
3.363800
  0
VERTEX
  8
0
  6
CONTINUOUS
 10
3.866720
 20
3.353240
  0
VERTEX
  8
0
  6
CONTINUOUS
 10
3.835040
 20
3.328600
  0
VERTEX
  8
0
  6
CONTINUOUS
 10
3.811280
 20
3.316720
  0
VERTEX
  8
0
  6
CONTINUOUS
 10
3.785760
 20
3.308360
  0
VERTEX
  8
0
  6
CONTINUOUS
 10
3.772560
 20
3.305280
  0
VERTEX
  8
0
  6
CONTINUOUS
 10
3.770360
 20
3.301760
  0
VERTEX
  8
0
  6
CONTINUOUS
 10
3.770360
 20
2.802800
  0
VERTEX
  8
0
  6
CONTINUOUS
 10
3.769040
 20
2.802800
  0
VERTEX
  8
0
  6
CONTINUOUS
 10
7.302240
 20
2.802800
  0
VERTEX
  8
0
  6
CONTINUOUS
 10
7.298280
 20
2.845920
  0
VERTEX
  8
0
  6
CONTINUOUS
 10
7.291240
 20
2.884200
  0
VERTEX
  8
0
  6
CONTINUOUS
 10
7.282000
 20
2.918080
  0
VERTEX
  8
0
  6
CONTINUOUS
 10
7.263520
 20
2.960320
  0
VERTEX
  8
0
  6
CONTINUOUS
 10
7.249000
 20
2.983640
  0
VERTEX
  8
0
  6
CONTINUOUS
 10
7.224360
 20
3.012240
  0
VERTEX
  8
0
  6
CONTINUOUS
 10
7.197520
 20
3.033800
  0
VERTEX
  8
0
  6
CONTINUOUS
 10
7.168920
 20
3.049200
  0
VERTEX
  8
0
  6
CONTINUOUS
 10
7.149560
 20
3.057120
  0
VERTEX
  8
0
  6
CONTINUOUS
 10
7.112160
 20
3.066800
  0
VERTEX
  8
0
  6
CONTINUOUS
 10
7.077400
 20
3.071640
  0
VERTEX
  8
0
  6
CONTINUOUS
 10
7.018000
 20
3.078240
  0
VERTEX
  8
0
  6
CONTINUOUS
 10
6.989840
 20
3.084400
  0
VERTEX
  8
0
  6
CONTINUOUS
 10
6.962560
 20
3.093640
  0
VERTEX
  8
0
  6
CONTINUOUS
 10
6.937480
 20
3.106840
  0
VERTEX
  8
0
  6
CONTINUOUS
 10
6.915040
 20
3.124880
  0
VERTEX
  8
0
  6
CONTINUOUS
 10
6.895240
 20
3.147760
  0
VERTEX
  8
0
  6
CONTINUOUS
 10
6.879400
 20
3.177240
  0
VERTEX
  8
0
  6
CONTINUOUS
 10
6.872800
 20
3.194400
  0
VERTEX
  8
0
  6
CONTINUOUS
 10
6.617600
 20
3.194400
  0
VERTEX
  8
0
  6
CONTINUOUS
 10
6.596480
 20
3.150840
  0
VERTEX
  8
0
  6
CONTINUOUS
 10
6.580640
 20
3.125760
  0
VERTEX
  8
0
  6
CONTINUOUS
 10
6.562600
 20
3.104200
  0
VERTEX
  8
0
  6
CONTINUOUS
 10
6.541040
 20
3.087040
  0
VERTEX
  8
0
  6
CONTINUOUS
 10
6.516400
 20
3.074280
  0
VERTEX
  8
0
  6
CONTINUOUS
 10
6.502320
 20
3.069440
  0
VERTEX
  8
0
  6
CONTINUOUS
 10
6.470640
 20
3.064160
  0
VERTEX
  8
0
  6
CONTINUOUS
 10
6.433680
 20
3.064600
  0
VERTEX
  8
0
  6
CONTINUOUS
 10
6.408160
 20
3.067680
  0
VERTEX
  8
0
  6
CONTINUOUS
 10
6.382200
 20
3.073400
  0
VERTEX
  8
0
  6
CONTINUOUS
 10
6.330280
 20
3.089680
  0
VERTEX
  8
0
  6
CONTINUOUS
 10
6.280560
 20
3.110360
  0
VERTEX
  8
0
  6
CONTINUOUS
 10
6.214560
 20
3.145120
  0
VERTEX
  8
0
  6
CONTINUOUS
 10
6.145040
 20
3.189120
  0
VERTEX
  8
0
  6
CONTINUOUS
 10
6.122600
 20
3.203200
  0
VERTEX
  8
0
  6
CONTINUOUS
 10
6.080360
 20
3.225200
  0
VERTEX
  8
0
  6
CONTINUOUS
 10
6.016120
 20
3.252480
  0
VERTEX
  8
0
  6
CONTINUOUS
 10
5.963760
 20
3.269640
  0
VERTEX
  8
0
  6
CONTINUOUS
 10
5.905680
 20
3.283280
  0
VERTEX
  8
0
  6
CONTINUOUS
 10
5.843200
 20
3.291200
  0
VERTEX
  8
0
  6
CONTINUOUS
 10
5.795240
 20
3.291640
  0
VERTEX
  8
0
  6
CONTINUOUS
 10
5.750360
 20
3.287680
  0
VERTEX
  8
0
  6
CONTINUOUS
 10
5.723080
 20
3.282840
  0
VERTEX
  8
0
  6
CONTINUOUS
 10
5.697560
 20
3.276680
  0
VERTEX
  8
0
  6
CONTINUOUS
 10
5.653120
 20
3.260400
  0
VERTEX
  8
0
  6
CONTINUOUS
 10
5.615720
 20
3.241480
  0
VERTEX
  8
0
  6
CONTINUOUS
 10
5.573480
 20
3.212000
  0
VERTEX
  8
0
  6
CONTINUOUS
 10
5.535200
 20
3.179000
  0
VERTEX
  8
0
  6
CONTINUOUS
 10
5.529040
 20
3.176800
  0
VERTEX
  8
0
  6
CONTINUOUS
 10
5.398360
 20
3.176800
  0
VERTEX
  8
0
  6
CONTINUOUS
 10
5.394400
 20
3.193960
  0
VERTEX
  8
0
  6
CONTINUOUS
 10
5.381640
 20
3.226520
  0
VERTEX
  8
0
  6
CONTINUOUS
 10
5.363600
 20
3.255560
  0
VERTEX
  8
0
  6
CONTINUOUS
 10
5.341600
 20
3.281080
  0
VERTEX
  8
0
  6
CONTINUOUS
 10
5.316080
 20
3.302200
  0
VERTEX
  8
0
  6
CONTINUOUS
 10
5.302440
 20
3.311440
  0
VERTEX
  8
0
  6
CONTINUOUS
 10
5.273400
 20
3.325520
  0
VERTEX
  8
0
  6
CONTINUOUS
 10
5.243920
 20
3.334320
  0
VERTEX
  8
0
  6
CONTINUOUS
 10
5.214000
 20
3.337400
  0
VERTEX
  8
0
  6
CONTINUOUS
 10
4.673680
 20
3.337400
  0
VERTEX
  8
0
  6
CONTINUOUS
 10
4.671040
 20
3.338720
  0
VERTEX
  8
0
  6
CONTINUOUS
 10
4.652560
 20
3.383160
  0
VERTEX
  8
0
  6
CONTINUOUS
 10
4.622640
 20
3.440360
  0
VERTEX
  8
0
  6
CONTINUOUS
 10
4.601520
 20
3.472480
  0
VERTEX
  8
0
  6
CONTINUOUS
 10
4.568080
 20
3.512080
  0
VERTEX
  8
0
  6
CONTINUOUS
 10
4.533760
 20
3.543320
  0
VERTEX
  8
0
  6
CONTINUOUS
 10
4.499440
 20
3.566200
  0
VERTEX
  8
0
  6
CONTINUOUS
 10
4.465120
 20
3.582920
  0
VERTEX
  8
0
  6
CONTINUOUS
 10
4.432560
 20
3.593920
  0
VERTEX
  8
0
  6
CONTINUOUS
 10
4.411880
 20
3.598760
  0
VERTEX
  8
0
  6
CONTINUOUS
 10
4.373600
 20
3.604040
  0
VERTEX
  8
0
  6
CONTINUOUS
 10
4.341480
 20
3.604920
  0
VERTEX
  8
0
  6
CONTINUOUS
 10
4.292200
 20
3.601400
  0
VERTEX
  8
0
  6
CONTINUOUS
 10
4.253040
 20
3.594360
  0
VERTEX
  8
0
  6
CONTINUOUS
 10
4.209920
 20
3.582920
  0
VERTEX
  8
0
  6
CONTINUOUS
 10
4.164600
 20
3.566640
  0
VERTEX
  8
0
  6
CONTINUOUS
 10
4.140840
 20
3.556960
  0
VERTEX
  8
0
  6
CONTINUOUS
 10
4.094200
 20
3.532760
  0
VERTEX
  8
0
  6
CONTINUOUS
 10
4.047120
 20
3.502400
  0
VERTEX
  8
0
  6
CONTINUOUS
 10
4.002240
 20
3.465880
  0
VERTEX
  8
0
  6
CONTINUOUS
 10
3.996080
 20
3.463240
  0
SEQEND
  8
0
  0
SOLID
  8
0
 62
    15
 10
6.159120
 20
1.505680
 11
6.155600
 21
2.244440
 12
6.165720
 22
1.501280
 13
6.162200
 23
2.240480
  0
POLYLINE
  8
0
  6
CONTINUOUS
 66
     1
 40
0.000000
 41
0.000000
  0
VERTEX
  8
0
  6
CONTINUOUS
 10
6.159120
 20
1.505680
  0
VERTEX
  8
0
  6
CONTINUOUS
 10
6.155600
 20
2.244440
  0
VERTEX
  8
0
  6
CONTINUOUS
 10
6.162200
 20
2.240480
  0
VERTEX
  8
0
  6
CONTINUOUS
 10
6.165720
 20
1.501280
  0
VERTEX
  8
0
  6
CONTINUOUS
 10
6.159120
 20
1.505680
  0
SEQEND
  8
0
  0
SOLID
  8
0
 62
    15
 10
4.074840
 20
1.809280
 11
4.071760
 21
2.548480
 12
4.121920
 22
1.839640
 13
4.118400
 23
2.578840
  0
POLYLINE
  8
0
  6
CONTINUOUS
 66
     1
 40
0.000000
 41
0.000000
  0
VERTEX
  8
0
  6
CONTINUOUS
 10
4.074840
 20
1.809280
  0
VERTEX
  8
0
  6
CONTINUOUS
 10
4.071760
 20
2.548480
  0
VERTEX
  8
0
  6
CONTINUOUS
 10
4.118400
 20
2.578840
  0
VERTEX
  8
0
  6
CONTINUOUS
 10
4.121920
 20
1.839640
  0
VERTEX
  8
0
  6
CONTINUOUS
 10
4.074840
 20
1.809280
  0
SEQEND
  8
0
  0
SOLID
  8
0
 62
    15
 10
4.121920
 20
1.839640
 11
4.118400
 21
2.578840
 12
4.169000
 22
1.863840
 13
4.165480
 23
2.603040
  0
POLYLINE
  8
0
  6
CONTINUOUS
 66
     1
 40
0.000000
 41
0.000000
  0
VERTEX
  8
0
  6
CONTINUOUS
 10
4.121920
 20
1.839640
  0
VERTEX
  8
0
  6
CONTINUOUS
 10
4.118400
 20
2.578840
  0
VERTEX
  8
0
  6
CONTINUOUS
 10
4.165480
 20
2.603040
  0
VERTEX
  8
0
  6
CONTINUOUS
 10
4.169000
 20
1.863840
  0
VERTEX
  8
0
  6
CONTINUOUS
 10
4.121920
 20
1.839640
  0
SEQEND
  8
0
  0
SOLID
  8
0
 62
    15
 10
4.169000
 20
1.863840
 11
4.165480
 21
2.603040
 12
4.215200
 22
1.882320
 13
4.211680
 23
2.621520
  0
POLYLINE
  8
0
  6
CONTINUOUS
 66
     1
 40
0.000000
 41
0.000000
  0
VERTEX
  8
0
  6
CONTINUOUS
 10
4.169000
 20
1.863840
  0
VERTEX
  8
0
  6
CONTINUOUS
 10
4.165480
 20
2.603040
  0
VERTEX
  8
0
  6
CONTINUOUS
 10
4.211680
 20
2.621520
  0
VERTEX
  8
0
  6
CONTINUOUS
 10
4.215200
 20
1.882320
  0
VERTEX
  8
0
  6
CONTINUOUS
 10
4.169000
 20
1.863840
  0
SEQEND
  8
0
  0
SOLID
  8
0
 62
    15
 10
4.215200
 20
1.882320
 11
4.211680
 21
2.621520
 12
4.259640
 22
1.895960
 13
4.256120
 23
2.635160
  0
POLYLINE
  8
0
  6
CONTINUOUS
 66
     1
 40
0.000000
 41
0.000000
  0
VERTEX
  8
0
  6
CONTINUOUS
 10
4.215200
 20
1.882320
  0
VERTEX
  8
0
  6
CONTINUOUS
 10
4.211680
 20
2.621520
  0
VERTEX
  8
0
  6
CONTINUOUS
 10
4.256120
 20
2.635160
  0
VERTEX
  8
0
  6
CONTINUOUS
 10
4.259640
 20
1.895960
  0
VERTEX
  8
0
  6
CONTINUOUS
 10
4.215200
 20
1.882320
  0
SEQEND
  8
0
  0
SOLID
  8
0
 62
    15
 10
4.259640
 20
1.895960
 11
4.256120
 21
2.635160
 12
4.300560
 22
1.905200
 13
4.297480
 23
2.644400
  0
POLYLINE
  8
0
  6
CONTINUOUS
 66
     1
 40
0.000000
 41
0.000000
  0
VERTEX
  8
0
  6
CONTINUOUS
 10
4.259640
 20
1.895960
  0
VERTEX
  8
0
  6
CONTINUOUS
 10
4.256120
 20
2.635160
  0
VERTEX
  8
0
  6
CONTINUOUS
 10
4.297480
 20
2.644400
  0
VERTEX
  8
0
  6
CONTINUOUS
 10
4.300560
 20
1.905200
  0
VERTEX
  8
0
  6
CONTINUOUS
 10
4.259640
 20
1.895960
  0
SEQEND
  8
0
  0
SOLID
  8
0
 62
    15
 10
4.300560
 20
1.905200
 11
4.297480
 21
2.644400
 12
4.337520
 22
1.910480
 13
4.334000
 23
2.649240
  0
POLYLINE
  8
0
  6
CONTINUOUS
 66
     1
 40
0.000000
 41
0.000000
  0
VERTEX
  8
0
  6
CONTINUOUS
 10
4.300560
 20
1.905200
  0
VERTEX
  8
0
  6
CONTINUOUS
 10
4.297480
 20
2.644400
  0
VERTEX
  8
0
  6
CONTINUOUS
 10
4.334000
 20
2.649240
  0
VERTEX
  8
0
  6
CONTINUOUS
 10
4.337520
 20
1.910480
  0
VERTEX
  8
0
  6
CONTINUOUS
 10
4.300560
 20
1.905200
  0
SEQEND
  8
0
  0
SOLID
  8
0
 62
    15
 10
4.337520
 20
1.910480
 11
4.334000
 21
2.649240
 12
4.369200
 22
1.911800
 13
4.365680
 23
2.651000
  0
POLYLINE
  8
0
  6
CONTINUOUS
 66
     1
 40
0.000000
 41
0.000000
  0
VERTEX
  8
0
  6
CONTINUOUS
 10
4.337520
 20
1.910480
  0
VERTEX
  8
0
  6
CONTINUOUS
 10
4.334000
 20
2.649240
  0
VERTEX
  8
0
  6
CONTINUOUS
 10
4.365680
 20
2.651000
  0
VERTEX
  8
0
  6
CONTINUOUS
 10
4.369200
 20
1.911800
  0
VERTEX
  8
0
  6
CONTINUOUS
 10
4.337520
 20
1.910480
  0
SEQEND
  8
0
  0
SOLID
  8
0
 62
    15
 10
4.369200
 20
1.911800
 11
4.365680
 21
2.651000
 12
4.401320
 22
1.910920
 13
4.397800
 23
2.649680
  0
POLYLINE
  8
0
  6
CONTINUOUS
 66
     1
 40
0.000000
 41
0.000000
  0
VERTEX
  8
0
  6
CONTINUOUS
 10
4.369200
 20
1.911800
  0
VERTEX
  8
0
  6
CONTINUOUS
 10
4.365680
 20
2.651000
  0
VERTEX
  8
0
  6
CONTINUOUS
 10
4.397800
 20
2.649680
  0
VERTEX
  8
0
  6
CONTINUOUS
 10
4.401320
 20
1.910920
  0
VERTEX
  8
0
  6
CONTINUOUS
 10
4.369200
 20
1.911800
  0
SEQEND
  8
0
  0
SOLID
  8
0
 62
    15
 10
4.401320
 20
1.910920
 11
4.397800
 21
2.649680
 12
4.439600
 22
1.905640
 13
4.436080
 23
2.644840
  0
POLYLINE
  8
0
  6
CONTINUOUS
 66
     1
 40
0.000000
 41
0.000000
  0
VERTEX
  8
0
  6
CONTINUOUS
 10
4.401320
 20
1.910920
  0
VERTEX
  8
0
  6
CONTINUOUS
 10
4.397800
 20
2.649680
  0
VERTEX
  8
0
  6
CONTINUOUS
 10
4.436080
 20
2.644840
  0
VERTEX
  8
0
  6
CONTINUOUS
 10
4.439600
 20
1.905640
  0
VERTEX
  8
0
  6
CONTINUOUS
 10
4.401320
 20
1.910920
  0
SEQEND
  8
0
  0
SOLID
  8
0
 62
    15
 10
4.439600
 20
1.905640
 11
4.436080
 21
2.644840
 12
4.481840
 22
1.894200
 13
4.478760
 23
2.632960
  0
POLYLINE
  8
0
  6
CONTINUOUS
 66
     1
 40
0.000000
 41
0.000000
  0
VERTEX
  8
0
  6
CONTINUOUS
 10
4.439600
 20
1.905640
  0
VERTEX
  8
0
  6
CONTINUOUS
 10
4.436080
 20
2.644840
  0
VERTEX
  8
0
  6
CONTINUOUS
 10
4.478760
 20
2.632960
  0
VERTEX
  8
0
  6
CONTINUOUS
 10
4.481840
 20
1.894200
  0
VERTEX
  8
0
  6
CONTINUOUS
 10
4.439600
 20
1.905640
  0
SEQEND
  8
0
  0
SOLID
  8
0
 62
    15
 10
4.481840
 20
1.894200
 11
4.478760
 21
2.632960
 12
4.527160
 22
1.873080
 13
4.523640
 23
2.612280
  0
POLYLINE
  8
0
  6
CONTINUOUS
 66
     1
 40
0.000000
 41
0.000000
  0
VERTEX
  8
0
  6
CONTINUOUS
 10
4.481840
 20
1.894200
  0
VERTEX
  8
0
  6
CONTINUOUS
 10
4.478760
 20
2.632960
  0
VERTEX
  8
0
  6
CONTINUOUS
 10
4.523640
 20
2.612280
  0
VERTEX
  8
0
  6
CONTINUOUS
 10
4.527160
 20
1.873080
  0
VERTEX
  8
0
  6
CONTINUOUS
 10
4.481840
 20
1.894200
  0
SEQEND
  8
0
  0
SOLID
  8
0
 62
    15
 10
4.527160
 20
1.873080
 11
4.523640
 21
2.612280
 12
4.573360
 22
1.840520
 13
4.569840
 23
2.579720
  0
POLYLINE
  8
0
  6
CONTINUOUS
 66
     1
 40
0.000000
 41
0.000000
  0
VERTEX
  8
0
  6
CONTINUOUS
 10
4.527160
 20
1.873080
  0
VERTEX
  8
0
  6
CONTINUOUS
 10
4.523640
 20
2.612280
  0
VERTEX
  8
0
  6
CONTINUOUS
 10
4.569840
 20
2.579720
  0
VERTEX
  8
0
  6
CONTINUOUS
 10
4.573360
 20
1.840520
  0
VERTEX
  8
0
  6
CONTINUOUS
 10
4.527160
 20
1.873080
  0
SEQEND
  8
0
  0
SOLID
  8
0
 62
    15
 10
4.573360
 20
1.840520
 11
4.569840
 21
2.579720
 12
4.595800
 22
1.818960
 13
4.592720
 23
2.558160
  0
POLYLINE
  8
0
  6
CONTINUOUS
 66
     1
 40
0.000000
 41
0.000000
  0
VERTEX
  8
0
  6
CONTINUOUS
 10
4.573360
 20
1.840520
  0
VERTEX
  8
0
  6
CONTINUOUS
 10
4.569840
 20
2.579720
  0
VERTEX
  8
0
  6
CONTINUOUS
 10
4.592720
 20
2.558160
  0
VERTEX
  8
0
  6
CONTINUOUS
 10
4.595800
 20
1.818960
  0
VERTEX
  8
0
  6
CONTINUOUS
 10
4.573360
 20
1.840520
  0
SEQEND
  8
0
  0
SOLID
  8
0
 62
    15
 10
4.595800
 20
1.818960
 11
4.592720
 21
2.558160
 12
4.618240
 22
1.793440
 13
4.614720
 23
2.532640
  0
POLYLINE
  8
0
  6
CONTINUOUS
 66
     1
 40
0.000000
 41
0.000000
  0
VERTEX
  8
0
  6
CONTINUOUS
 10
4.595800
 20
1.818960
  0
VERTEX
  8
0
  6
CONTINUOUS
 10
4.592720
 20
2.558160
  0
VERTEX
  8
0
  6
CONTINUOUS
 10
4.614720
 20
2.532640
  0
VERTEX
  8
0
  6
CONTINUOUS
 10
4.618240
 20
1.793440
  0
VERTEX
  8
0
  6
CONTINUOUS
 10
4.595800
 20
1.818960
  0
SEQEND
  8
0
  0
SOLID
  8
0
 62
    15
 10
4.618240
 20
1.793440
 11
4.614720
 21
2.532640
 12
4.639800
 22
1.763520
 13
4.636280
 23
2.502720
  0
POLYLINE
  8
0
  6
CONTINUOUS
 66
     1
 40
0.000000
 41
0.000000
  0
VERTEX
  8
0
  6
CONTINUOUS
 10
4.618240
 20
1.793440
  0
VERTEX
  8
0
  6
CONTINUOUS
 10
4.614720
 20
2.532640
  0
VERTEX
  8
0
  6
CONTINUOUS
 10
4.636280
 20
2.502720
  0
VERTEX
  8
0
  6
CONTINUOUS
 10
4.639800
 20
1.763520
  0
VERTEX
  8
0
  6
CONTINUOUS
 10
4.618240
 20
1.793440
  0
SEQEND
  8
0
  0
SOLID
  8
0
 62
    15
 10
4.639800
 20
1.763520
 11
4.636280
 21
2.502720
 12
4.660920
 22
1.729200
 13
4.657400
 23
2.468400
  0
POLYLINE
  8
0
  6
CONTINUOUS
 66
     1
 40
0.000000
 41
0.000000
  0
VERTEX
  8
0
  6
CONTINUOUS
 10
4.639800
 20
1.763520
  0
VERTEX
  8
0
  6
CONTINUOUS
 10
4.636280
 20
2.502720
  0
VERTEX
  8
0
  6
CONTINUOUS
 10
4.657400
 20
2.468400
  0
VERTEX
  8
0
  6
CONTINUOUS
 10
4.660920
 20
1.729200
  0
VERTEX
  8
0
  6
CONTINUOUS
 10
4.639800
 20
1.763520
  0
SEQEND
  8
0
  0
SOLID
  8
0
 62
    15
 10
4.660920
 20
1.729200
 11
4.657400
 21
2.468400
 12
4.680280
 22
1.690040
 13
4.676760
 23
2.428800
  0
POLYLINE
  8
0
  6
CONTINUOUS
 66
     1
 40
0.000000
 41
0.000000
  0
VERTEX
  8
0
  6
CONTINUOUS
 10
4.660920
 20
1.729200
  0
VERTEX
  8
0
  6
CONTINUOUS
 10
4.657400
 20
2.468400
  0
VERTEX
  8
0
  6
CONTINUOUS
 10
4.676760
 20
2.428800
  0
VERTEX
  8
0
  6
CONTINUOUS
 10
4.680280
 20
1.690040
  0
VERTEX
  8
0
  6
CONTINUOUS
 10
4.660920
 20
1.729200
  0
SEQEND
  8
0
  0
SOLID
  8
0
 62
    15
 10
4.680280
 20
1.690040
 11
4.676760
 21
2.428800
 12
4.698760
 22
1.645160
 13
4.695240
 23
2.384360
  0
POLYLINE
  8
0
  6
CONTINUOUS
 66
     1
 40
0.000000
 41
0.000000
  0
VERTEX
  8
0
  6
CONTINUOUS
 10
4.680280
 20
1.690040
  0
VERTEX
  8
0
  6
CONTINUOUS
 10
4.676760
 20
2.428800
  0
VERTEX
  8
0
  6
CONTINUOUS
 10
4.695240
 20
2.384360
  0
VERTEX
  8
0
  6
CONTINUOUS
 10
4.698760
 20
1.645160
  0
VERTEX
  8
0
  6
CONTINUOUS
 10
4.680280
 20
1.690040
  0
SEQEND
  8
0
  0
SOLID
  8
0
 62
    15
 10
4.698760
 20
1.645160
 11
4.695240
 21
2.384360
 12
4.701400
 22
1.644280
 13
4.697880
 23
2.383040
  0
POLYLINE
  8
0
  6
CONTINUOUS
 66
     1
 40
0.000000
 41
0.000000
  0
VERTEX
  8
0
  6
CONTINUOUS
 10
4.698760
 20
1.645160
  0
VERTEX
  8
0
  6
CONTINUOUS
 10
4.695240
 20
2.384360
  0
VERTEX
  8
0
  6
CONTINUOUS
 10
4.697880
 20
2.383040
  0
VERTEX
  8
0
  6
CONTINUOUS
 10
4.701400
 20
1.644280
  0
VERTEX
  8
0
  6
CONTINUOUS
 10
4.698760
 20
1.645160
  0
SEQEND
  8
0
  0
SOLID
  8
0
 62
    15
 10
4.701400
 20
1.644280
 11
4.697880
 21
2.383040
 12
5.241720
 22
1.644280
 13
5.238640
 23
2.383040
  0
POLYLINE
  8
0
  6
CONTINUOUS
 66
     1
 40
0.000000
 41
0.000000
  0
VERTEX
  8
0
  6
CONTINUOUS
 10
4.701400
 20
1.644280
  0
VERTEX
  8
0
  6
CONTINUOUS
 10
4.697880
 20
2.383040
  0
VERTEX
  8
0
  6
CONTINUOUS
 10
5.238640
 20
2.383040
  0
VERTEX
  8
0
  6
CONTINUOUS
 10
5.241720
 20
1.644280
  0
VERTEX
  8
0
  6
CONTINUOUS
 10
4.701400
 20
1.644280
  0
SEQEND
  8
0
  0
SOLID
  8
0
 62
    15
 10
5.241720
 20
1.644280
 11
5.238640
 21
2.383040
 12
5.271640
 22
1.641200
 13
5.268120
 23
2.379960
  0
POLYLINE
  8
0
  6
CONTINUOUS
 66
     1
 40
0.000000
 41
0.000000
  0
VERTEX
  8
0
  6
CONTINUOUS
 10
5.241720
 20
1.644280
  0
VERTEX
  8
0
  6
CONTINUOUS
 10
5.238640
 20
2.383040
  0
VERTEX
  8
0
  6
CONTINUOUS
 10
5.268120
 20
2.379960
  0
VERTEX
  8
0
  6
CONTINUOUS
 10
5.271640
 20
1.641200
  0
VERTEX
  8
0
  6
CONTINUOUS
 10
5.241720
 20
1.644280
  0
SEQEND
  8
0
  0
SOLID
  8
0
 62
    15
 10
5.271640
 20
1.641200
 11
5.268120
 21
2.379960
 12
5.301120
 22
1.632400
 13
5.298040
 23
2.371160
  0
POLYLINE
  8
0
  6
CONTINUOUS
 66
     1
 40
0.000000
 41
0.000000
  0
VERTEX
  8
0
  6
CONTINUOUS
 10
5.271640
 20
1.641200
  0
VERTEX
  8
0
  6
CONTINUOUS
 10
5.268120
 20
2.379960
  0
VERTEX
  8
0
  6
CONTINUOUS
 10
5.298040
 20
2.371160
  0
VERTEX
  8
0
  6
CONTINUOUS
 10
5.301120
 20
1.632400
  0
VERTEX
  8
0
  6
CONTINUOUS
 10
5.271640
 20
1.641200
  0
SEQEND
  8
0
  0
SOLID
  8
0
 62
    15
 10
5.301120
 20
1.632400
 11
5.298040
 21
2.371160
 12
5.330160
 22
1.618320
 13
5.326640
 23
2.357080
  0
POLYLINE
  8
0
  6
CONTINUOUS
 66
     1
 40
0.000000
 41
0.000000
  0
VERTEX
  8
0
  6
CONTINUOUS
 10
5.301120
 20
1.632400
  0
VERTEX
  8
0
  6
CONTINUOUS
 10
5.298040
 20
2.371160
  0
VERTEX
  8
0
  6
CONTINUOUS
 10
5.326640
 20
2.357080
  0
VERTEX
  8
0
  6
CONTINUOUS
 10
5.330160
 20
1.618320
  0
VERTEX
  8
0
  6
CONTINUOUS
 10
5.301120
 20
1.632400
  0
SEQEND
  8
0
  0
SOLID
  8
0
 62
    15
 10
5.330160
 20
1.618320
 11
5.326640
 21
2.357080
 12
5.357000
 22
1.598960
 13
5.353480
 23
2.338160
  0
POLYLINE
  8
0
  6
CONTINUOUS
 66
     1
 40
0.000000
 41
0.000000
  0
VERTEX
  8
0
  6
CONTINUOUS
 10
5.330160
 20
1.618320
  0
VERTEX
  8
0
  6
CONTINUOUS
 10
5.326640
 20
2.357080
  0
VERTEX
  8
0
  6
CONTINUOUS
 10
5.353480
 20
2.338160
  0
VERTEX
  8
0
  6
CONTINUOUS
 10
5.357000
 20
1.598960
  0
VERTEX
  8
0
  6
CONTINUOUS
 10
5.330160
 20
1.618320
  0
SEQEND
  8
0
  0
SOLID
  8
0
 62
    15
 10
5.357000
 20
1.598960
 11
5.353480
 21
2.338160
 12
5.381200
 22
1.575640
 13
5.377680
 23
2.314840
  0
POLYLINE
  8
0
  6
CONTINUOUS
 66
     1
 40
0.000000
 41
0.000000
  0
VERTEX
  8
0
  6
CONTINUOUS
 10
5.357000
 20
1.598960
  0
VERTEX
  8
0
  6
CONTINUOUS
 10
5.353480
 20
2.338160
  0
VERTEX
  8
0
  6
CONTINUOUS
 10
5.377680
 20
2.314840
  0
VERTEX
  8
0
  6
CONTINUOUS
 10
5.381200
 20
1.575640
  0
VERTEX
  8
0
  6
CONTINUOUS
 10
5.357000
 20
1.598960
  0
SEQEND
  8
0
  0
SOLID
  8
0
 62
    15
 10
5.381200
 20
1.575640
 11
5.377680
 21
2.314840
 12
5.401440
 22
1.548360
 13
5.397920
 23
2.287120
  0
POLYLINE
  8
0
  6
CONTINUOUS
 66
     1
 40
0.000000
 41
0.000000
  0
VERTEX
  8
0
  6
CONTINUOUS
 10
5.381200
 20
1.575640
  0
VERTEX
  8
0
  6
CONTINUOUS
 10
5.377680
 20
2.314840
  0
VERTEX
  8
0
  6
CONTINUOUS
 10
5.397920
 20
2.287120
  0
VERTEX
  8
0
  6
CONTINUOUS
 10
5.401440
 20
1.548360
  0
VERTEX
  8
0
  6
CONTINUOUS
 10
5.381200
 20
1.575640
  0
SEQEND
  8
0
  0
SOLID
  8
0
 62
    15
 10
5.401440
 20
1.548360
 11
5.397920
 21
2.287120
 12
5.416400
 22
1.517560
 13
5.413320
 23
2.256320
  0
POLYLINE
  8
0
  6
CONTINUOUS
 66
     1
 40
0.000000
 41
0.000000
  0
VERTEX
  8
0
  6
CONTINUOUS
 10
5.401440
 20
1.548360
  0
VERTEX
  8
0
  6
CONTINUOUS
 10
5.397920
 20
2.287120
  0
VERTEX
  8
0
  6
CONTINUOUS
 10
5.413320
 20
2.256320
  0
VERTEX
  8
0
  6
CONTINUOUS
 10
5.416400
 20
1.517560
  0
VERTEX
  8
0
  6
CONTINUOUS
 10
5.401440
 20
1.548360
  0
SEQEND
  8
0
  0
SOLID
  8
0
 62
    15
 10
5.416400
 20
1.517560
 11
5.413320
 21
2.256320
 12
5.426080
 22
1.483680
 13
5.422560
 23
2.222440
  0
POLYLINE
  8
0
  6
CONTINUOUS
 66
     1
 40
0.000000
 41
0.000000
  0
VERTEX
  8
0
  6
CONTINUOUS
 10
5.416400
 20
1.517560
  0
VERTEX
  8
0
  6
CONTINUOUS
 10
5.413320
 20
2.256320
  0
VERTEX
  8
0
  6
CONTINUOUS
 10
5.422560
 20
2.222440
  0
VERTEX
  8
0
  6
CONTINUOUS
 10
5.426080
 20
1.483680
  0
VERTEX
  8
0
  6
CONTINUOUS
 10
5.416400
 20
1.517560
  0
SEQEND
  8
0
  0
SOLID
  8
0
 62
    15
 10
5.426080
 20
1.483680
 11
5.422560
 21
2.222440
 12
5.556760
 22
1.483680
 13
5.553240
 23
2.222440
  0
POLYLINE
  8
0
  6
CONTINUOUS
 66
     1
 40
0.000000
 41
0.000000
  0
VERTEX
  8
0
  6
CONTINUOUS
 10
5.426080
 20
1.483680
  0
VERTEX
  8
0
  6
CONTINUOUS
 10
5.422560
 20
2.222440
  0
VERTEX
  8
0
  6
CONTINUOUS
 10
5.553240
 20
2.222440
  0
VERTEX
  8
0
  6
CONTINUOUS
 10
5.556760
 20
1.483680
  0
VERTEX
  8
0
  6
CONTINUOUS
 10
5.426080
 20
1.483680
  0
SEQEND
  8
0
  0
SOLID
  8
0
 62
    15
 10
5.556760
 20
1.483680
 11
5.553240
 21
2.222440
 12
5.562920
 22
1.485880
 13
5.559400
 23
2.225080
  0
POLYLINE
  8
0
  6
CONTINUOUS
 66
     1
 40
0.000000
 41
0.000000
  0
VERTEX
  8
0
  6
CONTINUOUS
 10
5.556760
 20
1.483680
  0
VERTEX
  8
0
  6
CONTINUOUS
 10
5.553240
 20
2.222440
  0
VERTEX
  8
0
  6
CONTINUOUS
 10
5.559400
 20
2.225080
  0
VERTEX
  8
0
  6
CONTINUOUS
 10
5.562920
 20
1.485880
  0
VERTEX
  8
0
  6
CONTINUOUS
 10
5.556760
 20
1.483680
  0
SEQEND
  8
0
  0
SOLID
  8
0
 62
    15
 10
5.562920
 20
1.485880
 11
5.559400
 21
2.225080
 12
5.567320
 22
1.489840
 13
5.564240
 23
2.228600
  0
POLYLINE
  8
0
  6
CONTINUOUS
 66
     1
 40
0.000000
 41
0.000000
  0
VERTEX
  8
0
  6
CONTINUOUS
 10
5.562920
 20
1.485880
  0
VERTEX
  8
0
  6
CONTINUOUS
 10
5.559400
 20
2.225080
  0
VERTEX
  8
0
  6
CONTINUOUS
 10
5.564240
 20
2.228600
  0
VERTEX
  8
0
  6
CONTINUOUS
 10
5.567320
 20
1.489840
  0
VERTEX
  8
0
  6
CONTINUOUS
 10
5.562920
 20
1.485880
  0
SEQEND
  8
0
  0
SOLID
  8
0
 62
    15
 10
5.567320
 20
1.489840
 11
5.564240
 21
2.228600
 12
5.581400
 22
1.502160
 13
5.577880
 23
2.240920
  0
POLYLINE
  8
0
  6
CONTINUOUS
 66
     1
 40
0.000000
 41
0.000000
  0
VERTEX
  8
0
  6
CONTINUOUS
 10
5.567320
 20
1.489840
  0
VERTEX
  8
0
  6
CONTINUOUS
 10
5.564240
 20
2.228600
  0
VERTEX
  8
0
  6
CONTINUOUS
 10
5.577880
 20
2.240920
  0
VERTEX
  8
0
  6
CONTINUOUS
 10
5.581400
 20
1.502160
  0
VERTEX
  8
0
  6
CONTINUOUS
 10
5.567320
 20
1.489840
  0
SEQEND
  8
0
  0
SOLID
  8
0
 62
    15
 10
5.581400
 20
1.502160
 11
5.577880
 21
2.240920
 12
5.590200
 22
1.510080
 13
5.587120
 23
2.249280
  0
POLYLINE
  8
0
  6
CONTINUOUS
 66
     1
 40
0.000000
 41
0.000000
  0
VERTEX
  8
0
  6
CONTINUOUS
 10
5.581400
 20
1.502160
  0
VERTEX
  8
0
  6
CONTINUOUS
 10
5.577880
 20
2.240920
  0
VERTEX
  8
0
  6
CONTINUOUS
 10
5.587120
 20
2.249280
  0
VERTEX
  8
0
  6
CONTINUOUS
 10
5.590200
 20
1.510080
  0
VERTEX
  8
0
  6
CONTINUOUS
 10
5.581400
 20
1.502160
  0
SEQEND
  8
0
  0
SOLID
  8
0
 62
    15
 10
5.590200
 20
1.510080
 11
5.587120
 21
2.249280
 12
5.613520
 22
1.528560
 13
5.610000
 23
2.267320
  0
POLYLINE
  8
0
  6
CONTINUOUS
 66
     1
 40
0.000000
 41
0.000000
  0
VERTEX
  8
0
  6
CONTINUOUS
 10
5.590200
 20
1.510080
  0
VERTEX
  8
0
  6
CONTINUOUS
 10
5.587120
 20
2.249280
  0
VERTEX
  8
0
  6
CONTINUOUS
 10
5.610000
 20
2.267320
  0
VERTEX
  8
0
  6
CONTINUOUS
 10
5.613520
 20
1.528560
  0
VERTEX
  8
0
  6
CONTINUOUS
 10
5.590200
 20
1.510080
  0
SEQEND
  8
0
  0
SOLID
  8
0
 62
    15
 10
5.613520
 20
1.528560
 11
5.610000
 21
2.267320
 12
5.643440
 22
1.548360
 13
5.640360
 23
2.287120
  0
POLYLINE
  8
0
  6
CONTINUOUS
 66
     1
 40
0.000000
 41
0.000000
  0
VERTEX
  8
0
  6
CONTINUOUS
 10
5.613520
 20
1.528560
  0
VERTEX
  8
0
  6
CONTINUOUS
 10
5.610000
 20
2.267320
  0
VERTEX
  8
0
  6
CONTINUOUS
 10
5.640360
 20
2.287120
  0
VERTEX
  8
0
  6
CONTINUOUS
 10
5.643440
 20
1.548360
  0
VERTEX
  8
0
  6
CONTINUOUS
 10
5.613520
 20
1.528560
  0
SEQEND
  8
0
  0
SOLID
  8
0
 62
    15
 10
5.643440
 20
1.548360
 11
5.640360
 21
2.287120
 12
5.680840
 22
1.567280
 13
5.677320
 23
2.306040
  0
POLYLINE
  8
0
  6
CONTINUOUS
 66
     1
 40
0.000000
 41
0.000000
  0
VERTEX
  8
0
  6
CONTINUOUS
 10
5.643440
 20
1.548360
  0
VERTEX
  8
0
  6
CONTINUOUS
 10
5.640360
 20
2.287120
  0
VERTEX
  8
0
  6
CONTINUOUS
 10
5.677320
 20
2.306040
  0
VERTEX
  8
0
  6
CONTINUOUS
 10
5.680840
 20
1.567280
  0
VERTEX
  8
0
  6
CONTINUOUS
 10
5.643440
 20
1.548360
  0
SEQEND
  8
0
  0
SOLID
  8
0
 62
    15
 10
5.680840
 20
1.567280
 11
5.677320
 21
2.306040
 12
5.725280
 22
1.583560
 13
5.722200
 23
2.322320
  0
POLYLINE
  8
0
  6
CONTINUOUS
 66
     1
 40
0.000000
 41
0.000000
  0
VERTEX
  8
0
  6
CONTINUOUS
 10
5.680840
 20
1.567280
  0
VERTEX
  8
0
  6
CONTINUOUS
 10
5.677320
 20
2.306040
  0
VERTEX
  8
0
  6
CONTINUOUS
 10
5.722200
 20
2.322320
  0
VERTEX
  8
0
  6
CONTINUOUS
 10
5.725280
 20
1.583560
  0
VERTEX
  8
0
  6
CONTINUOUS
 10
5.680840
 20
1.567280
  0
SEQEND
  8
0
  0
SOLID
  8
0
 62
    15
 10
5.725280
 20
1.583560
 11
5.722200
 21
2.322320
 12
5.778080
 22
1.594560
 13
5.774560
 23
2.333760
  0
POLYLINE
  8
0
  6
CONTINUOUS
 66
     1
 40
0.000000
 41
0.000000
  0
VERTEX
  8
0
  6
CONTINUOUS
 10
5.725280
 20
1.583560
  0
VERTEX
  8
0
  6
CONTINUOUS
 10
5.722200
 20
2.322320
  0
VERTEX
  8
0
  6
CONTINUOUS
 10
5.774560
 20
2.333760
  0
VERTEX
  8
0
  6
CONTINUOUS
 10
5.778080
 20
1.594560
  0
VERTEX
  8
0
  6
CONTINUOUS
 10
5.725280
 20
1.583560
  0
SEQEND
  8
0
  0
SOLID
  8
0
 62
    15
 10
5.778080
 20
1.594560
 11
5.774560
 21
2.333760
 12
5.838800
 22
1.598960
 13
5.835280
 23
2.338160
  0
POLYLINE
  8
0
  6
CONTINUOUS
 66
     1
 40
0.000000
 41
0.000000
  0
VERTEX
  8
0
  6
CONTINUOUS
 10
5.778080
 20
1.594560
  0
VERTEX
  8
0
  6
CONTINUOUS
 10
5.774560
 20
2.333760
  0
VERTEX
  8
0
  6
CONTINUOUS
 10
5.835280
 20
2.338160
  0
VERTEX
  8
0
  6
CONTINUOUS
 10
5.838800
 20
1.598960
  0
VERTEX
  8
0
  6
CONTINUOUS
 10
5.778080
 20
1.594560
  0
SEQEND
  8
0
  0
SOLID
  8
0
 62
    15
 10
5.838800
 20
1.598960
 11
5.835280
 21
2.338160
 12
5.902600
 22
1.594560
 13
5.899080
 23
2.333760
  0
POLYLINE
  8
0
  6
CONTINUOUS
 66
     1
 40
0.000000
 41
0.000000
  0
VERTEX
  8
0
  6
CONTINUOUS
 10
5.838800
 20
1.598960
  0
VERTEX
  8
0
  6
CONTINUOUS
 10
5.835280
 20
2.338160
  0
VERTEX
  8
0
  6
CONTINUOUS
 10
5.899080
 20
2.333760
  0
VERTEX
  8
0
  6
CONTINUOUS
 10
5.902600
 20
1.594560
  0
VERTEX
  8
0
  6
CONTINUOUS
 10
5.838800
 20
1.598960
  0
SEQEND
  8
0
  0
SOLID
  8
0
 62
    15
 10
5.902600
 20
1.594560
 11
5.899080
 21
2.333760
 12
5.962880
 22
1.583560
 13
5.959360
 23
2.322760
  0
POLYLINE
  8
0
  6
CONTINUOUS
 66
     1
 40
0.000000
 41
0.000000
  0
VERTEX
  8
0
  6
CONTINUOUS
 10
5.902600
 20
1.594560
  0
VERTEX
  8
0
  6
CONTINUOUS
 10
5.899080
 20
2.333760
  0
VERTEX
  8
0
  6
CONTINUOUS
 10
5.959360
 20
2.322760
  0
VERTEX
  8
0
  6
CONTINUOUS
 10
5.962880
 20
1.583560
  0
VERTEX
  8
0
  6
CONTINUOUS
 10
5.902600
 20
1.594560
  0
SEQEND
  8
0
  0
SOLID
  8
0
 62
    15
 10
5.962880
 20
1.583560
 11
5.959360
 21
2.322760
 12
6.018320
 22
1.568160
 13
6.014800
 23
2.306920
  0
POLYLINE
  8
0
  6
CONTINUOUS
 66
     1
 40
0.000000
 41
0.000000
  0
VERTEX
  8
0
  6
CONTINUOUS
 10
5.962880
 20
1.583560
  0
VERTEX
  8
0
  6
CONTINUOUS
 10
5.959360
 20
2.322760
  0
VERTEX
  8
0
  6
CONTINUOUS
 10
6.014800
 20
2.306920
  0
VERTEX
  8
0
  6
CONTINUOUS
 10
6.018320
 20
1.568160
  0
VERTEX
  8
0
  6
CONTINUOUS
 10
5.962880
 20
1.583560
  0
SEQEND
  8
0
  0
SOLID
  8
0
 62
    15
 10
6.018320
 20
1.568160
 11
6.014800
 21
2.306920
 12
6.067160
 22
1.550120
 13
6.063640
 23
2.289320
  0
POLYLINE
  8
0
  6
CONTINUOUS
 66
     1
 40
0.000000
 41
0.000000
  0
VERTEX
  8
0
  6
CONTINUOUS
 10
6.018320
 20
1.568160
  0
VERTEX
  8
0
  6
CONTINUOUS
 10
6.014800
 20
2.306920
  0
VERTEX
  8
0
  6
CONTINUOUS
 10
6.063640
 20
2.289320
  0
VERTEX
  8
0
  6
CONTINUOUS
 10
6.067160
 20
1.550120
  0
VERTEX
  8
0
  6
CONTINUOUS
 10
6.018320
 20
1.568160
  0
SEQEND
  8
0
  0
SOLID
  8
0
 62
    15
 10
6.067160
 20
1.550120
 11
6.063640
 21
2.289320
 12
6.108080
 22
1.532080
 13
6.104560
 23
2.271280
  0
POLYLINE
  8
0
  6
CONTINUOUS
 66
     1
 40
0.000000
 41
0.000000
  0
VERTEX
  8
0
  6
CONTINUOUS
 10
6.067160
 20
1.550120
  0
VERTEX
  8
0
  6
CONTINUOUS
 10
6.063640
 20
2.289320
  0
VERTEX
  8
0
  6
CONTINUOUS
 10
6.104560
 20
2.271280
  0
VERTEX
  8
0
  6
CONTINUOUS
 10
6.108080
 20
1.532080
  0
VERTEX
  8
0
  6
CONTINUOUS
 10
6.067160
 20
1.550120
  0
SEQEND
  8
0
  0
SOLID
  8
0
 62
    15
 10
6.108080
 20
1.532080
 11
6.104560
 21
2.271280
 12
6.139320
 22
1.516680
 13
6.135800
 23
2.255440
  0
POLYLINE
  8
0
  6
CONTINUOUS
 66
     1
 40
0.000000
 41
0.000000
  0
VERTEX
  8
0
  6
CONTINUOUS
 10
6.108080
 20
1.532080
  0
VERTEX
  8
0
  6
CONTINUOUS
 10
6.104560
 20
2.271280
  0
VERTEX
  8
0
  6
CONTINUOUS
 10
6.135800
 20
2.255440
  0
VERTEX
  8
0
  6
CONTINUOUS
 10
6.139320
 20
1.516680
  0
VERTEX
  8
0
  6
CONTINUOUS
 10
6.108080
 20
1.532080
  0
SEQEND
  8
0
  0
SOLID
  8
0
 62
    15
 10
6.139320
 20
1.516680
 11
6.135800
 21
2.255440
 12
6.159120
 22
1.505680
 13
6.155600
 23
2.244440
  0
POLYLINE
  8
0
  6
CONTINUOUS
 66
     1
 40
0.000000
 41
0.000000
  0
VERTEX
  8
0
  6
CONTINUOUS
 10
6.139320
 20
1.516680
  0
VERTEX
  8
0
  6
CONTINUOUS
 10
6.135800
 20
2.255440
  0
VERTEX
  8
0
  6
CONTINUOUS
 10
6.155600
 20
2.244440
  0
VERTEX
  8
0
  6
CONTINUOUS
 10
6.159120
 20
1.505680
  0
VERTEX
  8
0
  6
CONTINUOUS
 10
6.139320
 20
1.516680
  0
SEQEND
  8
0
  0
SOLID
  8
0
 62
    15
 10
4.029960
 20
1.772760
 11
4.026440
 21
2.511520
 12
4.074840
 22
1.809280
 13
4.071760
 23
2.548480
  0
POLYLINE
  8
0
  6
CONTINUOUS
 66
     1
 40
0.000000
 41
0.000000
  0
VERTEX
  8
0
  6
CONTINUOUS
 10
4.029960
 20
1.772760
  0
VERTEX
  8
0
  6
CONTINUOUS
 10
4.026440
 20
2.511520
  0
VERTEX
  8
0
  6
CONTINUOUS
 10
4.071760
 20
2.548480
  0
VERTEX
  8
0
  6
CONTINUOUS
 10
4.074840
 20
1.809280
  0
VERTEX
  8
0
  6
CONTINUOUS
 10
4.029960
 20
1.772760
  0
SEQEND
  8
0
  0
SOLID
  8
0
 62
    15
 10
6.165720
 20
1.501280
 11
6.162200
 21
2.240480
 12
6.173200
 22
1.496000
 13
6.169680
 23
2.235200
  0
POLYLINE
  8
0
  6
CONTINUOUS
 66
     1
 40
0.000000
 41
0.000000
  0
VERTEX
  8
0
  6
CONTINUOUS
 10
6.165720
 20
1.501280
  0
VERTEX
  8
0
  6
CONTINUOUS
 10
6.162200
 20
2.240480
  0
VERTEX
  8
0
  6
CONTINUOUS
 10
6.169680
 20
2.235200
  0
VERTEX
  8
0
  6
CONTINUOUS
 10
6.173200
 20
1.496000
  0
VERTEX
  8
0
  6
CONTINUOUS
 10
6.165720
 20
1.501280
  0
SEQEND
  8
0
  0
SOLID
  8
0
 62
    15
 10
6.173200
 20
1.496000
 11
6.169680
 21
2.235200
 12
6.193000
 22
1.482800
 13
6.189480
 23
2.221560
  0
POLYLINE
  8
0
  6
CONTINUOUS
 66
     1
 40
0.000000
 41
0.000000
  0
VERTEX
  8
0
  6
CONTINUOUS
 10
6.173200
 20
1.496000
  0
VERTEX
  8
0
  6
CONTINUOUS
 10
6.169680
 20
2.235200
  0
VERTEX
  8
0
  6
CONTINUOUS
 10
6.189480
 20
2.221560
  0
VERTEX
  8
0
  6
CONTINUOUS
 10
6.193000
 20
1.482800
  0
VERTEX
  8
0
  6
CONTINUOUS
 10
6.173200
 20
1.496000
  0
SEQEND
  8
0
  0
SOLID
  8
0
 62
    15
 10
6.193000
 20
1.482800
 11
6.189480
 21
2.221560
 12
6.223800
 22
1.463000
 13
6.220280
 23
2.202200
  0
POLYLINE
  8
0
  6
CONTINUOUS
 66
     1
 40
0.000000
 41
0.000000
  0
VERTEX
  8
0
  6
CONTINUOUS
 10
6.193000
 20
1.482800
  0
VERTEX
  8
0
  6
CONTINUOUS
 10
6.189480
 20
2.221560
  0
VERTEX
  8
0
  6
CONTINUOUS
 10
6.220280
 20
2.202200
  0
VERTEX
  8
0
  6
CONTINUOUS
 10
6.223800
 20
1.463000
  0
VERTEX
  8
0
  6
CONTINUOUS
 10
6.193000
 20
1.482800
  0
SEQEND
  8
0
  0
SOLID
  8
0
 62
    15
 10
6.223800
 20
1.463000
 11
6.220280
 21
2.202200
 12
6.262960
 22
1.440560
 13
6.259440
 23
2.179320
  0
POLYLINE
  8
0
  6
CONTINUOUS
 66
     1
 40
0.000000
 41
0.000000
  0
VERTEX
  8
0
  6
CONTINUOUS
 10
6.223800
 20
1.463000
  0
VERTEX
  8
0
  6
CONTINUOUS
 10
6.220280
 20
2.202200
  0
VERTEX
  8
0
  6
CONTINUOUS
 10
6.259440
 20
2.179320
  0
VERTEX
  8
0
  6
CONTINUOUS
 10
6.262960
 20
1.440560
  0
VERTEX
  8
0
  6
CONTINUOUS
 10
6.223800
 20
1.463000
  0
SEQEND
  8
0
  0
SOLID
  8
0
 62
    15
 10
6.262960
 20
1.440560
 11
6.259440
 21
2.179320
 12
6.308280
 22
1.417240
 13
6.304760
 23
2.156440
  0
POLYLINE
  8
0
  6
CONTINUOUS
 66
     1
 40
0.000000
 41
0.000000
  0
VERTEX
  8
0
  6
CONTINUOUS
 10
6.262960
 20
1.440560
  0
VERTEX
  8
0
  6
CONTINUOUS
 10
6.259440
 20
2.179320
  0
VERTEX
  8
0
  6
CONTINUOUS
 10
6.304760
 20
2.156440
  0
VERTEX
  8
0
  6
CONTINUOUS
 10
6.308280
 20
1.417240
  0
VERTEX
  8
0
  6
CONTINUOUS
 10
6.262960
 20
1.440560
  0
SEQEND
  8
0
  0
SOLID
  8
0
 62
    15
 10
6.308280
 20
1.417240
 11
6.304760
 21
2.156440
 12
6.358000
 22
1.396560
 13
6.354480
 23
2.135320
  0
POLYLINE
  8
0
  6
CONTINUOUS
 66
     1
 40
0.000000
 41
0.000000
  0
VERTEX
  8
0
  6
CONTINUOUS
 10
6.308280
 20
1.417240
  0
VERTEX
  8
0
  6
CONTINUOUS
 10
6.304760
 20
2.156440
  0
VERTEX
  8
0
  6
CONTINUOUS
 10
6.354480
 20
2.135320
  0
VERTEX
  8
0
  6
CONTINUOUS
 10
6.358000
 20
1.396560
  0
VERTEX
  8
0
  6
CONTINUOUS
 10
6.308280
 20
1.417240
  0
SEQEND
  8
0
  0
SOLID
  8
0
 62
    15
 10
6.358000
 20
1.396560
 11
6.354480
 21
2.135320
 12
6.409480
 22
1.380280
 13
6.406400
 23
2.119480
  0
POLYLINE
  8
0
  6
CONTINUOUS
 66
     1
 40
0.000000
 41
0.000000
  0
VERTEX
  8
0
  6
CONTINUOUS
 10
6.358000
 20
1.396560
  0
VERTEX
  8
0
  6
CONTINUOUS
 10
6.354480
 20
2.135320
  0
VERTEX
  8
0
  6
CONTINUOUS
 10
6.406400
 20
2.119480
  0
VERTEX
  8
0
  6
CONTINUOUS
 10
6.409480
 20
1.380280
  0
VERTEX
  8
0
  6
CONTINUOUS
 10
6.358000
 20
1.396560
  0
SEQEND
  8
0
  0
SOLID
  8
0
 62
    15
 10
6.409480
 20
1.380280
 11
6.406400
 21
2.119480
 12
6.461400
 22
1.371480
 13
6.457880
 23
2.110680
  0
POLYLINE
  8
0
  6
CONTINUOUS
 66
     1
 40
0.000000
 41
0.000000
  0
VERTEX
  8
0
  6
CONTINUOUS
 10
6.409480
 20
1.380280
  0
VERTEX
  8
0
  6
CONTINUOUS
 10
6.406400
 20
2.119480
  0
VERTEX
  8
0
  6
CONTINUOUS
 10
6.457880
 20
2.110680
  0
VERTEX
  8
0
  6
CONTINUOUS
 10
6.461400
 20
1.371480
  0
VERTEX
  8
0
  6
CONTINUOUS
 10
6.409480
 20
1.380280
  0
SEQEND
  8
0
  0
SOLID
  8
0
 62
    15
 10
6.461400
 20
1.371480
 11
6.457880
 21
2.110680
 12
6.498360
 22
1.371480
 13
6.494840
 23
2.110240
  0
POLYLINE
  8
0
  6
CONTINUOUS
 66
     1
 40
0.000000
 41
0.000000
  0
VERTEX
  8
0
  6
CONTINUOUS
 10
6.461400
 20
1.371480
  0
VERTEX
  8
0
  6
CONTINUOUS
 10
6.457880
 20
2.110680
  0
VERTEX
  8
0
  6
CONTINUOUS
 10
6.494840
 20
2.110240
  0
VERTEX
  8
0
  6
CONTINUOUS
 10
6.498360
 20
1.371480
  0
VERTEX
  8
0
  6
CONTINUOUS
 10
6.461400
 20
1.371480
  0
SEQEND
  8
0
  0
SOLID
  8
0
 62
    15
 10
6.498360
 20
1.371480
 11
6.494840
 21
2.110240
 12
6.530040
 22
1.376760
 13
6.526520
 23
2.115520
  0
POLYLINE
  8
0
  6
CONTINUOUS
 66
     1
 40
0.000000
 41
0.000000
  0
VERTEX
  8
0
  6
CONTINUOUS
 10
6.498360
 20
1.371480
  0
VERTEX
  8
0
  6
CONTINUOUS
 10
6.494840
 20
2.110240
  0
VERTEX
  8
0
  6
CONTINUOUS
 10
6.526520
 20
2.115520
  0
VERTEX
  8
0
  6
CONTINUOUS
 10
6.530040
 20
1.376760
  0
VERTEX
  8
0
  6
CONTINUOUS
 10
6.498360
 20
1.371480
  0
SEQEND
  8
0
  0
SOLID
  8
0
 62
    15
 10
6.530040
 20
1.376760
 11
6.526520
 21
2.115520
 12
6.556880
 22
1.386880
 13
6.553360
 23
2.126080
  0
POLYLINE
  8
0
  6
CONTINUOUS
 66
     1
 40
0.000000
 41
0.000000
  0
VERTEX
  8
0
  6
CONTINUOUS
 10
6.530040
 20
1.376760
  0
VERTEX
  8
0
  6
CONTINUOUS
 10
6.526520
 20
2.115520
  0
VERTEX
  8
0
  6
CONTINUOUS
 10
6.553360
 20
2.126080
  0
VERTEX
  8
0
  6
CONTINUOUS
 10
6.556880
 20
1.386880
  0
VERTEX
  8
0
  6
CONTINUOUS
 10
6.530040
 20
1.376760
  0
SEQEND
  8
0
  0
SOLID
  8
0
 62
    15
 10
6.556880
 20
1.386880
 11
6.553360
 21
2.126080
 12
6.579760
 22
1.402280
 13
6.576240
 23
2.141040
  0
POLYLINE
  8
0
  6
CONTINUOUS
 66
     1
 40
0.000000
 41
0.000000
  0
VERTEX
  8
0
  6
CONTINUOUS
 10
6.556880
 20
1.386880
  0
VERTEX
  8
0
  6
CONTINUOUS
 10
6.553360
 20
2.126080
  0
VERTEX
  8
0
  6
CONTINUOUS
 10
6.576240
 20
2.141040
  0
VERTEX
  8
0
  6
CONTINUOUS
 10
6.579760
 20
1.402280
  0
VERTEX
  8
0
  6
CONTINUOUS
 10
6.556880
 20
1.386880
  0
SEQEND
  8
0
  0
SOLID
  8
0
 62
    15
 10
6.579760
 20
1.402280
 11
6.576240
 21
2.141040
 12
6.599560
 22
1.421640
 13
6.596040
 23
2.160400
  0
POLYLINE
  8
0
  6
CONTINUOUS
 66
     1
 40
0.000000
 41
0.000000
  0
VERTEX
  8
0
  6
CONTINUOUS
 10
6.579760
 20
1.402280
  0
VERTEX
  8
0
  6
CONTINUOUS
 10
6.576240
 20
2.141040
  0
VERTEX
  8
0
  6
CONTINUOUS
 10
6.596040
 20
2.160400
  0
VERTEX
  8
0
  6
CONTINUOUS
 10
6.599560
 20
1.421640
  0
VERTEX
  8
0
  6
CONTINUOUS
 10
6.579760
 20
1.402280
  0
SEQEND
  8
0
  0
SOLID
  8
0
 62
    15
 10
6.599560
 20
1.421640
 11
6.596040
 21
2.160400
 12
6.616720
 22
1.444960
 13
6.613200
 23
2.183720
  0
POLYLINE
  8
0
  6
CONTINUOUS
 66
     1
 40
0.000000
 41
0.000000
  0
VERTEX
  8
0
  6
CONTINUOUS
 10
6.599560
 20
1.421640
  0
VERTEX
  8
0
  6
CONTINUOUS
 10
6.596040
 20
2.160400
  0
VERTEX
  8
0
  6
CONTINUOUS
 10
6.613200
 20
2.183720
  0
VERTEX
  8
0
  6
CONTINUOUS
 10
6.616720
 20
1.444960
  0
VERTEX
  8
0
  6
CONTINUOUS
 10
6.599560
 20
1.421640
  0
SEQEND
  8
0
  0
SOLID
  8
0
 62
    15
 10
6.616720
 20
1.444960
 11
6.613200
 21
2.183720
 12
6.645320
 22
1.501280
 13
6.642240
 23
2.240480
  0
POLYLINE
  8
0
  6
CONTINUOUS
 66
     1
 40
0.000000
 41
0.000000
  0
VERTEX
  8
0
  6
CONTINUOUS
 10
6.616720
 20
1.444960
  0
VERTEX
  8
0
  6
CONTINUOUS
 10
6.613200
 20
2.183720
  0
VERTEX
  8
0
  6
CONTINUOUS
 10
6.642240
 20
2.240480
  0
VERTEX
  8
0
  6
CONTINUOUS
 10
6.645320
 20
1.501280
  0
VERTEX
  8
0
  6
CONTINUOUS
 10
6.616720
 20
1.444960
  0
SEQEND
  8
0
  0
SOLID
  8
0
 62
    15
 10
6.645320
 20
1.501280
 11
6.642240
 21
2.240480
 12
6.900520
 22
1.501280
 13
6.897000
 23
2.240480
  0
POLYLINE
  8
0
  6
CONTINUOUS
 66
     1
 40
0.000000
 41
0.000000
  0
VERTEX
  8
0
  6
CONTINUOUS
 10
6.645320
 20
1.501280
  0
VERTEX
  8
0
  6
CONTINUOUS
 10
6.642240
 20
2.240480
  0
VERTEX
  8
0
  6
CONTINUOUS
 10
6.897000
 20
2.240480
  0
VERTEX
  8
0
  6
CONTINUOUS
 10
6.900520
 20
1.501280
  0
VERTEX
  8
0
  6
CONTINUOUS
 10
6.645320
 20
1.501280
  0
SEQEND
  8
0
  0
SOLID
  8
0
 62
    15
 10
6.900520
 20
1.501280
 11
6.897000
 21
2.240480
 12
6.914600
 22
1.468720
 13
6.911080
 23
2.207920
  0
POLYLINE
  8
0
  6
CONTINUOUS
 66
     1
 40
0.000000
 41
0.000000
  0
VERTEX
  8
0
  6
CONTINUOUS
 10
6.900520
 20
1.501280
  0
VERTEX
  8
0
  6
CONTINUOUS
 10
6.897000
 20
2.240480
  0
VERTEX
  8
0
  6
CONTINUOUS
 10
6.911080
 20
2.207920
  0
VERTEX
  8
0
  6
CONTINUOUS
 10
6.914600
 20
1.468720
  0
VERTEX
  8
0
  6
CONTINUOUS
 10
6.900520
 20
1.501280
  0
SEQEND
  8
0
  0
SOLID
  8
0
 62
    15
 10
6.914600
 20
1.468720
 11
6.911080
 21
2.207920
 12
6.932640
 22
1.442760
 13
6.929120
 23
2.181520
  0
POLYLINE
  8
0
  6
CONTINUOUS
 66
     1
 40
0.000000
 41
0.000000
  0
VERTEX
  8
0
  6
CONTINUOUS
 10
6.914600
 20
1.468720
  0
VERTEX
  8
0
  6
CONTINUOUS
 10
6.911080
 20
2.207920
  0
VERTEX
  8
0
  6
CONTINUOUS
 10
6.929120
 20
2.181520
  0
VERTEX
  8
0
  6
CONTINUOUS
 10
6.932640
 20
1.442760
  0
VERTEX
  8
0
  6
CONTINUOUS
 10
6.914600
 20
1.468720
  0
SEQEND
  8
0
  0
SOLID
  8
0
 62
    15
 10
6.932640
 20
1.442760
 11
6.929120
 21
2.181520
 12
6.953760
 22
1.422080
 13
6.950240
 23
2.161280
  0
POLYLINE
  8
0
  6
CONTINUOUS
 66
     1
 40
0.000000
 41
0.000000
  0
VERTEX
  8
0
  6
CONTINUOUS
 10
6.932640
 20
1.442760
  0
VERTEX
  8
0
  6
CONTINUOUS
 10
6.929120
 20
2.181520
  0
VERTEX
  8
0
  6
CONTINUOUS
 10
6.950240
 20
2.161280
  0
VERTEX
  8
0
  6
CONTINUOUS
 10
6.953760
 20
1.422080
  0
VERTEX
  8
0
  6
CONTINUOUS
 10
6.932640
 20
1.442760
  0
SEQEND
  8
0
  0
SOLID
  8
0
 62
    15
 10
6.953760
 20
1.422080
 11
6.950240
 21
2.161280
 12
6.977960
 22
1.406680
 13
6.974440
 23
2.145880
  0
POLYLINE
  8
0
  6
CONTINUOUS
 66
     1
 40
0.000000
 41
0.000000
  0
VERTEX
  8
0
  6
CONTINUOUS
 10
6.953760
 20
1.422080
  0
VERTEX
  8
0
  6
CONTINUOUS
 10
6.950240
 20
2.161280
  0
VERTEX
  8
0
  6
CONTINUOUS
 10
6.974440
 20
2.145880
  0
VERTEX
  8
0
  6
CONTINUOUS
 10
6.977960
 20
1.406680
  0
VERTEX
  8
0
  6
CONTINUOUS
 10
6.953760
 20
1.422080
  0
SEQEND
  8
0
  0
SOLID
  8
0
 62
    15
 10
6.977960
 20
1.406680
 11
6.974440
 21
2.145880
 12
7.003920
 22
1.395680
 13
7.000400
 23
2.134440
  0
POLYLINE
  8
0
  6
CONTINUOUS
 66
     1
 40
0.000000
 41
0.000000
  0
VERTEX
  8
0
  6
CONTINUOUS
 10
6.977960
 20
1.406680
  0
VERTEX
  8
0
  6
CONTINUOUS
 10
6.974440
 20
2.145880
  0
VERTEX
  8
0
  6
CONTINUOUS
 10
7.000400
 20
2.134440
  0
VERTEX
  8
0
  6
CONTINUOUS
 10
7.003920
 20
1.395680
  0
VERTEX
  8
0
  6
CONTINUOUS
 10
6.977960
 20
1.406680
  0
SEQEND
  8
0
  0
SOLID
  8
0
 62
    15
 10
7.003920
 20
1.395680
 11
7.000400
 21
2.134440
 12
7.031640
 22
1.387760
 13
7.028120
 23
2.126960
  0
POLYLINE
  8
0
  6
CONTINUOUS
 66
     1
 40
0.000000
 41
0.000000
  0
VERTEX
  8
0
  6
CONTINUOUS
 10
7.003920
 20
1.395680
  0
VERTEX
  8
0
  6
CONTINUOUS
 10
7.000400
 20
2.134440
  0
VERTEX
  8
0
  6
CONTINUOUS
 10
7.028120
 20
2.126960
  0
VERTEX
  8
0
  6
CONTINUOUS
 10
7.031640
 20
1.387760
  0
VERTEX
  8
0
  6
CONTINUOUS
 10
7.003920
 20
1.395680
  0
SEQEND
  8
0
  0
SOLID
  8
0
 62
    15
 10
7.031640
 20
1.387760
 11
7.028120
 21
2.126960
 12
7.089720
 22
1.379840
 13
7.086200
 23
2.119040
  0
POLYLINE
  8
0
  6
CONTINUOUS
 66
     1
 40
0.000000
 41
0.000000
  0
VERTEX
  8
0
  6
CONTINUOUS
 10
7.031640
 20
1.387760
  0
VERTEX
  8
0
  6
CONTINUOUS
 10
7.028120
 20
2.126960
  0
VERTEX
  8
0
  6
CONTINUOUS
 10
7.086200
 20
2.119040
  0
VERTEX
  8
0
  6
CONTINUOUS
 10
7.089720
 20
1.379840
  0
VERTEX
  8
0
  6
CONTINUOUS
 10
7.031640
 20
1.387760
  0
SEQEND
  8
0
  0
SOLID
  8
0
 62
    15
 10
7.089720
 20
1.379840
 11
7.086200
 21
2.119040
 12
7.121840
 22
1.376760
 13
7.118320
 23
2.115960
  0
POLYLINE
  8
0
  6
CONTINUOUS
 66
     1
 40
0.000000
 41
0.000000
  0
VERTEX
  8
0
  6
CONTINUOUS
 10
7.089720
 20
1.379840
  0
VERTEX
  8
0
  6
CONTINUOUS
 10
7.086200
 20
2.119040
  0
VERTEX
  8
0
  6
CONTINUOUS
 10
7.118320
 20
2.115960
  0
VERTEX
  8
0
  6
CONTINUOUS
 10
7.121840
 20
1.376760
  0
VERTEX
  8
0
  6
CONTINUOUS
 10
7.089720
 20
1.379840
  0
SEQEND
  8
0
  0
SOLID
  8
0
 62
    15
 10
7.121840
 20
1.376760
 11
7.118320
 21
2.115960
 12
7.158360
 22
1.369720
 13
7.154840
 23
2.108480
  0
POLYLINE
  8
0
  6
CONTINUOUS
 66
     1
 40
0.000000
 41
0.000000
  0
VERTEX
  8
0
  6
CONTINUOUS
 10
7.121840
 20
1.376760
  0
VERTEX
  8
0
  6
CONTINUOUS
 10
7.118320
 20
2.115960
  0
VERTEX
  8
0
  6
CONTINUOUS
 10
7.154840
 20
2.108480
  0
VERTEX
  8
0
  6
CONTINUOUS
 10
7.158360
 20
1.369720
  0
VERTEX
  8
0
  6
CONTINUOUS
 10
7.121840
 20
1.376760
  0
SEQEND
  8
0
  0
SOLID
  8
0
 62
    15
 10
7.158360
 20
1.369720
 11
7.154840
 21
2.108480
 12
7.196640
 22
1.356080
 13
7.193120
 23
2.095280
  0
POLYLINE
  8
0
  6
CONTINUOUS
 66
     1
 40
0.000000
 41
0.000000
  0
VERTEX
  8
0
  6
CONTINUOUS
 10
7.158360
 20
1.369720
  0
VERTEX
  8
0
  6
CONTINUOUS
 10
7.154840
 20
2.108480
  0
VERTEX
  8
0
  6
CONTINUOUS
 10
7.193120
 20
2.095280
  0
VERTEX
  8
0
  6
CONTINUOUS
 10
7.196640
 20
1.356080
  0
VERTEX
  8
0
  6
CONTINUOUS
 10
7.158360
 20
1.369720
  0
SEQEND
  8
0
  0
SOLID
  8
0
 62
    15
 10
7.196640
 20
1.356080
 11
7.193120
 21
2.095280
 12
7.234040
 22
1.334080
 13
7.230960
 23
2.073280
  0
POLYLINE
  8
0
  6
CONTINUOUS
 66
     1
 40
0.000000
 41
0.000000
  0
VERTEX
  8
0
  6
CONTINUOUS
 10
7.196640
 20
1.356080
  0
VERTEX
  8
0
  6
CONTINUOUS
 10
7.193120
 20
2.095280
  0
VERTEX
  8
0
  6
CONTINUOUS
 10
7.230960
 20
2.073280
  0
VERTEX
  8
0
  6
CONTINUOUS
 10
7.234040
 20
1.334080
  0
VERTEX
  8
0
  6
CONTINUOUS
 10
7.196640
 20
1.356080
  0
SEQEND
  8
0
  0
SOLID
  8
0
 62
    15
 10
7.234040
 20
1.334080
 11
7.230960
 21
2.073280
 12
7.268800
 22
1.301080
 13
7.265280
 23
2.039840
  0
POLYLINE
  8
0
  6
CONTINUOUS
 66
     1
 40
0.000000
 41
0.000000
  0
VERTEX
  8
0
  6
CONTINUOUS
 10
7.234040
 20
1.334080
  0
VERTEX
  8
0
  6
CONTINUOUS
 10
7.230960
 20
2.073280
  0
VERTEX
  8
0
  6
CONTINUOUS
 10
7.265280
 20
2.039840
  0
VERTEX
  8
0
  6
CONTINUOUS
 10
7.268800
 20
1.301080
  0
VERTEX
  8
0
  6
CONTINUOUS
 10
7.234040
 20
1.334080
  0
SEQEND
  8
0
  0
SOLID
  8
0
 62
    15
 10
7.268800
 20
1.301080
 11
7.265280
 21
2.039840
 12
7.284200
 22
1.279520
 13
7.280680
 23
2.018720
  0
POLYLINE
  8
0
  6
CONTINUOUS
 66
     1
 40
0.000000
 41
0.000000
  0
VERTEX
  8
0
  6
CONTINUOUS
 10
7.268800
 20
1.301080
  0
VERTEX
  8
0
  6
CONTINUOUS
 10
7.265280
 20
2.039840
  0
VERTEX
  8
0
  6
CONTINUOUS
 10
7.280680
 20
2.018720
  0
VERTEX
  8
0
  6
CONTINUOUS
 10
7.284200
 20
1.279520
  0
VERTEX
  8
0
  6
CONTINUOUS
 10
7.268800
 20
1.301080
  0
SEQEND
  8
0
  0
SOLID
  8
0
 62
    15
 10
7.284200
 20
1.279520
 11
7.280680
 21
2.018720
 12
7.297840
 22
1.254000
 13
7.294320
 23
1.993200
  0
POLYLINE
  8
0
  6
CONTINUOUS
 66
     1
 40
0.000000
 41
0.000000
  0
VERTEX
  8
0
  6
CONTINUOUS
 10
7.284200
 20
1.279520
  0
VERTEX
  8
0
  6
CONTINUOUS
 10
7.280680
 20
2.018720
  0
VERTEX
  8
0
  6
CONTINUOUS
 10
7.294320
 20
1.993200
  0
VERTEX
  8
0
  6
CONTINUOUS
 10
7.297840
 20
1.254000
  0
VERTEX
  8
0
  6
CONTINUOUS
 10
7.284200
 20
1.279520
  0
SEQEND
  8
0
  0
SOLID
  8
0
 62
    15
 10
7.297840
 20
1.254000
 11
7.294320
 21
1.993200
 12
7.309720
 22
1.224960
 13
7.306200
 23
1.963720
  0
POLYLINE
  8
0
  6
CONTINUOUS
 66
     1
 40
0.000000
 41
0.000000
  0
VERTEX
  8
0
  6
CONTINUOUS
 10
7.297840
 20
1.254000
  0
VERTEX
  8
0
  6
CONTINUOUS
 10
7.294320
 20
1.993200
  0
VERTEX
  8
0
  6
CONTINUOUS
 10
7.306200
 20
1.963720
  0
VERTEX
  8
0
  6
CONTINUOUS
 10
7.309720
 20
1.224960
  0
VERTEX
  8
0
  6
CONTINUOUS
 10
7.297840
 20
1.254000
  0
SEQEND
  8
0
  0
SOLID
  8
0
 62
    15
 10
7.318960
 20
1.191080
 11
7.315880
 21
1.930280
 12
7.326000
 22
1.153240
 13
7.322480
 23
1.892000
  0
POLYLINE
  8
0
  6
CONTINUOUS
 66
     1
 40
0.000000
 41
0.000000
  0
VERTEX
  8
0
  6
CONTINUOUS
 10
7.318960
 20
1.191080
  0
VERTEX
  8
0
  6
CONTINUOUS
 10
7.315880
 20
1.930280
  0
VERTEX
  8
0
  6
CONTINUOUS
 10
7.322480
 20
1.892000
  0
VERTEX
  8
0
  6
CONTINUOUS
 10
7.326000
 20
1.153240
  0
VERTEX
  8
0
  6
CONTINUOUS
 10
7.318960
 20
1.191080
  0
SEQEND
  8
0
  0
SOLID
  8
0
 62
    15
 10
7.309720
 20
1.224960
 11
7.306200
 21
1.963720
 12
7.318960
 22
1.191080
 13
7.315880
 23
1.930280
  0
POLYLINE
  8
0
  6
CONTINUOUS
 66
     1
 40
0.000000
 41
0.000000
  0
VERTEX
  8
0
  6
CONTINUOUS
 10
7.309720
 20
1.224960
  0
VERTEX
  8
0
  6
CONTINUOUS
 10
7.306200
 20
1.963720
  0
VERTEX
  8
0
  6
CONTINUOUS
 10
7.315880
 20
1.930280
  0
VERTEX
  8
0
  6
CONTINUOUS
 10
7.318960
 20
1.191080
  0
VERTEX
  8
0
  6
CONTINUOUS
 10
7.309720
 20
1.224960
  0
SEQEND
  8
0
  0
SOLID
  8
0
 62
    15
 10
7.326000
 20
1.153240
 11
7.322480
 21
1.892000
 12
7.330400
 22
1.109680
 13
7.326880
 23
1.848880
  0
POLYLINE
  8
0
  6
CONTINUOUS
 66
     1
 40
0.000000
 41
0.000000
  0
VERTEX
  8
0
  6
CONTINUOUS
 10
7.326000
 20
1.153240
  0
VERTEX
  8
0
  6
CONTINUOUS
 10
7.322480
 20
1.892000
  0
VERTEX
  8
0
  6
CONTINUOUS
 10
7.326880
 20
1.848880
  0
VERTEX
  8
0
  6
CONTINUOUS
 10
7.330400
 20
1.109680
  0
VERTEX
  8
0
  6
CONTINUOUS
 10
7.326000
 20
1.153240
  0
SEQEND
  8
0
  0
SOLID
  8
0
 62
    15
 10
3.798080
 20
1.109680
 11
3.794560
 21
1.848880
 12
3.798080
 22
1.608640
 13
3.794560
 23
2.347400
  0
POLYLINE
  8
0
  6
CONTINUOUS
 66
     1
 40
0.000000
 41
0.000000
  0
VERTEX
  8
0
  6
CONTINUOUS
 10
3.798080
 20
1.109680
  0
VERTEX
  8
0
  6
CONTINUOUS
 10
3.794560
 20
1.848880
  0
VERTEX
  8
0
  6
CONTINUOUS
 10
3.794560
 20
2.347400
  0
VERTEX
  8
0
  6
CONTINUOUS
 10
3.798080
 20
1.608640
  0
VERTEX
  8
0
  6
CONTINUOUS
 10
3.798080
 20
1.109680
  0
SEQEND
  8
0
  0
SOLID
  8
0
 62
    15
 10
3.798080
 20
1.608640
 11
3.794560
 21
2.347400
 12
3.800720
 22
1.612160
 13
3.797200
 23
2.350920
  0
POLYLINE
  8
0
  6
CONTINUOUS
 66
     1
 40
0.000000
 41
0.000000
  0
VERTEX
  8
0
  6
CONTINUOUS
 10
3.798080
 20
1.608640
  0
VERTEX
  8
0
  6
CONTINUOUS
 10
3.794560
 20
2.347400
  0
VERTEX
  8
0
  6
CONTINUOUS
 10
3.797200
 20
2.350920
  0
VERTEX
  8
0
  6
CONTINUOUS
 10
3.800720
 20
1.612160
  0
VERTEX
  8
0
  6
CONTINUOUS
 10
3.798080
 20
1.608640
  0
SEQEND
  8
0
  0
SOLID
  8
0
 62
    15
 10
3.800720
 20
1.612160
 11
3.797200
 21
2.350920
 12
3.826680
 22
1.618760
 13
3.823160
 23
2.357960
  0
POLYLINE
  8
0
  6
CONTINUOUS
 66
     1
 40
0.000000
 41
0.000000
  0
VERTEX
  8
0
  6
CONTINUOUS
 10
3.800720
 20
1.612160
  0
VERTEX
  8
0
  6
CONTINUOUS
 10
3.797200
 20
2.350920
  0
VERTEX
  8
0
  6
CONTINUOUS
 10
3.823160
 20
2.357960
  0
VERTEX
  8
0
  6
CONTINUOUS
 10
3.826680
 20
1.618760
  0
VERTEX
  8
0
  6
CONTINUOUS
 10
3.800720
 20
1.612160
  0
SEQEND
  8
0
  0
SOLID
  8
0
 62
    15
 10
3.826680
 20
1.618760
 11
3.823160
 21
2.357960
 12
3.851320
 22
1.628880
 13
3.847800
 23
2.368080
  0
POLYLINE
  8
0
  6
CONTINUOUS
 66
     1
 40
0.000000
 41
0.000000
  0
VERTEX
  8
0
  6
CONTINUOUS
 10
3.826680
 20
1.618760
  0
VERTEX
  8
0
  6
CONTINUOUS
 10
3.823160
 20
2.357960
  0
VERTEX
  8
0
  6
CONTINUOUS
 10
3.847800
 20
2.368080
  0
VERTEX
  8
0
  6
CONTINUOUS
 10
3.851320
 20
1.628880
  0
VERTEX
  8
0
  6
CONTINUOUS
 10
3.826680
 20
1.618760
  0
SEQEND
  8
0
  0
SOLID
  8
0
 62
    15
 10
3.851320
 20
1.628880
 11
3.847800
 21
2.368080
 12
3.874200
 22
1.642960
 13
3.870680
 23
2.381720
  0
POLYLINE
  8
0
  6
CONTINUOUS
 66
     1
 40
0.000000
 41
0.000000
  0
VERTEX
  8
0
  6
CONTINUOUS
 10
3.851320
 20
1.628880
  0
VERTEX
  8
0
  6
CONTINUOUS
 10
3.847800
 20
2.368080
  0
VERTEX
  8
0
  6
CONTINUOUS
 10
3.870680
 20
2.381720
  0
VERTEX
  8
0
  6
CONTINUOUS
 10
3.874200
 20
1.642960
  0
VERTEX
  8
0
  6
CONTINUOUS
 10
3.851320
 20
1.628880
  0
SEQEND
  8
0
  0
SOLID
  8
0
 62
    15
 10
3.874200
 20
1.642960
 11
3.870680
 21
2.381720
 12
3.894440
 22
1.660120
 13
3.890920
 23
2.399320
  0
POLYLINE
  8
0
  6
CONTINUOUS
 66
     1
 40
0.000000
 41
0.000000
  0
VERTEX
  8
0
  6
CONTINUOUS
 10
3.874200
 20
1.642960
  0
VERTEX
  8
0
  6
CONTINUOUS
 10
3.870680
 20
2.381720
  0
VERTEX
  8
0
  6
CONTINUOUS
 10
3.890920
 20
2.399320
  0
VERTEX
  8
0
  6
CONTINUOUS
 10
3.894440
 20
1.660120
  0
VERTEX
  8
0
  6
CONTINUOUS
 10
3.874200
 20
1.642960
  0
SEQEND
  8
0
  0
SOLID
  8
0
 62
    15
 10
3.894440
 20
1.660120
 11
3.890920
 21
2.399320
 12
3.912040
 22
1.681680
 13
3.908520
 23
2.420880
  0
POLYLINE
  8
0
  6
CONTINUOUS
 66
     1
 40
0.000000
 41
0.000000
  0
VERTEX
  8
0
  6
CONTINUOUS
 10
3.894440
 20
1.660120
  0
VERTEX
  8
0
  6
CONTINUOUS
 10
3.890920
 20
2.399320
  0
VERTEX
  8
0
  6
CONTINUOUS
 10
3.908520
 20
2.420880
  0
VERTEX
  8
0
  6
CONTINUOUS
 10
3.912040
 20
1.681680
  0
VERTEX
  8
0
  6
CONTINUOUS
 10
3.894440
 20
1.660120
  0
SEQEND
  8
0
  0
SOLID
  8
0
 62
    15
 10
3.912040
 20
1.681680
 11
3.908520
 21
2.420880
 12
3.925680
 22
1.706760
 13
3.922160
 23
2.445960
  0
POLYLINE
  8
0
  6
CONTINUOUS
 66
     1
 40
0.000000
 41
0.000000
  0
VERTEX
  8
0
  6
CONTINUOUS
 10
3.912040
 20
1.681680
  0
VERTEX
  8
0
  6
CONTINUOUS
 10
3.908520
 20
2.420880
  0
VERTEX
  8
0
  6
CONTINUOUS
 10
3.922160
 20
2.445960
  0
VERTEX
  8
0
  6
CONTINUOUS
 10
3.925680
 20
1.706760
  0
VERTEX
  8
0
  6
CONTINUOUS
 10
3.912040
 20
1.681680
  0
SEQEND
  8
0
  0
SOLID
  8
0
 62
    15
 10
3.925680
 20
1.706760
 11
3.922160
 21
2.445960
 12
3.935800
 22
1.735800
 13
3.932280
 23
2.475000
  0
POLYLINE
  8
0
  6
CONTINUOUS
 66
     1
 40
0.000000
 41
0.000000
  0
VERTEX
  8
0
  6
CONTINUOUS
 10
3.925680
 20
1.706760
  0
VERTEX
  8
0
  6
CONTINUOUS
 10
3.922160
 20
2.445960
  0
VERTEX
  8
0
  6
CONTINUOUS
 10
3.932280
 20
2.475000
  0
VERTEX
  8
0
  6
CONTINUOUS
 10
3.935800
 20
1.735800
  0
VERTEX
  8
0
  6
CONTINUOUS
 10
3.925680
 20
1.706760
  0
SEQEND
  8
0
  0
SOLID
  8
0
 62
    15
 10
3.935800
 20
1.735800
 11
3.932280
 21
2.475000
 12
3.941080
 22
1.769240
 13
3.937560
 23
2.508000
  0
POLYLINE
  8
0
  6
CONTINUOUS
 66
     1
 40
0.000000
 41
0.000000
  0
VERTEX
  8
0
  6
CONTINUOUS
 10
3.935800
 20
1.735800
  0
VERTEX
  8
0
  6
CONTINUOUS
 10
3.932280
 20
2.475000
  0
VERTEX
  8
0
  6
CONTINUOUS
 10
3.937560
 20
2.508000
  0
VERTEX
  8
0
  6
CONTINUOUS
 10
3.941080
 20
1.769240
  0
VERTEX
  8
0
  6
CONTINUOUS
 10
3.935800
 20
1.735800
  0
SEQEND
  8
0
  0
SOLID
  8
0
 62
    15
 10
3.941080
 20
1.769240
 11
3.937560
 21
2.508000
 12
3.941960
 22
1.770120
 13
3.938880
 23
2.509320
  0
POLYLINE
  8
0
  6
CONTINUOUS
 66
     1
 40
0.000000
 41
0.000000
  0
VERTEX
  8
0
  6
CONTINUOUS
 10
3.941080
 20
1.769240
  0
VERTEX
  8
0
  6
CONTINUOUS
 10
3.937560
 20
2.508000
  0
VERTEX
  8
0
  6
CONTINUOUS
 10
3.938880
 20
2.509320
  0
VERTEX
  8
0
  6
CONTINUOUS
 10
3.941960
 20
1.770120
  0
VERTEX
  8
0
  6
CONTINUOUS
 10
3.941080
 20
1.769240
  0
SEQEND
  8
0
  0
SOLID
  8
0
 62
    15
 10
3.941960
 20
1.770120
 11
3.938880
 21
2.509320
 12
4.023800
 22
1.770120
 13
4.020280
 23
2.509320
  0
POLYLINE
  8
0
  6
CONTINUOUS
 66
     1
 40
0.000000
 41
0.000000
  0
VERTEX
  8
0
  6
CONTINUOUS
 10
3.941960
 20
1.770120
  0
VERTEX
  8
0
  6
CONTINUOUS
 10
3.938880
 20
2.509320
  0
VERTEX
  8
0
  6
CONTINUOUS
 10
4.020280
 20
2.509320
  0
VERTEX
  8
0
  6
CONTINUOUS
 10
4.023800
 20
1.770120
  0
VERTEX
  8
0
  6
CONTINUOUS
 10
3.941960
 20
1.770120
  0
SEQEND
  8
0
  0
SOLID
  8
0
 62
    15
 10
4.023800
 20
1.770120
 11
4.020280
 21
2.509320
 12
4.029960
 22
1.772760
 13
4.026440
 23
2.511520
  0
POLYLINE
  8
0
  6
CONTINUOUS
 66
     1
 40
0.000000
 41
0.000000
  0
VERTEX
  8
0
  6
CONTINUOUS
 10
4.023800
 20
1.770120
  0
VERTEX
  8
0
  6
CONTINUOUS
 10
4.020280
 20
2.509320
  0
VERTEX
  8
0
  6
CONTINUOUS
 10
4.026440
 20
2.511520
  0
VERTEX
  8
0
  6
CONTINUOUS
 10
4.029960
 20
1.772760
  0
VERTEX
  8
0
  6
CONTINUOUS
 10
4.023800
 20
1.770120
  0
SEQEND
  8
0
  0
POLYLINE
  8
0
  6
CONTINUOUS
 66
     1
 40
0.000000
 41
0.000000
  0
VERTEX
  8
0
  6
CONTINUOUS
 10
4.029960
 20
1.772760
  0
VERTEX
  8
0
  6
CONTINUOUS
 10
4.074840
 20
1.809280
  0
VERTEX
  8
0
  6
CONTINUOUS
 10
4.121920
 20
1.839640
  0
VERTEX
  8
0
  6
CONTINUOUS
 10
4.169000
 20
1.863840
  0
VERTEX
  8
0
  6
CONTINUOUS
 10
4.215200
 20
1.882320
  0
VERTEX
  8
0
  6
CONTINUOUS
 10
4.259640
 20
1.895960
  0
VERTEX
  8
0
  6
CONTINUOUS
 10
4.300560
 20
1.905200
  0
VERTEX
  8
0
  6
CONTINUOUS
 10
4.337520
 20
1.910480
  0
VERTEX
  8
0
  6
CONTINUOUS
 10
4.369200
 20
1.911800
  0
VERTEX
  8
0
  6
CONTINUOUS
 10
4.401320
 20
1.910920
  0
VERTEX
  8
0
  6
CONTINUOUS
 10
4.439600
 20
1.905640
  0
VERTEX
  8
0
  6
CONTINUOUS
 10
4.481840
 20
1.894200
  0
VERTEX
  8
0
  6
CONTINUOUS
 10
4.527160
 20
1.873080
  0
VERTEX
  8
0
  6
CONTINUOUS
 10
4.573360
 20
1.840520
  0
VERTEX
  8
0
  6
CONTINUOUS
 10
4.595800
 20
1.818960
  0
VERTEX
  8
0
  6
CONTINUOUS
 10
4.618240
 20
1.793440
  0
VERTEX
  8
0
  6
CONTINUOUS
 10
4.639800
 20
1.763520
  0
VERTEX
  8
0
  6
CONTINUOUS
 10
4.660920
 20
1.729200
  0
VERTEX
  8
0
  6
CONTINUOUS
 10
4.680280
 20
1.690040
  0
VERTEX
  8
0
  6
CONTINUOUS
 10
4.698760
 20
1.645160
  0
VERTEX
  8
0
  6
CONTINUOUS
 10
4.701400
 20
1.644280
  0
VERTEX
  8
0
  6
CONTINUOUS
 10
5.241720
 20
1.644280
  0
VERTEX
  8
0
  6
CONTINUOUS
 10
5.271640
 20
1.641200
  0
VERTEX
  8
0
  6
CONTINUOUS
 10
5.301120
 20
1.632400
  0
VERTEX
  8
0
  6
CONTINUOUS
 10
5.330160
 20
1.618320
  0
VERTEX
  8
0
  6
CONTINUOUS
 10
5.357000
 20
1.598960
  0
VERTEX
  8
0
  6
CONTINUOUS
 10
5.381200
 20
1.575640
  0
VERTEX
  8
0
  6
CONTINUOUS
 10
5.401440
 20
1.548360
  0
VERTEX
  8
0
  6
CONTINUOUS
 10
5.416400
 20
1.517560
  0
VERTEX
  8
0
  6
CONTINUOUS
 10
5.426080
 20
1.483680
  0
VERTEX
  8
0
  6
CONTINUOUS
 10
5.556760
 20
1.483680
  0
VERTEX
  8
0
  6
CONTINUOUS
 10
5.562920
 20
1.485880
  0
VERTEX
  8
0
  6
CONTINUOUS
 10
5.613520
 20
1.528560
  0
VERTEX
  8
0
  6
CONTINUOUS
 10
5.643440
 20
1.548360
  0
VERTEX
  8
0
  6
CONTINUOUS
 10
5.680840
 20
1.567280
  0
VERTEX
  8
0
  6
CONTINUOUS
 10
5.725280
 20
1.583560
  0
VERTEX
  8
0
  6
CONTINUOUS
 10
5.778080
 20
1.594560
  0
VERTEX
  8
0
  6
CONTINUOUS
 10
5.838800
 20
1.598960
  0
VERTEX
  8
0
  6
CONTINUOUS
 10
5.902600
 20
1.594560
  0
VERTEX
  8
0
  6
CONTINUOUS
 10
5.962880
 20
1.583560
  0
VERTEX
  8
0
  6
CONTINUOUS
 10
6.018320
 20
1.568160
  0
VERTEX
  8
0
  6
CONTINUOUS
 10
6.067160
 20
1.550120
  0
VERTEX
  8
0
  6
CONTINUOUS
 10
6.139320
 20
1.516680
  0
VERTEX
  8
0
  6
CONTINUOUS
 10
6.165720
 20
1.501280
  0
VERTEX
  8
0
  6
CONTINUOUS
 10
6.223800
 20
1.463000
  0
VERTEX
  8
0
  6
CONTINUOUS
 10
6.262960
 20
1.440560
  0
VERTEX
  8
0
  6
CONTINUOUS
 10
6.308280
 20
1.417240
  0
VERTEX
  8
0
  6
CONTINUOUS
 10
6.358000
 20
1.396560
  0
VERTEX
  8
0
  6
CONTINUOUS
 10
6.409480
 20
1.380280
  0
VERTEX
  8
0
  6
CONTINUOUS
 10
6.461400
 20
1.371480
  0
VERTEX
  8
0
  6
CONTINUOUS
 10
6.498360
 20
1.371480
  0
VERTEX
  8
0
  6
CONTINUOUS
 10
6.530040
 20
1.376760
  0
VERTEX
  8
0
  6
CONTINUOUS
 10
6.556880
 20
1.386880
  0
VERTEX
  8
0
  6
CONTINUOUS
 10
6.579760
 20
1.402280
  0
VERTEX
  8
0
  6
CONTINUOUS
 10
6.599560
 20
1.421640
  0
VERTEX
  8
0
  6
CONTINUOUS
 10
6.616720
 20
1.444960
  0
VERTEX
  8
0
  6
CONTINUOUS
 10
6.645320
 20
1.501280
  0
VERTEX
  8
0
  6
CONTINUOUS
 10
6.900520
 20
1.501280
  0
VERTEX
  8
0
  6
CONTINUOUS
 10
6.914600
 20
1.468720
  0
VERTEX
  8
0
  6
CONTINUOUS
 10
6.932640
 20
1.442760
  0
VERTEX
  8
0
  6
CONTINUOUS
 10
6.953760
 20
1.422080
  0
VERTEX
  8
0
  6
CONTINUOUS
 10
6.977960
 20
1.406680
  0
VERTEX
  8
0
  6
CONTINUOUS
 10
7.003920
 20
1.395680
  0
VERTEX
  8
0
  6
CONTINUOUS
 10
7.031640
 20
1.387760
  0
VERTEX
  8
0
  6
CONTINUOUS
 10
7.089720
 20
1.379840
  0
VERTEX
  8
0
  6
CONTINUOUS
 10
7.121840
 20
1.376760
  0
VERTEX
  8
0
  6
CONTINUOUS
 10
7.158360
 20
1.369720
  0
VERTEX
  8
0
  6
CONTINUOUS
 10
7.196640
 20
1.356080
  0
VERTEX
  8
0
  6
CONTINUOUS
 10
7.234040
 20
1.334080
  0
VERTEX
  8
0
  6
CONTINUOUS
 10
7.268800
 20
1.301080
  0
VERTEX
  8
0
  6
CONTINUOUS
 10
7.284200
 20
1.279520
  0
VERTEX
  8
0
  6
CONTINUOUS
 10
7.297840
 20
1.254000
  0
VERTEX
  8
0
  6
CONTINUOUS
 10
7.309720
 20
1.224960
  0
VERTEX
  8
0
  6
CONTINUOUS
 10
7.318960
 20
1.191080
  0
VERTEX
  8
0
  6
CONTINUOUS
 10
7.326000
 20
1.153240
  0
VERTEX
  8
0
  6
CONTINUOUS
 10
7.330400
 20
1.109680
  0
VERTEX
  8
0
  6
CONTINUOUS
 10
3.798080
 20
1.109680
  0
VERTEX
  8
0
  6
CONTINUOUS
 10
3.798080
 20
1.608640
  0
VERTEX
  8
0
  6
CONTINUOUS
 10
3.800720
 20
1.612160
  0
VERTEX
  8
0
  6
CONTINUOUS
 10
3.826680
 20
1.618760
  0
VERTEX
  8
0
  6
CONTINUOUS
 10
3.851320
 20
1.628880
  0
VERTEX
  8
0
  6
CONTINUOUS
 10
3.874200
 20
1.642960
  0
VERTEX
  8
0
  6
CONTINUOUS
 10
3.894440
 20
1.660120
  0
VERTEX
  8
0
  6
CONTINUOUS
 10
3.912040
 20
1.681680
  0
VERTEX
  8
0
  6
CONTINUOUS
 10
3.925680
 20
1.706760
  0
VERTEX
  8
0
  6
CONTINUOUS
 10
3.935800
 20
1.735800
  0
VERTEX
  8
0
  6
CONTINUOUS
 10
3.941960
 20
1.770120
  0
VERTEX
  8
0
  6
CONTINUOUS
 10
4.023800
 20
1.770120
  0
VERTEX
  8
0
  6
CONTINUOUS
 10
4.029960
 20
1.772760
  0
SEQEND
  8
0
  0
TEXT
  8
0
 10
5.266360
 20
0.876480
 40
0.138172
  1
BA  482
 41
1.000000
  7
SN0
 71
     0
 72
     5
 11
5.856249
 21
0.876480
  0
TEXT
  8
0
 10
5.018200
 20
0.685080
 40
0.138172
  1
13/16" x 3-1/2"
 41
1.000000
  7
SN0
 71
     0
 72
     5
 11
6.102904
 21
0.685080
  0
ENDSEC
  0
EOF
