  0
SECTION
  2
HEADER
  9
$ACADVER
  1
AC1006
  9
$EXTMIN
 10
3.688520
 20
0.416240
  9
$EXTMAX
 10
7.321160
 20
3.267440
  9
$LTSCALE
 40
0.044000
  9
$PDMODE
 70
    35
  9
$PDSIZE
 40
0.035200
  0
ENDSEC
  0
SECTION
  2
TABLES
  0
TABLE
  2
LTYPE
 70
     9
  0
LTYPE
  2
CONTINUOUS
 70
    64
  3
Solid line
 72
    65
 73
     0
 40
0.000000
  0
LTYPE
  2
DASHED
 70
    64
  3
__ __ __ __ __ __ __ __ __ __ __ __ __ __ __
 72
    65
 73
     2
 40
0.000330
 49
0.000220
 49
-0.000110
  0
LTYPE
  2
HIDDEN
 70
    64
  3
 _ _ _ _ _ _ _ _ _ _ _ _ _ _ _ _ _ _ _ _ _ _
 72
    65
 73
     2
 40
0.000165
 49
0.000110
 49
-0.000055
  0
LTYPE
  2
CENTER
 70
    64
  3
____ _ ____ _ ____ _ ____ _ ____ _ ____ _ ____
 72
    65
 73
     4
 40
0.000880
 49
0.000550
 49
-0.000110
 49
0.000110
 49
-0.000110
  0
LTYPE
  2
PHANTOM
 70
    64
  3
_____ _ _ _____ _ _ _____ _ _ _____ _ _ ____
 72
    65
 73
     6
 40
0.001100
 49
0.000550
 49
-0.000110
 49
0.000110
 49
-0.000110
 49
0.000110
 49
-0.000110
  0
LTYPE
  2
DOT
 70
    64
  3
...............................................
 72
    65
 73
     2
 40
0.000110
 49
0.000000
 49
-0.000110
  0
LTYPE
  2
DASHDOT
 70
    64
  3
__ . __ . __ . __ . __ . __ . __ . __ . __ . __
 72
    65
 73
     4
 40
0.000440
 49
0.000220
 49
-0.000110
 49
0.000000
 49
-0.000110
  0
LTYPE
  2
BORDER
 70
    64
  3
__ __ . __ __ . __ __ . __ __ . __ __ . __ __
 72
    65
 73
     6
 40
0.000770
 49
0.000220
 49
-0.000110
 49
0.000220
 49
-0.000110
 49
0.000000
 49
-0.000110
  0
LTYPE
  2
DIVIDE
 70
    64
  3
__ . . __ . . __ . . __ . . __ . . __ . . __
 72
    65
 73
     6
 40
0.000550
 49
0.000220
 49
-0.000110
 49
0.000000
 49
-0.000110
 49
0.000000
 49
-0.000110
  0
LTYPE
  2
DOTDOT
 70
    64
  3
 . .  . .  . .  . .  . .  . . 
 72
    65
 73
     5
 40
0.000242
 49
-0.000110
 49
0.000000
 49
-0.000110
 49
0.000000
 49
-0.000110
  0
ENDTAB
  0
TABLE
  2
STYLE
 70
     2
  0
STYLE
 70
     0
  2
SN0
 40
0.000000
 41
0.000440
 50
0.000000
 71
     0
 42
0.000000
  3
ROMAND
  0
STYLE
 70
    68
  2
SV0
 40
0.000000
 41
0.000440
 50
0.000000
 71
     0
 42
0.000000
  3
ROMAND
  0
ENDTAB
  0
TABLE
  2
LAYER
 70
     3
  0
LAYER
  2
FOREGROUND
 70
    64
 62
     7
  6
CONTINUOUS
  0
LAYER
  2
BACKGROUND
 70
    65
 62
    -7
  6
CONTINUOUS
  0
LAYER
  2
0
 70
    64
 62
     7
  6
CONTINUOUS
  0
ENDTAB
  0
ENDSEC
  0
SECTION
  2
ENTITIES
  0
POLYLINE
  8
FOREGROUND
  6
CONTINUOUS
 66
     1
 40
0.000000
 41
0.000000
  0
VERTEX
  8
FOREGROUND
  6
CONTINUOUS
 10
0.000000
 20
3.683680
  0
VERTEX
  8
FOREGROUND
  6
CONTINUOUS
 10
8.499920
 20
3.683680
  0
VERTEX
  8
FOREGROUND
  6
CONTINUOUS
 10
8.499920
 20
-7.316320
  0
VERTEX
  8
FOREGROUND
  6
CONTINUOUS
 10
0.000000
 20
-7.316320
  0
VERTEX
  8
FOREGROUND
  6
CONTINUOUS
 10
0.000000
 20
3.683680
  0
SEQEND
  8
0
  0
POLYLINE
  8
FOREGROUND
  6
CONTINUOUS
 66
     1
 40
0.000000
 41
0.000000
  0
VERTEX
  8
FOREGROUND
  6
CONTINUOUS
 10
0.000000
 20
3.683680
  0
VERTEX
  8
FOREGROUND
  6
CONTINUOUS
 10
8.499920
 20
3.683680
  0
VERTEX
  8
FOREGROUND
  6
CONTINUOUS
 10
8.499920
 20
-7.316320
  0
VERTEX
  8
FOREGROUND
  6
CONTINUOUS
 10
0.000000
 20
-7.316320
  0
VERTEX
  8
FOREGROUND
  6
CONTINUOUS
 10
0.000000
 20
3.683680
  0
SEQEND
  8
0
  0
POLYLINE
  8
0
  6
CONTINUOUS
 66
     1
 40
0.014080
 41
0.014080
  0
VERTEX
  8
0
  6
CONTINUOUS
 10
7.221720
 20
1.309880
  0
VERTEX
  8
0
  6
CONTINUOUS
 10
6.054400
 20
1.309880
  0
VERTEX
  8
0
  6
CONTINUOUS
 10
6.054400
 20
3.259960
  0
VERTEX
  8
0
  6
CONTINUOUS
 10
6.381760
 20
3.259960
  0
VERTEX
  8
0
  6
CONTINUOUS
 10
6.381760
 20
3.082640
  0
VERTEX
  8
0
  6
CONTINUOUS
 10
6.405520
 20
3.081760
  0
VERTEX
  8
0
  6
CONTINUOUS
 10
6.427960
 20
3.078680
  0
VERTEX
  8
0
  6
CONTINUOUS
 10
6.448640
 20
3.073840
  0
VERTEX
  8
0
  6
CONTINUOUS
 10
6.467560
 20
3.067680
  0
VERTEX
  8
0
  6
CONTINUOUS
 10
6.485600
 20
3.059760
  0
VERTEX
  8
0
  6
CONTINUOUS
 10
6.516400
 20
3.039520
  0
VERTEX
  8
0
  6
CONTINUOUS
 10
6.541040
 20
3.014880
  0
VERTEX
  8
0
  6
CONTINUOUS
 10
6.551160
 20
3.001240
  0
VERTEX
  8
0
  6
CONTINUOUS
 10
6.566560
 20
2.971320
  0
VERTEX
  8
0
  6
CONTINUOUS
 10
6.575800
 20
2.939640
  0
VERTEX
  8
0
  6
CONTINUOUS
 10
6.578880
 20
2.906640
  0
VERTEX
  8
0
  6
CONTINUOUS
 10
6.575800
 20
2.874080
  0
VERTEX
  8
0
  6
CONTINUOUS
 10
6.572280
 20
2.857800
  0
VERTEX
  8
0
  6
CONTINUOUS
 10
6.559520
 20
2.827000
  0
VERTEX
  8
0
  6
CONTINUOUS
 10
6.551160
 20
2.812480
  0
VERTEX
  8
0
  6
CONTINUOUS
 10
6.529600
 20
2.785640
  0
VERTEX
  8
0
  6
CONTINUOUS
 10
6.516400
 20
2.773760
  0
VERTEX
  8
0
  6
CONTINUOUS
 10
6.501880
 20
2.763200
  0
VERTEX
  8
0
  6
CONTINUOUS
 10
6.485600
 20
2.753960
  0
VERTEX
  8
0
  6
CONTINUOUS
 10
6.467560
 20
2.746040
  0
VERTEX
  8
0
  6
CONTINUOUS
 10
6.448200
 20
2.739440
  0
VERTEX
  8
0
  6
CONTINUOUS
 10
6.427080
 20
2.734600
  0
VERTEX
  8
0
  6
CONTINUOUS
 10
6.404640
 20
2.731520
  0
VERTEX
  8
0
  6
CONTINUOUS
 10
6.380440
 20
2.730640
  0
VERTEX
  8
0
  6
CONTINUOUS
 10
6.381320
 20
2.657600
  0
VERTEX
  8
0
  6
CONTINUOUS
 10
6.387480
 20
2.590720
  0
VERTEX
  8
0
  6
CONTINUOUS
 10
6.398480
 20
2.529120
  0
VERTEX
  8
0
  6
CONTINUOUS
 10
6.414320
 20
2.473240
  0
VERTEX
  8
0
  6
CONTINUOUS
 10
6.433680
 20
2.422200
  0
VERTEX
  8
0
  6
CONTINUOUS
 10
6.457000
 20
2.376440
  0
VERTEX
  8
0
  6
CONTINUOUS
 10
6.483840
 20
2.335080
  0
VERTEX
  8
0
  6
CONTINUOUS
 10
6.513760
 20
2.298120
  0
VERTEX
  8
0
  6
CONTINUOUS
 10
6.545880
 20
2.265560
  0
VERTEX
  8
0
  6
CONTINUOUS
 10
6.580640
 20
2.236520
  0
VERTEX
  8
0
  6
CONTINUOUS
 10
6.617160
 20
2.211000
  0
VERTEX
  8
0
  6
CONTINUOUS
 10
6.655440
 20
2.189000
  0
VERTEX
  8
0
  6
CONTINUOUS
 10
6.714840
 20
2.161720
  0
VERTEX
  8
0
  6
CONTINUOUS
 10
6.775560
 20
2.140600
  0
VERTEX
  8
0
  6
CONTINUOUS
 10
6.816040
 20
2.129160
  0
VERTEX
  8
0
  6
CONTINUOUS
 10
6.823960
 20
1.947000
  0
VERTEX
  8
0
  6
CONTINUOUS
 10
6.888640
 20
1.925880
  0
VERTEX
  8
0
  6
CONTINUOUS
 10
6.948920
 20
1.902120
  0
VERTEX
  8
0
  6
CONTINUOUS
 10
7.021520
 20
1.866040
  0
VERTEX
  8
0
  6
CONTINUOUS
 10
7.054960
 20
1.847120
  0
VERTEX
  8
0
  6
CONTINUOUS
 10
7.115240
 20
1.806200
  0
VERTEX
  8
0
  6
CONTINUOUS
 10
7.167600
 20
1.762640
  0
VERTEX
  8
0
  6
CONTINUOUS
 10
7.211600
 20
1.716880
  0
VERTEX
  8
0
  6
CONTINUOUS
 10
7.247680
 20
1.670240
  0
VERTEX
  8
0
  6
CONTINUOUS
 10
7.275840
 20
1.623160
  0
VERTEX
  8
0
  6
CONTINUOUS
 10
7.287280
 20
1.599840
  0
VERTEX
  8
0
  6
CONTINUOUS
 10
7.296520
 20
1.576080
  0
VERTEX
  8
0
  6
CONTINUOUS
 10
7.303560
 20
1.553200
  0
VERTEX
  8
0
  6
CONTINUOUS
 10
7.308840
 20
1.530320
  0
VERTEX
  8
0
  6
CONTINUOUS
 10
7.312360
 20
1.507880
  0
VERTEX
  8
0
  6
CONTINUOUS
 10
7.314120
 20
1.485880
  0
VERTEX
  8
0
  6
CONTINUOUS
 10
7.313680
 20
1.464760
  0
VERTEX
  8
0
  6
CONTINUOUS
 10
7.311480
 20
1.444080
  0
VERTEX
  8
0
  6
CONTINUOUS
 10
7.307520
 20
1.424280
  0
VERTEX
  8
0
  6
CONTINUOUS
 10
7.301800
 20
1.404920
  0
VERTEX
  8
0
  6
CONTINUOUS
 10
7.284640
 20
1.369720
  0
VERTEX
  8
0
  6
CONTINUOUS
 10
7.273200
 20
1.353880
  0
VERTEX
  8
0
  6
CONTINUOUS
 10
7.260000
 20
1.339360
  0
VERTEX
  8
0
  6
CONTINUOUS
 10
7.245040
 20
1.325720
  0
VERTEX
  8
0
  6
CONTINUOUS
 10
7.221720
 20
1.310320
  0
SEQEND
  8
0
  0
SOLID
  8
0
 62
    15
 10
4.148320
 20
1.887600
 11
4.787640
 21
2.255440
 12
4.215640
 22
1.825560
 13
4.854960
 23
2.193840
  0
POLYLINE
  8
0
  6
CONTINUOUS
 66
     1
 40
0.000000
 41
0.000000
  0
VERTEX
  8
0
  6
CONTINUOUS
 10
4.148320
 20
1.887600
  0
VERTEX
  8
0
  6
CONTINUOUS
 10
4.787640
 20
2.255440
  0
VERTEX
  8
0
  6
CONTINUOUS
 10
4.854960
 20
2.193840
  0
VERTEX
  8
0
  6
CONTINUOUS
 10
4.215640
 20
1.825560
  0
VERTEX
  8
0
  6
CONTINUOUS
 10
4.148320
 20
1.887600
  0
SEQEND
  8
0
  0
SOLID
  8
0
 62
    15
 10
4.016760
 20
2.849000
 11
4.656080
 21
3.217280
 12
4.016760
 22
2.671680
 13
4.656080
 23
3.039960
  0
POLYLINE
  8
0
  6
CONTINUOUS
 66
     1
 40
0.000000
 41
0.000000
  0
VERTEX
  8
0
  6
CONTINUOUS
 10
4.016760
 20
2.849000
  0
VERTEX
  8
0
  6
CONTINUOUS
 10
4.656080
 20
3.217280
  0
VERTEX
  8
0
  6
CONTINUOUS
 10
4.656080
 20
3.039960
  0
VERTEX
  8
0
  6
CONTINUOUS
 10
4.016760
 20
2.671680
  0
VERTEX
  8
0
  6
CONTINUOUS
 10
4.016760
 20
2.849000
  0
SEQEND
  8
0
  0
SOLID
  8
0
 62
    15
 10
4.016760
 20
2.671680
 11
4.656080
 21
3.039960
 12
4.062520
 22
2.667720
 13
4.701840
 23
3.036000
  0
POLYLINE
  8
0
  6
CONTINUOUS
 66
     1
 40
0.000000
 41
0.000000
  0
VERTEX
  8
0
  6
CONTINUOUS
 10
4.016760
 20
2.671680
  0
VERTEX
  8
0
  6
CONTINUOUS
 10
4.656080
 20
3.039960
  0
VERTEX
  8
0
  6
CONTINUOUS
 10
4.701840
 20
3.036000
  0
VERTEX
  8
0
  6
CONTINUOUS
 10
4.062520
 20
2.667720
  0
VERTEX
  8
0
  6
CONTINUOUS
 10
4.016760
 20
2.671680
  0
SEQEND
  8
0
  0
SOLID
  8
0
 62
    15
 10
4.062520
 20
2.667720
 11
4.701840
 21
3.036000
 12
4.102560
 22
2.656720
 13
4.741880
 23
3.024560
  0
POLYLINE
  8
0
  6
CONTINUOUS
 66
     1
 40
0.000000
 41
0.000000
  0
VERTEX
  8
0
  6
CONTINUOUS
 10
4.062520
 20
2.667720
  0
VERTEX
  8
0
  6
CONTINUOUS
 10
4.701840
 20
3.036000
  0
VERTEX
  8
0
  6
CONTINUOUS
 10
4.741880
 20
3.024560
  0
VERTEX
  8
0
  6
CONTINUOUS
 10
4.102560
 20
2.656720
  0
VERTEX
  8
0
  6
CONTINUOUS
 10
4.062520
 20
2.667720
  0
SEQEND
  8
0
  0
SOLID
  8
0
 62
    15
 10
4.102560
 20
2.656720
 11
4.741880
 21
3.024560
 12
4.136440
 22
2.639560
 13
4.775760
 23
3.007400
  0
POLYLINE
  8
0
  6
CONTINUOUS
 66
     1
 40
0.000000
 41
0.000000
  0
VERTEX
  8
0
  6
CONTINUOUS
 10
4.102560
 20
2.656720
  0
VERTEX
  8
0
  6
CONTINUOUS
 10
4.741880
 20
3.024560
  0
VERTEX
  8
0
  6
CONTINUOUS
 10
4.775760
 20
3.007400
  0
VERTEX
  8
0
  6
CONTINUOUS
 10
4.136440
 20
2.639560
  0
VERTEX
  8
0
  6
CONTINUOUS
 10
4.102560
 20
2.656720
  0
SEQEND
  8
0
  0
SOLID
  8
0
 62
    15
 10
4.136440
 20
2.639560
 11
4.775760
 21
3.007400
 12
4.164160
 22
2.616680
 13
4.803480
 23
2.984960
  0
POLYLINE
  8
0
  6
CONTINUOUS
 66
     1
 40
0.000000
 41
0.000000
  0
VERTEX
  8
0
  6
CONTINUOUS
 10
4.136440
 20
2.639560
  0
VERTEX
  8
0
  6
CONTINUOUS
 10
4.775760
 20
3.007400
  0
VERTEX
  8
0
  6
CONTINUOUS
 10
4.803480
 20
2.984960
  0
VERTEX
  8
0
  6
CONTINUOUS
 10
4.164160
 20
2.616680
  0
VERTEX
  8
0
  6
CONTINUOUS
 10
4.136440
 20
2.639560
  0
SEQEND
  8
0
  0
SOLID
  8
0
 62
    15
 10
4.164160
 20
2.616680
 11
4.803480
 21
2.984960
 12
4.185720
 22
2.590280
 13
4.825040
 23
2.958120
  0
POLYLINE
  8
0
  6
CONTINUOUS
 66
     1
 40
0.000000
 41
0.000000
  0
VERTEX
  8
0
  6
CONTINUOUS
 10
4.164160
 20
2.616680
  0
VERTEX
  8
0
  6
CONTINUOUS
 10
4.803480
 20
2.984960
  0
VERTEX
  8
0
  6
CONTINUOUS
 10
4.825040
 20
2.958120
  0
VERTEX
  8
0
  6
CONTINUOUS
 10
4.185720
 20
2.590280
  0
VERTEX
  8
0
  6
CONTINUOUS
 10
4.164160
 20
2.616680
  0
SEQEND
  8
0
  0
SOLID
  8
0
 62
    15
 10
4.185720
 20
2.590280
 11
4.825040
 21
2.958120
 12
4.201120
 22
2.560360
 13
4.840440
 23
2.928640
  0
POLYLINE
  8
0
  6
CONTINUOUS
 66
     1
 40
0.000000
 41
0.000000
  0
VERTEX
  8
0
  6
CONTINUOUS
 10
4.185720
 20
2.590280
  0
VERTEX
  8
0
  6
CONTINUOUS
 10
4.825040
 20
2.958120
  0
VERTEX
  8
0
  6
CONTINUOUS
 10
4.840440
 20
2.928640
  0
VERTEX
  8
0
  6
CONTINUOUS
 10
4.201120
 20
2.560360
  0
VERTEX
  8
0
  6
CONTINUOUS
 10
4.185720
 20
2.590280
  0
SEQEND
  8
0
  0
SOLID
  8
0
 62
    15
 10
4.201120
 20
2.560360
 11
4.840440
 21
2.928640
 12
4.210360
 22
2.528680
 13
4.849680
 23
2.896960
  0
POLYLINE
  8
0
  6
CONTINUOUS
 66
     1
 40
0.000000
 41
0.000000
  0
VERTEX
  8
0
  6
CONTINUOUS
 10
4.201120
 20
2.560360
  0
VERTEX
  8
0
  6
CONTINUOUS
 10
4.840440
 20
2.928640
  0
VERTEX
  8
0
  6
CONTINUOUS
 10
4.849680
 20
2.896960
  0
VERTEX
  8
0
  6
CONTINUOUS
 10
4.210360
 20
2.528680
  0
VERTEX
  8
0
  6
CONTINUOUS
 10
4.201120
 20
2.560360
  0
SEQEND
  8
0
  0
SOLID
  8
0
 62
    15
 10
4.210360
 20
2.528680
 11
4.849680
 21
2.896960
 12
4.213440
 22
2.496120
 13
4.852760
 23
2.863960
  0
POLYLINE
  8
0
  6
CONTINUOUS
 66
     1
 40
0.000000
 41
0.000000
  0
VERTEX
  8
0
  6
CONTINUOUS
 10
4.210360
 20
2.528680
  0
VERTEX
  8
0
  6
CONTINUOUS
 10
4.849680
 20
2.896960
  0
VERTEX
  8
0
  6
CONTINUOUS
 10
4.852760
 20
2.863960
  0
VERTEX
  8
0
  6
CONTINUOUS
 10
4.213440
 20
2.496120
  0
VERTEX
  8
0
  6
CONTINUOUS
 10
4.210360
 20
2.528680
  0
SEQEND
  8
0
  0
SOLID
  8
0
 62
    15
 10
4.213440
 20
2.496120
 11
4.852760
 21
2.863960
 12
4.210360
 22
2.463120
 13
4.849680
 23
2.831400
  0
POLYLINE
  8
0
  6
CONTINUOUS
 66
     1
 40
0.000000
 41
0.000000
  0
VERTEX
  8
0
  6
CONTINUOUS
 10
4.213440
 20
2.496120
  0
VERTEX
  8
0
  6
CONTINUOUS
 10
4.852760
 20
2.863960
  0
VERTEX
  8
0
  6
CONTINUOUS
 10
4.849680
 20
2.831400
  0
VERTEX
  8
0
  6
CONTINUOUS
 10
4.210360
 20
2.463120
  0
VERTEX
  8
0
  6
CONTINUOUS
 10
4.213440
 20
2.496120
  0
SEQEND
  8
0
  0
SOLID
  8
0
 62
    15
 10
4.210360
 20
2.463120
 11
4.849680
 21
2.831400
 12
4.201120
 22
2.431440
 13
4.840880
 23
2.799280
  0
POLYLINE
  8
0
  6
CONTINUOUS
 66
     1
 40
0.000000
 41
0.000000
  0
VERTEX
  8
0
  6
CONTINUOUS
 10
4.210360
 20
2.463120
  0
VERTEX
  8
0
  6
CONTINUOUS
 10
4.849680
 20
2.831400
  0
VERTEX
  8
0
  6
CONTINUOUS
 10
4.840880
 20
2.799280
  0
VERTEX
  8
0
  6
CONTINUOUS
 10
4.201120
 20
2.431440
  0
VERTEX
  8
0
  6
CONTINUOUS
 10
4.210360
 20
2.463120
  0
SEQEND
  8
0
  0
SOLID
  8
0
 62
    15
 10
4.015000
 20
2.319680
 11
4.654320
 21
2.687960
 12
4.015880
 22
2.247080
 13
4.655200
 23
2.614920
  0
POLYLINE
  8
0
  6
CONTINUOUS
 66
     1
 40
0.000000
 41
0.000000
  0
VERTEX
  8
0
  6
CONTINUOUS
 10
4.015000
 20
2.319680
  0
VERTEX
  8
0
  6
CONTINUOUS
 10
4.654320
 20
2.687960
  0
VERTEX
  8
0
  6
CONTINUOUS
 10
4.655200
 20
2.614920
  0
VERTEX
  8
0
  6
CONTINUOUS
 10
4.015880
 20
2.247080
  0
VERTEX
  8
0
  6
CONTINUOUS
 10
4.015000
 20
2.319680
  0
SEQEND
  8
0
  0
SOLID
  8
0
 62
    15
 10
4.185720
 20
2.401520
 11
4.825040
 21
2.769800
 12
4.164160
 22
2.375120
 13
4.803480
 23
2.742960
  0
POLYLINE
  8
0
  6
CONTINUOUS
 66
     1
 40
0.000000
 41
0.000000
  0
VERTEX
  8
0
  6
CONTINUOUS
 10
4.185720
 20
2.401520
  0
VERTEX
  8
0
  6
CONTINUOUS
 10
4.825040
 20
2.769800
  0
VERTEX
  8
0
  6
CONTINUOUS
 10
4.803480
 20
2.742960
  0
VERTEX
  8
0
  6
CONTINUOUS
 10
4.164160
 20
2.375120
  0
VERTEX
  8
0
  6
CONTINUOUS
 10
4.185720
 20
2.401520
  0
SEQEND
  8
0
  0
SOLID
  8
0
 62
    15
 10
4.164160
 20
2.375120
 11
4.803480
 21
2.742960
 12
4.136440
 22
2.352240
 13
4.775760
 23
2.720520
  0
POLYLINE
  8
0
  6
CONTINUOUS
 66
     1
 40
0.000000
 41
0.000000
  0
VERTEX
  8
0
  6
CONTINUOUS
 10
4.164160
 20
2.375120
  0
VERTEX
  8
0
  6
CONTINUOUS
 10
4.803480
 20
2.742960
  0
VERTEX
  8
0
  6
CONTINUOUS
 10
4.775760
 20
2.720520
  0
VERTEX
  8
0
  6
CONTINUOUS
 10
4.136440
 20
2.352240
  0
VERTEX
  8
0
  6
CONTINUOUS
 10
4.164160
 20
2.375120
  0
SEQEND
  8
0
  0
SOLID
  8
0
 62
    15
 10
4.201120
 20
2.431440
 11
4.840880
 21
2.799280
 12
4.185720
 22
2.401520
 13
4.825040
 23
2.769800
  0
POLYLINE
  8
0
  6
CONTINUOUS
 66
     1
 40
0.000000
 41
0.000000
  0
VERTEX
  8
0
  6
CONTINUOUS
 10
4.201120
 20
2.431440
  0
VERTEX
  8
0
  6
CONTINUOUS
 10
4.840880
 20
2.799280
  0
VERTEX
  8
0
  6
CONTINUOUS
 10
4.825040
 20
2.769800
  0
VERTEX
  8
0
  6
CONTINUOUS
 10
4.185720
 20
2.401520
  0
VERTEX
  8
0
  6
CONTINUOUS
 10
4.201120
 20
2.431440
  0
SEQEND
  8
0
  0
SOLID
  8
0
 62
    15
 10
4.015880
 20
2.247080
 11
4.655200
 21
2.614920
 12
4.022480
 22
2.179760
 13
4.661800
 23
2.548040
  0
POLYLINE
  8
0
  6
CONTINUOUS
 66
     1
 40
0.000000
 41
0.000000
  0
VERTEX
  8
0
  6
CONTINUOUS
 10
4.015880
 20
2.247080
  0
VERTEX
  8
0
  6
CONTINUOUS
 10
4.655200
 20
2.614920
  0
VERTEX
  8
0
  6
CONTINUOUS
 10
4.661800
 20
2.548040
  0
VERTEX
  8
0
  6
CONTINUOUS
 10
4.022480
 20
2.179760
  0
VERTEX
  8
0
  6
CONTINUOUS
 10
4.015880
 20
2.247080
  0
SEQEND
  8
0
  0
SOLID
  8
0
 62
    15
 10
4.022480
 20
2.179760
 11
4.661800
 21
2.548040
 12
4.033480
 22
2.118600
 13
4.672800
 23
2.486440
  0
POLYLINE
  8
0
  6
CONTINUOUS
 66
     1
 40
0.000000
 41
0.000000
  0
VERTEX
  8
0
  6
CONTINUOUS
 10
4.022480
 20
2.179760
  0
VERTEX
  8
0
  6
CONTINUOUS
 10
4.661800
 20
2.548040
  0
VERTEX
  8
0
  6
CONTINUOUS
 10
4.672800
 20
2.486440
  0
VERTEX
  8
0
  6
CONTINUOUS
 10
4.033480
 20
2.118600
  0
VERTEX
  8
0
  6
CONTINUOUS
 10
4.022480
 20
2.179760
  0
SEQEND
  8
0
  0
SOLID
  8
0
 62
    15
 10
4.033480
 20
2.118600
 11
4.672800
 21
2.486440
 12
4.048880
 22
2.062280
 13
4.688200
 23
2.430560
  0
POLYLINE
  8
0
  6
CONTINUOUS
 66
     1
 40
0.000000
 41
0.000000
  0
VERTEX
  8
0
  6
CONTINUOUS
 10
4.033480
 20
2.118600
  0
VERTEX
  8
0
  6
CONTINUOUS
 10
4.672800
 20
2.486440
  0
VERTEX
  8
0
  6
CONTINUOUS
 10
4.688200
 20
2.430560
  0
VERTEX
  8
0
  6
CONTINUOUS
 10
4.048880
 20
2.062280
  0
VERTEX
  8
0
  6
CONTINUOUS
 10
4.033480
 20
2.118600
  0
SEQEND
  8
0
  0
SOLID
  8
0
 62
    15
 10
4.048880
 20
2.062280
 11
4.688200
 21
2.430560
 12
4.068680
 22
2.011680
 13
4.708000
 23
2.379520
  0
POLYLINE
  8
0
  6
CONTINUOUS
 66
     1
 40
0.000000
 41
0.000000
  0
VERTEX
  8
0
  6
CONTINUOUS
 10
4.048880
 20
2.062280
  0
VERTEX
  8
0
  6
CONTINUOUS
 10
4.688200
 20
2.430560
  0
VERTEX
  8
0
  6
CONTINUOUS
 10
4.708000
 20
2.379520
  0
VERTEX
  8
0
  6
CONTINUOUS
 10
4.068680
 20
2.011680
  0
VERTEX
  8
0
  6
CONTINUOUS
 10
4.048880
 20
2.062280
  0
SEQEND
  8
0
  0
SOLID
  8
0
 62
    15
 10
4.068680
 20
2.011680
 11
4.708000
 21
2.379520
 12
4.092000
 22
1.965480
 13
4.731320
 23
2.333760
  0
POLYLINE
  8
0
  6
CONTINUOUS
 66
     1
 40
0.000000
 41
0.000000
  0
VERTEX
  8
0
  6
CONTINUOUS
 10
4.068680
 20
2.011680
  0
VERTEX
  8
0
  6
CONTINUOUS
 10
4.708000
 20
2.379520
  0
VERTEX
  8
0
  6
CONTINUOUS
 10
4.731320
 20
2.333760
  0
VERTEX
  8
0
  6
CONTINUOUS
 10
4.092000
 20
1.965480
  0
VERTEX
  8
0
  6
CONTINUOUS
 10
4.068680
 20
2.011680
  0
SEQEND
  8
0
  0
SOLID
  8
0
 62
    15
 10
4.092000
 20
1.965480
 11
4.731320
 21
2.333760
 12
4.148320
 22
1.887600
 13
4.787640
 23
2.255440
  0
POLYLINE
  8
0
  6
CONTINUOUS
 66
     1
 40
0.000000
 41
0.000000
  0
VERTEX
  8
0
  6
CONTINUOUS
 10
4.092000
 20
1.965480
  0
VERTEX
  8
0
  6
CONTINUOUS
 10
4.731320
 20
2.333760
  0
VERTEX
  8
0
  6
CONTINUOUS
 10
4.787640
 20
2.255440
  0
VERTEX
  8
0
  6
CONTINUOUS
 10
4.148320
 20
1.887600
  0
VERTEX
  8
0
  6
CONTINUOUS
 10
4.092000
 20
1.965480
  0
SEQEND
  8
0
  0
SOLID
  8
0
 62
    15
 10
3.688960
 20
2.849000
 11
4.328280
 21
3.217280
 12
4.016760
 22
2.849000
 13
4.656080
 23
3.217280
  0
POLYLINE
  8
0
  6
CONTINUOUS
 66
     1
 40
0.000000
 41
0.000000
  0
VERTEX
  8
0
  6
CONTINUOUS
 10
3.688960
 20
2.849000
  0
VERTEX
  8
0
  6
CONTINUOUS
 10
4.328280
 20
3.217280
  0
VERTEX
  8
0
  6
CONTINUOUS
 10
4.656080
 20
3.217280
  0
VERTEX
  8
0
  6
CONTINUOUS
 10
4.016760
 20
2.849000
  0
VERTEX
  8
0
  6
CONTINUOUS
 10
3.688960
 20
2.849000
  0
SEQEND
  8
0
  0
SOLID
  8
0
 62
    15
 10
4.215640
 20
1.825560
 11
4.854960
 21
2.193840
 12
4.290000
 22
1.778480
 13
4.929320
 23
2.146320
  0
POLYLINE
  8
0
  6
CONTINUOUS
 66
     1
 40
0.000000
 41
0.000000
  0
VERTEX
  8
0
  6
CONTINUOUS
 10
4.215640
 20
1.825560
  0
VERTEX
  8
0
  6
CONTINUOUS
 10
4.854960
 20
2.193840
  0
VERTEX
  8
0
  6
CONTINUOUS
 10
4.929320
 20
2.146320
  0
VERTEX
  8
0
  6
CONTINUOUS
 10
4.290000
 20
1.778480
  0
VERTEX
  8
0
  6
CONTINUOUS
 10
4.215640
 20
1.825560
  0
SEQEND
  8
0
  0
SOLID
  8
0
 62
    15
 10
4.290000
 20
1.778480
 11
4.929320
 21
2.146320
 12
4.369640
 22
1.743280
 13
5.008960
 23
2.111560
  0
POLYLINE
  8
0
  6
CONTINUOUS
 66
     1
 40
0.000000
 41
0.000000
  0
VERTEX
  8
0
  6
CONTINUOUS
 10
4.290000
 20
1.778480
  0
VERTEX
  8
0
  6
CONTINUOUS
 10
4.929320
 20
2.146320
  0
VERTEX
  8
0
  6
CONTINUOUS
 10
5.008960
 20
2.111560
  0
VERTEX
  8
0
  6
CONTINUOUS
 10
4.369640
 20
1.743280
  0
VERTEX
  8
0
  6
CONTINUOUS
 10
4.290000
 20
1.778480
  0
SEQEND
  8
0
  0
SOLID
  8
0
 62
    15
 10
4.369640
 20
1.743280
 11
5.008960
 21
2.111560
 12
4.450600
 22
1.718640
 13
5.089920
 23
2.086480
  0
POLYLINE
  8
0
  6
CONTINUOUS
 66
     1
 40
0.000000
 41
0.000000
  0
VERTEX
  8
0
  6
CONTINUOUS
 10
4.369640
 20
1.743280
  0
VERTEX
  8
0
  6
CONTINUOUS
 10
5.008960
 20
2.111560
  0
VERTEX
  8
0
  6
CONTINUOUS
 10
5.089920
 20
2.086480
  0
VERTEX
  8
0
  6
CONTINUOUS
 10
4.450600
 20
1.718640
  0
VERTEX
  8
0
  6
CONTINUOUS
 10
4.369640
 20
1.743280
  0
SEQEND
  8
0
  0
SOLID
  8
0
 62
    15
 10
4.450600
 20
1.718640
 11
5.089920
 21
2.086480
 12
4.458960
 22
1.536480
 13
5.098280
 23
1.904320
  0
POLYLINE
  8
0
  6
CONTINUOUS
 66
     1
 40
0.000000
 41
0.000000
  0
VERTEX
  8
0
  6
CONTINUOUS
 10
4.450600
 20
1.718640
  0
VERTEX
  8
0
  6
CONTINUOUS
 10
5.089920
 20
2.086480
  0
VERTEX
  8
0
  6
CONTINUOUS
 10
5.098280
 20
1.904320
  0
VERTEX
  8
0
  6
CONTINUOUS
 10
4.458960
 20
1.536480
  0
VERTEX
  8
0
  6
CONTINUOUS
 10
4.450600
 20
1.718640
  0
SEQEND
  8
0
  0
SOLID
  8
0
 62
    15
 10
4.458960
 20
1.536480
 11
5.098280
 21
1.904320
 12
4.544320
 22
1.507440
 13
5.183640
 23
1.875720
  0
POLYLINE
  8
0
  6
CONTINUOUS
 66
     1
 40
0.000000
 41
0.000000
  0
VERTEX
  8
0
  6
CONTINUOUS
 10
4.458960
 20
1.536480
  0
VERTEX
  8
0
  6
CONTINUOUS
 10
5.098280
 20
1.904320
  0
VERTEX
  8
0
  6
CONTINUOUS
 10
5.183640
 20
1.875720
  0
VERTEX
  8
0
  6
CONTINUOUS
 10
4.544320
 20
1.507440
  0
VERTEX
  8
0
  6
CONTINUOUS
 10
4.458960
 20
1.536480
  0
SEQEND
  8
0
  0
SOLID
  8
0
 62
    15
 10
4.544320
 20
1.507440
 11
5.183640
 21
1.875720
 12
4.620880
 22
1.474000
 13
5.260200
 23
1.841840
  0
POLYLINE
  8
0
  6
CONTINUOUS
 66
     1
 40
0.000000
 41
0.000000
  0
VERTEX
  8
0
  6
CONTINUOUS
 10
4.544320
 20
1.507440
  0
VERTEX
  8
0
  6
CONTINUOUS
 10
5.183640
 20
1.875720
  0
VERTEX
  8
0
  6
CONTINUOUS
 10
5.260200
 20
1.841840
  0
VERTEX
  8
0
  6
CONTINUOUS
 10
4.620880
 20
1.474000
  0
VERTEX
  8
0
  6
CONTINUOUS
 10
4.544320
 20
1.507440
  0
SEQEND
  8
0
  0
SOLID
  8
0
 62
    15
 10
4.620880
 20
1.474000
 11
5.260200
 21
1.841840
 12
4.689520
 22
1.436160
 13
5.328840
 23
1.804440
  0
POLYLINE
  8
0
  6
CONTINUOUS
 66
     1
 40
0.000000
 41
0.000000
  0
VERTEX
  8
0
  6
CONTINUOUS
 10
4.620880
 20
1.474000
  0
VERTEX
  8
0
  6
CONTINUOUS
 10
5.260200
 20
1.841840
  0
VERTEX
  8
0
  6
CONTINUOUS
 10
5.328840
 20
1.804440
  0
VERTEX
  8
0
  6
CONTINUOUS
 10
4.689520
 20
1.436160
  0
VERTEX
  8
0
  6
CONTINUOUS
 10
4.620880
 20
1.474000
  0
SEQEND
  8
0
  0
SOLID
  8
0
 62
    15
 10
4.689520
 20
1.436160
 11
5.328840
 21
1.804440
 12
4.749800
 22
1.395240
 13
5.389120
 23
1.763520
  0
POLYLINE
  8
0
  6
CONTINUOUS
 66
     1
 40
0.000000
 41
0.000000
  0
VERTEX
  8
0
  6
CONTINUOUS
 10
4.689520
 20
1.436160
  0
VERTEX
  8
0
  6
CONTINUOUS
 10
5.328840
 20
1.804440
  0
VERTEX
  8
0
  6
CONTINUOUS
 10
5.389120
 20
1.763520
  0
VERTEX
  8
0
  6
CONTINUOUS
 10
4.749800
 20
1.395240
  0
VERTEX
  8
0
  6
CONTINUOUS
 10
4.689520
 20
1.436160
  0
SEQEND
  8
0
  0
SOLID
  8
0
 62
    15
 10
4.749800
 20
1.395240
 11
5.389120
 21
1.763520
 12
4.802160
 22
1.351680
 13
5.441480
 23
1.719960
  0
POLYLINE
  8
0
  6
CONTINUOUS
 66
     1
 40
0.000000
 41
0.000000
  0
VERTEX
  8
0
  6
CONTINUOUS
 10
4.749800
 20
1.395240
  0
VERTEX
  8
0
  6
CONTINUOUS
 10
5.389120
 20
1.763520
  0
VERTEX
  8
0
  6
CONTINUOUS
 10
5.441480
 20
1.719960
  0
VERTEX
  8
0
  6
CONTINUOUS
 10
4.802160
 20
1.351680
  0
VERTEX
  8
0
  6
CONTINUOUS
 10
4.749800
 20
1.395240
  0
SEQEND
  8
0
  0
SOLID
  8
0
 62
    15
 10
4.802160
 20
1.351680
 11
5.441480
 21
1.719960
 12
4.846160
 22
1.306360
 13
5.485480
 23
1.674200
  0
POLYLINE
  8
0
  6
CONTINUOUS
 66
     1
 40
0.000000
 41
0.000000
  0
VERTEX
  8
0
  6
CONTINUOUS
 10
4.802160
 20
1.351680
  0
VERTEX
  8
0
  6
CONTINUOUS
 10
5.441480
 20
1.719960
  0
VERTEX
  8
0
  6
CONTINUOUS
 10
5.485480
 20
1.674200
  0
VERTEX
  8
0
  6
CONTINUOUS
 10
4.846160
 20
1.306360
  0
VERTEX
  8
0
  6
CONTINUOUS
 10
4.802160
 20
1.351680
  0
SEQEND
  8
0
  0
SOLID
  8
0
 62
    15
 10
4.846160
 20
1.306360
 11
5.485480
 21
1.674200
 12
4.882240
 22
1.259720
 13
5.521560
 23
1.627560
  0
POLYLINE
  8
0
  6
CONTINUOUS
 66
     1
 40
0.000000
 41
0.000000
  0
VERTEX
  8
0
  6
CONTINUOUS
 10
4.846160
 20
1.306360
  0
VERTEX
  8
0
  6
CONTINUOUS
 10
5.485480
 20
1.674200
  0
VERTEX
  8
0
  6
CONTINUOUS
 10
5.521560
 20
1.627560
  0
VERTEX
  8
0
  6
CONTINUOUS
 10
4.882240
 20
1.259720
  0
VERTEX
  8
0
  6
CONTINUOUS
 10
4.846160
 20
1.306360
  0
SEQEND
  8
0
  0
SOLID
  8
0
 62
    15
 10
4.882240
 20
1.259720
 11
5.521560
 21
1.627560
 12
4.910400
 22
1.212640
 13
5.549720
 23
1.580480
  0
POLYLINE
  8
0
  6
CONTINUOUS
 66
     1
 40
0.000000
 41
0.000000
  0
VERTEX
  8
0
  6
CONTINUOUS
 10
4.882240
 20
1.259720
  0
VERTEX
  8
0
  6
CONTINUOUS
 10
5.521560
 20
1.627560
  0
VERTEX
  8
0
  6
CONTINUOUS
 10
5.549720
 20
1.580480
  0
VERTEX
  8
0
  6
CONTINUOUS
 10
4.910400
 20
1.212640
  0
VERTEX
  8
0
  6
CONTINUOUS
 10
4.882240
 20
1.259720
  0
SEQEND
  8
0
  0
SOLID
  8
0
 62
    15
 10
4.910400
 20
1.212640
 11
5.549720
 21
1.580480
 12
4.931080
 22
1.165560
 13
5.570400
 23
1.533840
  0
POLYLINE
  8
0
  6
CONTINUOUS
 66
     1
 40
0.000000
 41
0.000000
  0
VERTEX
  8
0
  6
CONTINUOUS
 10
4.910400
 20
1.212640
  0
VERTEX
  8
0
  6
CONTINUOUS
 10
5.549720
 20
1.580480
  0
VERTEX
  8
0
  6
CONTINUOUS
 10
5.570400
 20
1.533840
  0
VERTEX
  8
0
  6
CONTINUOUS
 10
4.931080
 20
1.165560
  0
VERTEX
  8
0
  6
CONTINUOUS
 10
4.910400
 20
1.212640
  0
SEQEND
  8
0
  0
SOLID
  8
0
 62
    15
 10
4.931080
 20
1.165560
 11
5.570400
 21
1.533840
 12
4.943840
 22
1.119800
 13
5.583160
 23
1.487640
  0
POLYLINE
  8
0
  6
CONTINUOUS
 66
     1
 40
0.000000
 41
0.000000
  0
VERTEX
  8
0
  6
CONTINUOUS
 10
4.931080
 20
1.165560
  0
VERTEX
  8
0
  6
CONTINUOUS
 10
5.570400
 20
1.533840
  0
VERTEX
  8
0
  6
CONTINUOUS
 10
5.583160
 20
1.487640
  0
VERTEX
  8
0
  6
CONTINUOUS
 10
4.943840
 20
1.119800
  0
VERTEX
  8
0
  6
CONTINUOUS
 10
4.931080
 20
1.165560
  0
SEQEND
  8
0
  0
SOLID
  8
0
 62
    15
 10
4.943840
 20
1.119800
 11
5.583160
 21
1.487640
 12
4.948680
 22
1.075360
 13
5.588000
 23
1.443200
  0
POLYLINE
  8
0
  6
CONTINUOUS
 66
     1
 40
0.000000
 41
0.000000
  0
VERTEX
  8
0
  6
CONTINUOUS
 10
4.943840
 20
1.119800
  0
VERTEX
  8
0
  6
CONTINUOUS
 10
5.583160
 20
1.487640
  0
VERTEX
  8
0
  6
CONTINUOUS
 10
5.588000
 20
1.443200
  0
VERTEX
  8
0
  6
CONTINUOUS
 10
4.948680
 20
1.075360
  0
VERTEX
  8
0
  6
CONTINUOUS
 10
4.943840
 20
1.119800
  0
SEQEND
  8
0
  0
SOLID
  8
0
 62
    15
 10
4.948680
 20
1.075360
 11
5.588000
 21
1.443200
 12
4.946480
 22
1.033120
 13
5.585800
 23
1.401400
  0
POLYLINE
  8
0
  6
CONTINUOUS
 66
     1
 40
0.000000
 41
0.000000
  0
VERTEX
  8
0
  6
CONTINUOUS
 10
4.948680
 20
1.075360
  0
VERTEX
  8
0
  6
CONTINUOUS
 10
5.588000
 20
1.443200
  0
VERTEX
  8
0
  6
CONTINUOUS
 10
5.585800
 20
1.401400
  0
VERTEX
  8
0
  6
CONTINUOUS
 10
4.946480
 20
1.033120
  0
VERTEX
  8
0
  6
CONTINUOUS
 10
4.948680
 20
1.075360
  0
SEQEND
  8
0
  0
SOLID
  8
0
 62
    15
 10
4.946480
 20
1.033120
 11
5.585800
 21
1.401400
 12
4.936360
 22
0.994400
 13
5.575680
 23
1.362680
  0
POLYLINE
  8
0
  6
CONTINUOUS
 66
     1
 40
0.000000
 41
0.000000
  0
VERTEX
  8
0
  6
CONTINUOUS
 10
4.946480
 20
1.033120
  0
VERTEX
  8
0
  6
CONTINUOUS
 10
5.585800
 20
1.401400
  0
VERTEX
  8
0
  6
CONTINUOUS
 10
5.575680
 20
1.362680
  0
VERTEX
  8
0
  6
CONTINUOUS
 10
4.936360
 20
0.994400
  0
VERTEX
  8
0
  6
CONTINUOUS
 10
4.946480
 20
1.033120
  0
SEQEND
  8
0
  0
SOLID
  8
0
 62
    15
 10
4.936360
 20
0.994400
 11
5.575680
 21
1.362680
 12
4.919200
 22
0.959200
 13
5.558520
 23
1.327480
  0
POLYLINE
  8
0
  6
CONTINUOUS
 66
     1
 40
0.000000
 41
0.000000
  0
VERTEX
  8
0
  6
CONTINUOUS
 10
4.936360
 20
0.994400
  0
VERTEX
  8
0
  6
CONTINUOUS
 10
5.575680
 20
1.362680
  0
VERTEX
  8
0
  6
CONTINUOUS
 10
5.558520
 20
1.327480
  0
VERTEX
  8
0
  6
CONTINUOUS
 10
4.919200
 20
0.959200
  0
VERTEX
  8
0
  6
CONTINUOUS
 10
4.936360
 20
0.994400
  0
SEQEND
  8
0
  0
SOLID
  8
0
 62
    15
 10
4.919200
 20
0.959200
 11
5.558520
 21
1.327480
 12
4.894560
 22
0.928840
 13
5.533880
 23
1.296680
  0
POLYLINE
  8
0
  6
CONTINUOUS
 66
     1
 40
0.000000
 41
0.000000
  0
VERTEX
  8
0
  6
CONTINUOUS
 10
4.919200
 20
0.959200
  0
VERTEX
  8
0
  6
CONTINUOUS
 10
5.558520
 20
1.327480
  0
VERTEX
  8
0
  6
CONTINUOUS
 10
5.533880
 20
1.296680
  0
VERTEX
  8
0
  6
CONTINUOUS
 10
4.894560
 20
0.928840
  0
VERTEX
  8
0
  6
CONTINUOUS
 10
4.919200
 20
0.959200
  0
SEQEND
  8
0
  0
POLYLINE
  8
0
  6
CONTINUOUS
 66
     1
 40
0.000000
 41
0.000000
  0
VERTEX
  8
0
  6
CONTINUOUS
 10
4.856280
 20
0.899360
  0
VERTEX
  8
0
  6
CONTINUOUS
 10
5.495600
 20
1.267640
  0
VERTEX
  8
0
  6
CONTINUOUS
 10
4.856280
 20
0.899360
  0
SEQEND
  8
0
  0
SOLID
  8
0
 62
    15
 10
4.862880
 20
0.903320
 11
5.502200
 21
1.271160
 12
4.856280
 22
0.899360
 13
5.495600
 23
1.267640
  0
POLYLINE
  8
0
  6
CONTINUOUS
 66
     1
 40
0.000000
 41
0.000000
  0
VERTEX
  8
0
  6
CONTINUOUS
 10
4.862880
 20
0.903320
  0
VERTEX
  8
0
  6
CONTINUOUS
 10
5.502200
 20
1.271160
  0
VERTEX
  8
0
  6
CONTINUOUS
 10
5.495600
 20
1.267640
  0
VERTEX
  8
0
  6
CONTINUOUS
 10
4.856280
 20
0.899360
  0
VERTEX
  8
0
  6
CONTINUOUS
 10
4.862880
 20
0.903320
  0
SEQEND
  8
0
  0
SOLID
  8
0
 62
    15
 10
4.894560
 20
0.928840
 11
5.533880
 21
1.296680
 12
4.862880
 22
0.903320
 13
5.502200
 23
1.271160
  0
POLYLINE
  8
0
  6
CONTINUOUS
 66
     1
 40
0.000000
 41
0.000000
  0
VERTEX
  8
0
  6
CONTINUOUS
 10
4.894560
 20
0.928840
  0
VERTEX
  8
0
  6
CONTINUOUS
 10
5.533880
 20
1.296680
  0
VERTEX
  8
0
  6
CONTINUOUS
 10
5.502200
 20
1.271160
  0
VERTEX
  8
0
  6
CONTINUOUS
 10
4.862880
 20
0.903320
  0
VERTEX
  8
0
  6
CONTINUOUS
 10
4.894560
 20
0.928840
  0
SEQEND
  8
0
  0
POLYLINE
  8
0
  6
CONTINUOUS
 66
     1
 40
0.000000
 41
0.000000
  0
VERTEX
  8
0
  6
CONTINUOUS
 10
4.856280
 20
0.899360
  0
VERTEX
  8
0
  6
CONTINUOUS
 10
3.688960
 20
0.899360
  0
VERTEX
  8
0
  6
CONTINUOUS
 10
3.688960
 20
2.849000
  0
VERTEX
  8
0
  6
CONTINUOUS
 10
4.016760
 20
2.849000
  0
VERTEX
  8
0
  6
CONTINUOUS
 10
4.016760
 20
2.671680
  0
VERTEX
  8
0
  6
CONTINUOUS
 10
4.062520
 20
2.667720
  0
VERTEX
  8
0
  6
CONTINUOUS
 10
4.102560
 20
2.656720
  0
VERTEX
  8
0
  6
CONTINUOUS
 10
4.136440
 20
2.639560
  0
VERTEX
  8
0
  6
CONTINUOUS
 10
4.164160
 20
2.616680
  0
VERTEX
  8
0
  6
CONTINUOUS
 10
4.185720
 20
2.590280
  0
VERTEX
  8
0
  6
CONTINUOUS
 10
4.201120
 20
2.560360
  0
VERTEX
  8
0
  6
CONTINUOUS
 10
4.210360
 20
2.528680
  0
VERTEX
  8
0
  6
CONTINUOUS
 10
4.213440
 20
2.496120
  0
VERTEX
  8
0
  6
CONTINUOUS
 10
4.210360
 20
2.463120
  0
VERTEX
  8
0
  6
CONTINUOUS
 10
4.201120
 20
2.431440
  0
VERTEX
  8
0
  6
CONTINUOUS
 10
4.185720
 20
2.401520
  0
VERTEX
  8
0
  6
CONTINUOUS
 10
4.164160
 20
2.375120
  0
VERTEX
  8
0
  6
CONTINUOUS
 10
4.136440
 20
2.352240
  0
VERTEX
  8
0
  6
CONTINUOUS
 10
4.102120
 20
2.335080
  0
VERTEX
  8
0
  6
CONTINUOUS
 10
4.061640
 20
2.324080
  0
VERTEX
  8
0
  6
CONTINUOUS
 10
4.015000
 20
2.319680
  0
VERTEX
  8
0
  6
CONTINUOUS
 10
4.015880
 20
2.247080
  0
VERTEX
  8
0
  6
CONTINUOUS
 10
4.022480
 20
2.179760
  0
VERTEX
  8
0
  6
CONTINUOUS
 10
4.033480
 20
2.118600
  0
VERTEX
  8
0
  6
CONTINUOUS
 10
4.048880
 20
2.062280
  0
VERTEX
  8
0
  6
CONTINUOUS
 10
4.068680
 20
2.011680
  0
VERTEX
  8
0
  6
CONTINUOUS
 10
4.092000
 20
1.965480
  0
VERTEX
  8
0
  6
CONTINUOUS
 10
4.148320
 20
1.887600
  0
VERTEX
  8
0
  6
CONTINUOUS
 10
4.215640
 20
1.825560
  0
VERTEX
  8
0
  6
CONTINUOUS
 10
4.290000
 20
1.778480
  0
VERTEX
  8
0
  6
CONTINUOUS
 10
4.369640
 20
1.743280
  0
VERTEX
  8
0
  6
CONTINUOUS
 10
4.450600
 20
1.718640
  0
VERTEX
  8
0
  6
CONTINUOUS
 10
4.458960
 20
1.536480
  0
VERTEX
  8
0
  6
CONTINUOUS
 10
4.544320
 20
1.507440
  0
VERTEX
  8
0
  6
CONTINUOUS
 10
4.620880
 20
1.474000
  0
VERTEX
  8
0
  6
CONTINUOUS
 10
4.689520
 20
1.436160
  0
VERTEX
  8
0
  6
CONTINUOUS
 10
4.749800
 20
1.395240
  0
VERTEX
  8
0
  6
CONTINUOUS
 10
4.802160
 20
1.351680
  0
VERTEX
  8
0
  6
CONTINUOUS
 10
4.846160
 20
1.306360
  0
VERTEX
  8
0
  6
CONTINUOUS
 10
4.882240
 20
1.259720
  0
VERTEX
  8
0
  6
CONTINUOUS
 10
4.910400
 20
1.212640
  0
VERTEX
  8
0
  6
CONTINUOUS
 10
4.931080
 20
1.165560
  0
VERTEX
  8
0
  6
CONTINUOUS
 10
4.943840
 20
1.119800
  0
VERTEX
  8
0
  6
CONTINUOUS
 10
4.948680
 20
1.075360
  0
VERTEX
  8
0
  6
CONTINUOUS
 10
4.946480
 20
1.033120
  0
VERTEX
  8
0
  6
CONTINUOUS
 10
4.936360
 20
0.994400
  0
VERTEX
  8
0
  6
CONTINUOUS
 10
4.919200
 20
0.959200
  0
VERTEX
  8
0
  6
CONTINUOUS
 10
4.894560
 20
0.928840
  0
VERTEX
  8
0
  6
CONTINUOUS
 10
4.856280
 20
0.899360
  0
SEQEND
  8
0
  0
TEXT
  8
0
 10
4.344560
 20
0.651640
 40
0.138030
  1
BA  481
 41
1.000000
  7
SN0
 71
     0
 72
     5
 11
4.933956
 21
0.651640
  0
TEXT
  8
0
 10
4.022480
 20
0.459800
 40
0.138030
  1
1-1/4" x 1-15/16"
 41
1.000000
  7
SN0
 71
     0
 72
     5
 11
5.252855
 21
0.459800
  0
ENDSEC
  0
EOF
