  0
SECTION
  2
HEADER
  9
$ACADVER
  1
AC1006
  9
$EXTMIN
 10
-0.021144
 20
-0.006607
  9
$EXTMAX
 10
8.521427
 20
11.006274
  9
$LTSCALE
 40
0.044050
  9
$PDMODE
 70
    35
  9
$PDSIZE
 40
0.035240
  0
ENDSEC
  0
SECTION
  2
TABLES
  0
TABLE
  2
LTYPE
 70
     9
  0
LTYPE
  2
CONTINUOUS
 70
    64
  3
Solid line
 72
    65
 73
     0
 40
0.000000
  0
LTYPE
  2
DASHED
 70
    64
  3
__ __ __ __ __ __ __ __ __ __ __ __ __ __ __
 72
    65
 73
     2
 40
0.000330
 49
0.000220
 49
-0.000110
  0
LTYPE
  2
HIDDEN
 70
    64
  3
 _ _ _ _ _ _ _ _ _ _ _ _ _ _ _ _ _ _ _ _ _ _
 72
    65
 73
     2
 40
0.000165
 49
0.000110
 49
-0.000055
  0
LTYPE
  2
CENTER
 70
    64
  3
____ _ ____ _ ____ _ ____ _ ____ _ ____ _ ____
 72
    65
 73
     4
 40
0.000881
 49
0.000551
 49
-0.000110
 49
0.000110
 49
-0.000110
  0
LTYPE
  2
PHANTOM
 70
    64
  3
_____ _ _ _____ _ _ _____ _ _ _____ _ _ ____
 72
    65
 73
     6
 40
0.001101
 49
0.000551
 49
-0.000110
 49
0.000110
 49
-0.000110
 49
0.000110
 49
-0.000110
  0
LTYPE
  2
DOT
 70
    64
  3
...............................................
 72
    65
 73
     2
 40
0.000110
 49
0.000000
 49
-0.000110
  0
LTYPE
  2
DASHDOT
 70
    64
  3
__ . __ . __ . __ . __ . __ . __ . __ . __ . __
 72
    65
 73
     4
 40
0.000440
 49
0.000220
 49
-0.000110
 49
0.000000
 49
-0.000110
  0
LTYPE
  2
BORDER
 70
    64
  3
__ __ . __ __ . __ __ . __ __ . __ __ . __ __
 72
    65
 73
     6
 40
0.000771
 49
0.000220
 49
-0.000110
 49
0.000220
 49
-0.000110
 49
0.000000
 49
-0.000110
  0
LTYPE
  2
DIVIDE
 70
    64
  3
__ . . __ . . __ . . __ . . __ . . __ . . __
 72
    65
 73
     6
 40
0.000551
 49
0.000220
 49
-0.000110
 49
0.000000
 49
-0.000110
 49
0.000000
 49
-0.000110
  0
LTYPE
  2
DOTDOT
 70
    64
  3
 . .  . .  . .  . .  . .  . . 
 72
    65
 73
     5
 40
0.000242
 49
-0.000110
 49
0.000000
 49
-0.000110
 49
0.000000
 49
-0.000110
  0
ENDTAB
  0
TABLE
  2
STYLE
 70
     2
  0
STYLE
 70
     0
  2
SN0
 40
0.000000
 41
0.000440
 50
0.000000
 71
     0
 42
0.000000
  3
ROMAND
  0
STYLE
 70
    68
  2
SV0
 40
0.000000
 41
0.000440
 50
0.000000
 71
     0
 42
0.000000
  3
ROMAND
  0
ENDTAB
  0
TABLE
  2
LAYER
 70
     3
  0
LAYER
  2
FOREGROUND
 70
    64
 62
     7
  6
CONTINUOUS
  0
LAYER
  2
BACKGROUND
 70
    65
 62
    -7
  6
CONTINUOUS
  0
LAYER
  2
0
 70
    64
 62
     7
  6
CONTINUOUS
  0
ENDTAB
  0
ENDSEC
  0
SECTION
  2
ENTITIES
  0
POLYLINE
  8
FOREGROUND
  6
CONTINUOUS
 66
     1
 40
0.000000
 41
0.000000
  0
VERTEX
  8
FOREGROUND
  6
CONTINUOUS
 10
0.000000
 20
10.999667
  0
VERTEX
  8
FOREGROUND
  6
CONTINUOUS
 10
8.499842
 20
10.999667
  0
VERTEX
  8
FOREGROUND
  6
CONTINUOUS
 10
8.499842
 20
-0.000440
  0
VERTEX
  8
FOREGROUND
  6
CONTINUOUS
 10
0.000000
 20
-0.000440
  0
VERTEX
  8
FOREGROUND
  6
CONTINUOUS
 10
0.000000
 20
10.999667
  0
SEQEND
  8
0
  0
POLYLINE
  8
FOREGROUND
  6
CONTINUOUS
 66
     1
 40
0.000000
 41
0.000000
  0
VERTEX
  8
FOREGROUND
  6
CONTINUOUS
 10
0.000000
 20
10.999667
  0
VERTEX
  8
FOREGROUND
  6
CONTINUOUS
 10
8.499842
 20
10.999667
  0
VERTEX
  8
FOREGROUND
  6
CONTINUOUS
 10
8.499842
 20
-0.000440
  0
VERTEX
  8
FOREGROUND
  6
CONTINUOUS
 10
0.000000
 20
-0.000440
  0
VERTEX
  8
FOREGROUND
  6
CONTINUOUS
 10
0.000000
 20
10.999667
  0
SEQEND
  8
0
  0
POLYLINE
  8
0
  6
CONTINUOUS
 66
     1
 40
0.027751
 41
0.027751
  0
VERTEX
  8
0
  6
CONTINUOUS
 10
-0.007048
 20
10.991738
  0
VERTEX
  8
0
  6
CONTINUOUS
 10
8.507331
 20
10.991738
  0
VERTEX
  8
0
  6
CONTINUOUS
 10
8.507331
 20
0.007488
  0
VERTEX
  8
0
  6
CONTINUOUS
 10
-0.007048
 20
0.007488
  0
VERTEX
  8
0
  6
CONTINUOUS
 10
-0.007048
 20
10.991738
  0
SEQEND
  8
0
  0
TEXT
  8
0
 10
4.023505
 20
5.840558
 40
0.137804
  1
BA  480
 41
1.000000
  7
SN0
 71
     0
 72
     5
 11
4.614897
 21
5.840558
  0
TEXT
  8
0
 10
3.936727
 20
5.648942
 40
0.137804
  1
1" x 8-1/4"
 41
1.000000
  7
SN0
 71
     0
 72
     5
 11
4.702123
 21
5.648942
  0
SOLID
  8
0
 62
    15
 10
4.097950
 20
8.204709
 11
4.752970
 21
8.569001
 12
4.150809
 22
8.229817
 13
4.805829
 23
8.594109
  0
POLYLINE
  8
0
  6
CONTINUOUS
 66
     1
 40
0.000000
 41
0.000000
  0
VERTEX
  8
0
  6
CONTINUOUS
 10
4.097950
 20
8.204709
  0
VERTEX
  8
0
  6
CONTINUOUS
 10
4.752970
 20
8.569001
  0
VERTEX
  8
0
  6
CONTINUOUS
 10
4.805829
 20
8.594109
  0
VERTEX
  8
0
  6
CONTINUOUS
 10
4.150809
 20
8.229817
  0
VERTEX
  8
0
  6
CONTINUOUS
 10
4.097950
 20
8.204709
  0
SEQEND
  8
0
  0
SOLID
  8
0
 62
    15
 10
3.568031
 20
8.044368
 11
4.223051
 21
8.408659
 12
3.650404
 22
8.032915
 13
4.305424
 23
8.397647
  0
POLYLINE
  8
0
  6
CONTINUOUS
 66
     1
 40
0.000000
 41
0.000000
  0
VERTEX
  8
0
  6
CONTINUOUS
 10
3.568031
 20
8.044368
  0
VERTEX
  8
0
  6
CONTINUOUS
 10
4.223051
 20
8.408659
  0
VERTEX
  8
0
  6
CONTINUOUS
 10
4.305424
 20
8.397647
  0
VERTEX
  8
0
  6
CONTINUOUS
 10
3.650404
 20
8.032915
  0
VERTEX
  8
0
  6
CONTINUOUS
 10
3.568031
 20
8.044368
  0
SEQEND
  8
0
  0
SOLID
  8
0
 62
    15
 10
3.650404
 20
8.032915
 11
4.305424
 21
8.397647
 12
3.723086
 22
8.033796
 13
4.378106
 23
8.398087
  0
POLYLINE
  8
0
  6
CONTINUOUS
 66
     1
 40
0.000000
 41
0.000000
  0
VERTEX
  8
0
  6
CONTINUOUS
 10
3.650404
 20
8.032915
  0
VERTEX
  8
0
  6
CONTINUOUS
 10
4.305424
 20
8.397647
  0
VERTEX
  8
0
  6
CONTINUOUS
 10
4.378106
 20
8.398087
  0
VERTEX
  8
0
  6
CONTINUOUS
 10
3.723086
 20
8.033796
  0
VERTEX
  8
0
  6
CONTINUOUS
 10
3.650404
 20
8.032915
  0
SEQEND
  8
0
  0
SOLID
  8
0
 62
    15
 10
3.723086
 20
8.033796
 11
4.378106
 21
8.398087
 12
3.788280
 22
8.043927
 13
4.443300
 23
8.408659
  0
POLYLINE
  8
0
  6
CONTINUOUS
 66
     1
 40
0.000000
 41
0.000000
  0
VERTEX
  8
0
  6
CONTINUOUS
 10
3.723086
 20
8.033796
  0
VERTEX
  8
0
  6
CONTINUOUS
 10
4.378106
 20
8.398087
  0
VERTEX
  8
0
  6
CONTINUOUS
 10
4.443300
 20
8.408659
  0
VERTEX
  8
0
  6
CONTINUOUS
 10
3.788280
 20
8.043927
  0
VERTEX
  8
0
  6
CONTINUOUS
 10
3.723086
 20
8.033796
  0
SEQEND
  8
0
  0
SOLID
  8
0
 62
    15
 10
3.788280
 20
8.043927
 11
4.443300
 21
8.408659
 12
3.846425
 22
8.062428
 13
4.501445
 23
8.426720
  0
POLYLINE
  8
0
  6
CONTINUOUS
 66
     1
 40
0.000000
 41
0.000000
  0
VERTEX
  8
0
  6
CONTINUOUS
 10
3.788280
 20
8.043927
  0
VERTEX
  8
0
  6
CONTINUOUS
 10
4.443300
 20
8.408659
  0
VERTEX
  8
0
  6
CONTINUOUS
 10
4.501445
 20
8.426720
  0
VERTEX
  8
0
  6
CONTINUOUS
 10
3.846425
 20
8.062428
  0
VERTEX
  8
0
  6
CONTINUOUS
 10
3.788280
 20
8.043927
  0
SEQEND
  8
0
  0
SOLID
  8
0
 62
    15
 10
3.846425
 20
8.062428
 11
4.501445
 21
8.426720
 12
3.900166
 22
8.086656
 13
4.555186
 23
8.450947
  0
POLYLINE
  8
0
  6
CONTINUOUS
 66
     1
 40
0.000000
 41
0.000000
  0
VERTEX
  8
0
  6
CONTINUOUS
 10
3.846425
 20
8.062428
  0
VERTEX
  8
0
  6
CONTINUOUS
 10
4.501445
 20
8.426720
  0
VERTEX
  8
0
  6
CONTINUOUS
 10
4.555186
 20
8.450947
  0
VERTEX
  8
0
  6
CONTINUOUS
 10
3.900166
 20
8.086656
  0
VERTEX
  8
0
  6
CONTINUOUS
 10
3.846425
 20
8.062428
  0
SEQEND
  8
0
  0
SOLID
  8
0
 62
    15
 10
3.474645
 20
8.069036
 11
4.129665
 21
8.433327
 12
3.568031
 22
8.044368
 13
4.223051
 23
8.408659
  0
POLYLINE
  8
0
  6
CONTINUOUS
 66
     1
 40
0.000000
 41
0.000000
  0
VERTEX
  8
0
  6
CONTINUOUS
 10
3.474645
 20
8.069036
  0
VERTEX
  8
0
  6
CONTINUOUS
 10
4.129665
 20
8.433327
  0
VERTEX
  8
0
  6
CONTINUOUS
 10
4.223051
 20
8.408659
  0
VERTEX
  8
0
  6
CONTINUOUS
 10
3.568031
 20
8.044368
  0
VERTEX
  8
0
  6
CONTINUOUS
 10
3.474645
 20
8.069036
  0
SEQEND
  8
0
  0
SOLID
  8
0
 62
    15
 10
4.150809
 20
8.229817
 11
4.805829
 21
8.594109
 12
4.208074
 22
8.249640
 13
4.863094
 23
8.613931
  0
POLYLINE
  8
0
  6
CONTINUOUS
 66
     1
 40
0.000000
 41
0.000000
  0
VERTEX
  8
0
  6
CONTINUOUS
 10
4.150809
 20
8.229817
  0
VERTEX
  8
0
  6
CONTINUOUS
 10
4.805829
 20
8.594109
  0
VERTEX
  8
0
  6
CONTINUOUS
 10
4.863094
 20
8.613931
  0
VERTEX
  8
0
  6
CONTINUOUS
 10
4.208074
 20
8.249640
  0
VERTEX
  8
0
  6
CONTINUOUS
 10
4.150809
 20
8.229817
  0
SEQEND
  8
0
  0
SOLID
  8
0
 62
    15
 10
4.208074
 20
8.249640
 11
4.863094
 21
8.613931
 12
4.271506
 22
8.261533
 13
4.926526
 23
8.625825
  0
POLYLINE
  8
0
  6
CONTINUOUS
 66
     1
 40
0.000000
 41
0.000000
  0
VERTEX
  8
0
  6
CONTINUOUS
 10
4.208074
 20
8.249640
  0
VERTEX
  8
0
  6
CONTINUOUS
 10
4.863094
 20
8.613931
  0
VERTEX
  8
0
  6
CONTINUOUS
 10
4.926526
 20
8.625825
  0
VERTEX
  8
0
  6
CONTINUOUS
 10
4.271506
 20
8.261533
  0
VERTEX
  8
0
  6
CONTINUOUS
 10
4.208074
 20
8.249640
  0
SEQEND
  8
0
  0
SOLID
  8
0
 62
    15
 10
4.271506
 20
8.261533
 11
4.926526
 21
8.625825
 12
4.342426
 22
8.264176
 13
4.997446
 23
8.628468
  0
POLYLINE
  8
0
  6
CONTINUOUS
 66
     1
 40
0.000000
 41
0.000000
  0
VERTEX
  8
0
  6
CONTINUOUS
 10
4.271506
 20
8.261533
  0
VERTEX
  8
0
  6
CONTINUOUS
 10
4.926526
 20
8.625825
  0
VERTEX
  8
0
  6
CONTINUOUS
 10
4.997446
 20
8.628468
  0
VERTEX
  8
0
  6
CONTINUOUS
 10
4.342426
 20
8.264176
  0
VERTEX
  8
0
  6
CONTINUOUS
 10
4.271506
 20
8.261533
  0
SEQEND
  8
0
  0
SOLID
  8
0
 62
    15
 10
4.342426
 20
8.264176
 11
4.997446
 21
8.628468
 12
4.422596
 22
8.255366
 13
5.077616
 23
8.619658
  0
POLYLINE
  8
0
  6
CONTINUOUS
 66
     1
 40
0.000000
 41
0.000000
  0
VERTEX
  8
0
  6
CONTINUOUS
 10
4.342426
 20
8.264176
  0
VERTEX
  8
0
  6
CONTINUOUS
 10
4.997446
 20
8.628468
  0
VERTEX
  8
0
  6
CONTINUOUS
 10
5.077616
 20
8.619658
  0
VERTEX
  8
0
  6
CONTINUOUS
 10
4.422596
 20
8.255366
  0
VERTEX
  8
0
  6
CONTINUOUS
 10
4.342426
 20
8.264176
  0
SEQEND
  8
0
  0
SOLID
  8
0
 62
    15
 10
4.422596
 20
8.255366
 11
5.077616
 21
8.619658
 12
4.513779
 22
8.233341
 13
5.168799
 23
8.597633
  0
POLYLINE
  8
0
  6
CONTINUOUS
 66
     1
 40
0.000000
 41
0.000000
  0
VERTEX
  8
0
  6
CONTINUOUS
 10
4.422596
 20
8.255366
  0
VERTEX
  8
0
  6
CONTINUOUS
 10
5.077616
 20
8.619658
  0
VERTEX
  8
0
  6
CONTINUOUS
 10
5.168799
 20
8.597633
  0
VERTEX
  8
0
  6
CONTINUOUS
 10
4.513779
 20
8.233341
  0
VERTEX
  8
0
  6
CONTINUOUS
 10
4.422596
 20
8.255366
  0
SEQEND
  8
0
  0
SOLID
  8
0
 62
    15
 10
4.513779
 20
8.233341
 11
5.168799
 21
8.597633
 12
4.513779
 22
6.151550
 13
5.168799
 23
6.515841
  0
POLYLINE
  8
0
  6
CONTINUOUS
 66
     1
 40
0.000000
 41
0.000000
  0
VERTEX
  8
0
  6
CONTINUOUS
 10
4.513779
 20
8.233341
  0
VERTEX
  8
0
  6
CONTINUOUS
 10
5.168799
 20
8.597633
  0
VERTEX
  8
0
  6
CONTINUOUS
 10
5.168799
 20
6.515841
  0
VERTEX
  8
0
  6
CONTINUOUS
 10
4.513779
 20
6.151550
  0
VERTEX
  8
0
  6
CONTINUOUS
 10
4.513779
 20
8.233341
  0
SEQEND
  8
0
  0
POLYLINE
  8
0
  6
CONTINUOUS
 66
     1
 40
0.000000
 41
0.000000
  0
VERTEX
  8
0
  6
CONTINUOUS
 10
3.474645
 20
6.151550
  0
VERTEX
  8
0
  6
CONTINUOUS
 10
3.474645
 20
8.069036
  0
VERTEX
  8
0
  6
CONTINUOUS
 10
3.568031
 20
8.044368
  0
VERTEX
  8
0
  6
CONTINUOUS
 10
3.650404
 20
8.032915
  0
VERTEX
  8
0
  6
CONTINUOUS
 10
3.723086
 20
8.033796
  0
VERTEX
  8
0
  6
CONTINUOUS
 10
3.788280
 20
8.043927
  0
VERTEX
  8
0
  6
CONTINUOUS
 10
3.846425
 20
8.062428
  0
VERTEX
  8
0
  6
CONTINUOUS
 10
3.900166
 20
8.086656
  0
VERTEX
  8
0
  6
CONTINUOUS
 10
3.999278
 20
8.145242
  0
VERTEX
  8
0
  6
CONTINUOUS
 10
4.023505
 20
8.160659
  0
VERTEX
  8
0
  6
CONTINUOUS
 10
4.047733
 20
8.175636
  0
VERTEX
  8
0
  6
CONTINUOUS
 10
4.097950
 20
8.204709
  0
VERTEX
  8
0
  6
CONTINUOUS
 10
4.150809
 20
8.229817
  0
VERTEX
  8
0
  6
CONTINUOUS
 10
4.208074
 20
8.249640
  0
VERTEX
  8
0
  6
CONTINUOUS
 10
4.271506
 20
8.261533
  0
VERTEX
  8
0
  6
CONTINUOUS
 10
4.342426
 20
8.264176
  0
VERTEX
  8
0
  6
CONTINUOUS
 10
4.422596
 20
8.255366
  0
VERTEX
  8
0
  6
CONTINUOUS
 10
4.513779
 20
8.233341
  0
VERTEX
  8
0
  6
CONTINUOUS
 10
4.513779
 20
6.151550
  0
VERTEX
  8
0
  6
CONTINUOUS
 10
3.479931
 20
6.151550
  0
VERTEX
  8
0
  6
CONTINUOUS
 10
3.474645
 20
6.151550
  0
SEQEND
  8
0
  0
SOLID
  8
0
 62
     7
 10
4.429644
 20
10.143339
 11
5.064842
 21
10.492654
 12
4.448586
 22
10.121314
 13
5.083783
 23
10.470629
  0
POLYLINE
  8
0
  6
CONTINUOUS
 66
     1
 40
0.000000
 41
0.000000
  0
VERTEX
  8
0
  6
CONTINUOUS
 10
4.429644
 20
10.143339
  0
VERTEX
  8
0
  6
CONTINUOUS
 10
5.064842
 20
10.492654
  0
VERTEX
  8
0
  6
CONTINUOUS
 10
5.083783
 20
10.470629
  0
VERTEX
  8
0
  6
CONTINUOUS
 10
4.448586
 20
10.121314
  0
VERTEX
  8
0
  6
CONTINUOUS
 10
4.429644
 20
10.143339
  0
SEQEND
  8
0
  0
SOLID
  8
0
 62
    15
 10
4.044209
 20
8.314833
 11
4.679847
 21
8.664148
 12
4.019981
 22
8.299416
 13
4.655179
 23
8.648731
  0
POLYLINE
  8
0
  6
CONTINUOUS
 66
     1
 40
0.000000
 41
0.000000
  0
VERTEX
  8
0
  6
CONTINUOUS
 10
4.044209
 20
8.314833
  0
VERTEX
  8
0
  6
CONTINUOUS
 10
4.679847
 20
8.664148
  0
VERTEX
  8
0
  6
CONTINUOUS
 10
4.655179
 20
8.648731
  0
VERTEX
  8
0
  6
CONTINUOUS
 10
4.019981
 20
8.299416
  0
VERTEX
  8
0
  6
CONTINUOUS
 10
4.044209
 20
8.314833
  0
SEQEND
  8
0
  0
SOLID
  8
0
 62
    15
 10
4.019981
 20
8.299416
 11
4.655179
 21
8.648731
 12
3.995754
 22
8.283999
 13
4.630952
 23
8.633313
  0
POLYLINE
  8
0
  6
CONTINUOUS
 66
     1
 40
0.000000
 41
0.000000
  0
VERTEX
  8
0
  6
CONTINUOUS
 10
4.019981
 20
8.299416
  0
VERTEX
  8
0
  6
CONTINUOUS
 10
4.655179
 20
8.648731
  0
VERTEX
  8
0
  6
CONTINUOUS
 10
4.630952
 20
8.633313
  0
VERTEX
  8
0
  6
CONTINUOUS
 10
3.995754
 20
8.283999
  0
VERTEX
  8
0
  6
CONTINUOUS
 10
4.019981
 20
8.299416
  0
SEQEND
  8
0
  0
SOLID
  8
0
 62
    15
 10
3.995754
 20
8.283999
 11
4.630952
 21
8.633313
 12
3.896642
 22
8.225412
 13
4.531840
 23
8.574727
  0
POLYLINE
  8
0
  6
CONTINUOUS
 66
     1
 40
0.000000
 41
0.000000
  0
VERTEX
  8
0
  6
CONTINUOUS
 10
3.995754
 20
8.283999
  0
VERTEX
  8
0
  6
CONTINUOUS
 10
4.630952
 20
8.633313
  0
VERTEX
  8
0
  6
CONTINUOUS
 10
4.531840
 20
8.574727
  0
VERTEX
  8
0
  6
CONTINUOUS
 10
3.896642
 20
8.225412
  0
VERTEX
  8
0
  6
CONTINUOUS
 10
3.995754
 20
8.283999
  0
SEQEND
  8
0
  0
SOLID
  8
0
 62
    15
 10
3.470681
 20
10.181222
 11
4.106319
 21
10.530537
 12
4.418632
 22
10.181222
 13
5.054270
 23
10.530537
  0
POLYLINE
  8
0
  6
CONTINUOUS
 66
     1
 40
0.000000
 41
0.000000
  0
VERTEX
  8
0
  6
CONTINUOUS
 10
3.470681
 20
10.181222
  0
VERTEX
  8
0
  6
CONTINUOUS
 10
4.106319
 20
10.530537
  0
VERTEX
  8
0
  6
CONTINUOUS
 10
5.054270
 20
10.530537
  0
VERTEX
  8
0
  6
CONTINUOUS
 10
4.418632
 20
10.181222
  0
VERTEX
  8
0
  6
CONTINUOUS
 10
3.470681
 20
10.181222
  0
SEQEND
  8
0
  0
SOLID
  8
0
 62
    15
 10
4.418632
 20
10.181222
 11
5.054270
 21
10.530537
 12
4.423037
 22
10.160078
 13
5.058675
 23
10.509393
  0
POLYLINE
  8
0
  6
CONTINUOUS
 66
     1
 40
0.000000
 41
0.000000
  0
VERTEX
  8
0
  6
CONTINUOUS
 10
4.418632
 20
10.181222
  0
VERTEX
  8
0
  6
CONTINUOUS
 10
5.054270
 20
10.530537
  0
VERTEX
  8
0
  6
CONTINUOUS
 10
5.058675
 20
10.509393
  0
VERTEX
  8
0
  6
CONTINUOUS
 10
4.423037
 20
10.160078
  0
VERTEX
  8
0
  6
CONTINUOUS
 10
4.418632
 20
10.181222
  0
SEQEND
  8
0
  0
SOLID
  8
0
 62
    15
 10
4.423037
 20
10.160078
 11
5.058675
 21
10.509393
 12
4.429644
 22
10.143339
 13
5.064842
 23
10.492654
  0
POLYLINE
  8
0
  6
CONTINUOUS
 66
     1
 40
0.000000
 41
0.000000
  0
VERTEX
  8
0
  6
CONTINUOUS
 10
4.423037
 20
10.160078
  0
VERTEX
  8
0
  6
CONTINUOUS
 10
5.058675
 20
10.509393
  0
VERTEX
  8
0
  6
CONTINUOUS
 10
5.064842
 20
10.492654
  0
VERTEX
  8
0
  6
CONTINUOUS
 10
4.429644
 20
10.143339
  0
VERTEX
  8
0
  6
CONTINUOUS
 10
4.423037
 20
10.160078
  0
SEQEND
  8
0
  0
SOLID
  8
0
 62
    15
 10
4.093985
 20
8.343466
 11
4.729623
 21
8.692780
 12
4.044209
 22
8.314833
 13
4.679847
 23
8.664148
  0
POLYLINE
  8
0
  6
CONTINUOUS
 66
     1
 40
0.000000
 41
0.000000
  0
VERTEX
  8
0
  6
CONTINUOUS
 10
4.093985
 20
8.343466
  0
VERTEX
  8
0
  6
CONTINUOUS
 10
4.729623
 20
8.692780
  0
VERTEX
  8
0
  6
CONTINUOUS
 10
4.679847
 20
8.664148
  0
VERTEX
  8
0
  6
CONTINUOUS
 10
4.044209
 20
8.314833
  0
VERTEX
  8
0
  6
CONTINUOUS
 10
4.093985
 20
8.343466
  0
SEQEND
  8
0
  0
SOLID
  8
0
 62
    15
 10
4.448586
 20
10.121314
 11
5.083783
 21
10.470629
 12
4.474575
 22
10.110742
 13
5.109773
 23
10.460057
  0
POLYLINE
  8
0
  6
CONTINUOUS
 66
     1
 40
0.000000
 41
0.000000
  0
VERTEX
  8
0
  6
CONTINUOUS
 10
4.448586
 20
10.121314
  0
VERTEX
  8
0
  6
CONTINUOUS
 10
5.083783
 20
10.470629
  0
VERTEX
  8
0
  6
CONTINUOUS
 10
5.109773
 20
10.460057
  0
VERTEX
  8
0
  6
CONTINUOUS
 10
4.474575
 20
10.110742
  0
VERTEX
  8
0
  6
CONTINUOUS
 10
4.448586
 20
10.121314
  0
SEQEND
  8
0
  0
SOLID
  8
0
 62
    15
 10
4.474575
 20
10.110742
 11
5.109773
 21
10.460057
 12
4.506291
 22
10.108099
 13
5.141488
 23
10.457414
  0
POLYLINE
  8
0
  6
CONTINUOUS
 66
     1
 40
0.000000
 41
0.000000
  0
VERTEX
  8
0
  6
CONTINUOUS
 10
4.474575
 20
10.110742
  0
VERTEX
  8
0
  6
CONTINUOUS
 10
5.109773
 20
10.460057
  0
VERTEX
  8
0
  6
CONTINUOUS
 10
5.141488
 20
10.457414
  0
VERTEX
  8
0
  6
CONTINUOUS
 10
4.506291
 20
10.108099
  0
VERTEX
  8
0
  6
CONTINUOUS
 10
4.474575
 20
10.110742
  0
SEQEND
  8
0
  0
SOLID
  8
0
 62
    15
 10
4.387356
 20
9.495808
 11
5.022995
 21
9.845122
 12
4.387356
 22
9.312561
 13
5.022995
 23
9.661875
  0
POLYLINE
  8
0
  6
CONTINUOUS
 66
     1
 40
0.000000
 41
0.000000
  0
VERTEX
  8
0
  6
CONTINUOUS
 10
4.387356
 20
9.495808
  0
VERTEX
  8
0
  6
CONTINUOUS
 10
5.022995
 20
9.845122
  0
VERTEX
  8
0
  6
CONTINUOUS
 10
5.022995
 20
9.661875
  0
VERTEX
  8
0
  6
CONTINUOUS
 10
4.387356
 20
9.312561
  0
VERTEX
  8
0
  6
CONTINUOUS
 10
4.387356
 20
9.495808
  0
SEQEND
  8
0
  0
SOLID
  8
0
 62
    15
 10
4.506291
 20
10.108099
 11
5.141488
 21
10.457414
 12
4.506291
 22
9.495808
 13
5.141488
 23
9.845122
  0
POLYLINE
  8
0
  6
CONTINUOUS
 66
     1
 40
0.000000
 41
0.000000
  0
VERTEX
  8
0
  6
CONTINUOUS
 10
4.506291
 20
10.108099
  0
VERTEX
  8
0
  6
CONTINUOUS
 10
5.141488
 20
10.457414
  0
VERTEX
  8
0
  6
CONTINUOUS
 10
5.141488
 20
9.845122
  0
VERTEX
  8
0
  6
CONTINUOUS
 10
4.506291
 20
9.495808
  0
VERTEX
  8
0
  6
CONTINUOUS
 10
4.506291
 20
10.108099
  0
SEQEND
  8
0
  0
SOLID
  8
0
 62
    15
 10
4.387356
 20
9.312561
 11
5.022995
 21
9.661875
 12
4.509815
 22
9.312561
 13
5.145453
 23
9.661875
  0
POLYLINE
  8
0
  6
CONTINUOUS
 66
     1
 40
0.000000
 41
0.000000
  0
VERTEX
  8
0
  6
CONTINUOUS
 10
4.387356
 20
9.312561
  0
VERTEX
  8
0
  6
CONTINUOUS
 10
5.022995
 20
9.661875
  0
VERTEX
  8
0
  6
CONTINUOUS
 10
5.145453
 20
9.661875
  0
VERTEX
  8
0
  6
CONTINUOUS
 10
4.509815
 20
9.312561
  0
VERTEX
  8
0
  6
CONTINUOUS
 10
4.387356
 20
9.312561
  0
SEQEND
  8
0
  0
SOLID
  8
0
 62
    15
 10
4.509815
 20
9.312561
 11
5.145453
 21
9.661875
 12
4.509815
 22
8.372098
 13
5.145453
 23
8.721413
  0
POLYLINE
  8
0
  6
CONTINUOUS
 66
     1
 40
0.000000
 41
0.000000
  0
VERTEX
  8
0
  6
CONTINUOUS
 10
4.509815
 20
9.312561
  0
VERTEX
  8
0
  6
CONTINUOUS
 10
5.145453
 20
9.661875
  0
VERTEX
  8
0
  6
CONTINUOUS
 10
5.145453
 20
8.721413
  0
VERTEX
  8
0
  6
CONTINUOUS
 10
4.509815
 20
8.372098
  0
VERTEX
  8
0
  6
CONTINUOUS
 10
4.509815
 20
9.312561
  0
SEQEND
  8
0
  0
POLYLINE
  8
0
  6
CONTINUOUS
 66
     1
 40
0.000000
 41
0.000000
  0
VERTEX
  8
0
  6
CONTINUOUS
 10
4.509815
 20
8.372098
  0
VERTEX
  8
0
  6
CONTINUOUS
 10
4.419072
 20
8.394123
  0
VERTEX
  8
0
  6
CONTINUOUS
 10
4.338902
 20
8.402933
  0
VERTEX
  8
0
  6
CONTINUOUS
 10
4.267982
 20
8.400290
  0
VERTEX
  8
0
  6
CONTINUOUS
 10
4.204550
 20
8.388397
  0
VERTEX
  8
0
  6
CONTINUOUS
 10
4.146845
 20
8.368574
  0
VERTEX
  8
0
  6
CONTINUOUS
 10
4.093985
 20
8.343466
  0
VERTEX
  8
0
  6
CONTINUOUS
 10
4.044209
 20
8.314833
  0
VERTEX
  8
0
  6
CONTINUOUS
 10
4.019981
 20
8.299416
  0
VERTEX
  8
0
  6
CONTINUOUS
 10
3.995754
 20
8.283999
  0
VERTEX
  8
0
  6
CONTINUOUS
 10
3.896642
 20
8.225412
  0
VERTEX
  8
0
  6
CONTINUOUS
 10
3.842901
 20
8.201185
  0
VERTEX
  8
0
  6
CONTINUOUS
 10
3.784315
 20
8.182684
  0
VERTEX
  8
0
  6
CONTINUOUS
 10
3.719562
 20
8.172553
  0
VERTEX
  8
0
  6
CONTINUOUS
 10
3.646439
 20
8.171672
  0
VERTEX
  8
0
  6
CONTINUOUS
 10
3.564507
 20
8.183125
  0
VERTEX
  8
0
  6
CONTINUOUS
 10
3.470681
 20
8.207792
  0
VERTEX
  8
0
  6
CONTINUOUS
 10
3.470681
 20
10.181222
  0
VERTEX
  8
0
  6
CONTINUOUS
 10
4.418632
 20
10.181222
  0
VERTEX
  8
0
  6
CONTINUOUS
 10
4.423037
 20
10.160078
  0
VERTEX
  8
0
  6
CONTINUOUS
 10
4.429644
 20
10.143339
  0
VERTEX
  8
0
  6
CONTINUOUS
 10
4.448586
 20
10.121314
  0
VERTEX
  8
0
  6
CONTINUOUS
 10
4.474575
 20
10.110742
  0
VERTEX
  8
0
  6
CONTINUOUS
 10
4.506291
 20
10.108099
  0
VERTEX
  8
0
  6
CONTINUOUS
 10
4.506291
 20
9.495808
  0
VERTEX
  8
0
  6
CONTINUOUS
 10
4.387356
 20
9.495808
  0
VERTEX
  8
0
  6
CONTINUOUS
 10
4.387356
 20
9.312561
  0
VERTEX
  8
0
  6
CONTINUOUS
 10
4.509815
 20
9.312561
  0
VERTEX
  8
0
  6
CONTINUOUS
 10
4.509815
 20
8.372098
  0
SEQEND
  8
0
  0
POLYLINE
  8
0
  6
CONTINUOUS
 66
     1
 40
0.014096
 41
0.014096
  0
VERTEX
  8
0
  6
CONTINUOUS
 10
7.273056
 20
1.850531
  0
VERTEX
  8
0
  6
CONTINUOUS
 10
7.273056
 20
9.850849
  0
VERTEX
  8
0
  6
CONTINUOUS
 10
7.275259
 20
9.852611
  0
VERTEX
  8
0
  6
CONTINUOUS
 10
7.156325
 20
9.852611
  0
VERTEX
  8
0
  6
CONTINUOUS
 10
7.156325
 20
10.036298
  0
VERTEX
  8
0
  6
CONTINUOUS
 10
7.275259
 20
10.036298
  0
VERTEX
  8
0
  6
CONTINUOUS
 10
7.275259
 20
10.042465
  0
VERTEX
  8
0
  6
CONTINUOUS
 10
7.275259
 20
10.648590
  0
VERTEX
  8
0
  6
CONTINUOUS
 10
7.258520
 20
10.649030
  0
VERTEX
  8
0
  6
CONTINUOUS
 10
7.243543
 20
10.651233
  0
VERTEX
  8
0
  6
CONTINUOUS
 10
7.236495
 20
10.652995
  0
VERTEX
  8
0
  6
CONTINUOUS
 10
7.229447
 20
10.655197
  0
VERTEX
  8
0
  6
CONTINUOUS
 10
7.223280
 20
10.658281
  0
VERTEX
  8
0
  6
CONTINUOUS
 10
7.217554
 20
10.661805
  0
VERTEX
  8
0
  6
CONTINUOUS
 10
7.211827
 20
10.666210
  0
VERTEX
  8
0
  6
CONTINUOUS
 10
7.206982
 20
10.671055
  0
VERTEX
  8
0
  6
CONTINUOUS
 10
7.202577
 20
10.677222
  0
VERTEX
  8
0
  6
CONTINUOUS
 10
7.198172
 20
10.683830
  0
VERTEX
  8
0
  6
CONTINUOUS
 10
7.195088
 20
10.691759
  0
VERTEX
  8
0
  6
CONTINUOUS
 10
7.192005
 20
10.700569
  0
VERTEX
  8
0
  6
CONTINUOUS
 10
7.189362
 20
10.710700
  0
VERTEX
  8
0
  6
CONTINUOUS
 10
7.187600
 20
10.721713
  0
VERTEX
  8
0
  6
CONTINUOUS
 10
6.239649
 20
10.721713
  0
VERTEX
  8
0
  6
CONTINUOUS
 10
6.239649
 20
1.823660
  0
VERTEX
  8
0
  6
CONTINUOUS
 10
7.273056
 20
1.823660
  0
VERTEX
  8
0
  6
CONTINUOUS
 10
7.273056
 20
1.850531
  0
SEQEND
  8
0
  0
SOLID
  8
0
 62
    15
 10
1.875198
 20
10.016916
 11
2.499824
 21
10.394423
 12
1.906914
 22
10.014273
 13
2.531980
 23
10.391780
  0
POLYLINE
  8
0
  6
CONTINUOUS
 66
     1
 40
0.000000
 41
0.000000
  0
VERTEX
  8
0
  6
CONTINUOUS
 10
1.875198
 20
10.016916
  0
VERTEX
  8
0
  6
CONTINUOUS
 10
2.499824
 20
10.394423
  0
VERTEX
  8
0
  6
CONTINUOUS
 10
2.531980
 20
10.391780
  0
VERTEX
  8
0
  6
CONTINUOUS
 10
1.906914
 20
10.014273
  0
VERTEX
  8
0
  6
CONTINUOUS
 10
1.875198
 20
10.016916
  0
SEQEND
  8
0
  0
SOLID
  8
0
 62
    15
 10
0.871745
 20
10.086955
 11
1.496370
 21
10.464902
 12
1.819696
 22
10.086955
 13
2.444321
 23
10.464902
  0
POLYLINE
  8
0
  6
CONTINUOUS
 66
     1
 40
0.000000
 41
0.000000
  0
VERTEX
  8
0
  6
CONTINUOUS
 10
0.871745
 20
10.086955
  0
VERTEX
  8
0
  6
CONTINUOUS
 10
1.496370
 20
10.464902
  0
VERTEX
  8
0
  6
CONTINUOUS
 10
2.444321
 20
10.464902
  0
VERTEX
  8
0
  6
CONTINUOUS
 10
1.819696
 20
10.086955
  0
VERTEX
  8
0
  6
CONTINUOUS
 10
0.871745
 20
10.086955
  0
SEQEND
  8
0
  0
SOLID
  8
0
 62
    15
 10
1.823660
 20
10.066252
 11
2.448286
 21
10.443758
 12
1.830268
 22
10.049513
 13
2.454893
 23
10.427020
  0
POLYLINE
  8
0
  6
CONTINUOUS
 66
     1
 40
0.000000
 41
0.000000
  0
VERTEX
  8
0
  6
CONTINUOUS
 10
1.823660
 20
10.066252
  0
VERTEX
  8
0
  6
CONTINUOUS
 10
2.448286
 20
10.443758
  0
VERTEX
  8
0
  6
CONTINUOUS
 10
2.454893
 20
10.427020
  0
VERTEX
  8
0
  6
CONTINUOUS
 10
1.830268
 20
10.049513
  0
VERTEX
  8
0
  6
CONTINUOUS
 10
1.823660
 20
10.066252
  0
SEQEND
  8
0
  0
SOLID
  8
0
 62
    15
 10
1.830268
 20
10.049513
 11
2.454893
 21
10.427020
 12
1.849209
 22
10.027048
 13
2.473835
 23
10.404995
  0
POLYLINE
  8
0
  6
CONTINUOUS
 66
     1
 40
0.000000
 41
0.000000
  0
VERTEX
  8
0
  6
CONTINUOUS
 10
1.830268
 20
10.049513
  0
VERTEX
  8
0
  6
CONTINUOUS
 10
2.454893
 20
10.427020
  0
VERTEX
  8
0
  6
CONTINUOUS
 10
2.473835
 20
10.404995
  0
VERTEX
  8
0
  6
CONTINUOUS
 10
1.849209
 20
10.027048
  0
VERTEX
  8
0
  6
CONTINUOUS
 10
1.830268
 20
10.049513
  0
SEQEND
  8
0
  0
SOLID
  8
0
 62
    15
 10
1.849209
 20
10.027048
 11
2.473835
 21
10.404995
 12
1.875198
 22
10.016916
 13
2.499824
 23
10.394423
  0
POLYLINE
  8
0
  6
CONTINUOUS
 66
     1
 40
0.000000
 41
0.000000
  0
VERTEX
  8
0
  6
CONTINUOUS
 10
1.849209
 20
10.027048
  0
VERTEX
  8
0
  6
CONTINUOUS
 10
2.473835
 20
10.404995
  0
VERTEX
  8
0
  6
CONTINUOUS
 10
2.499824
 20
10.394423
  0
VERTEX
  8
0
  6
CONTINUOUS
 10
1.875198
 20
10.016916
  0
VERTEX
  8
0
  6
CONTINUOUS
 10
1.849209
 20
10.027048
  0
SEQEND
  8
0
  0
SOLID
  8
0
 62
    15
 10
1.788420
 20
9.401541
 11
2.413046
 21
9.779488
 12
1.788420
 22
9.218294
 13
2.413046
 23
9.596241
  0
POLYLINE
  8
0
  6
CONTINUOUS
 66
     1
 40
0.000000
 41
0.000000
  0
VERTEX
  8
0
  6
CONTINUOUS
 10
1.788420
 20
9.401541
  0
VERTEX
  8
0
  6
CONTINUOUS
 10
2.413046
 20
9.779488
  0
VERTEX
  8
0
  6
CONTINUOUS
 10
2.413046
 20
9.596241
  0
VERTEX
  8
0
  6
CONTINUOUS
 10
1.788420
 20
9.218294
  0
VERTEX
  8
0
  6
CONTINUOUS
 10
1.788420
 20
9.401541
  0
SEQEND
  8
0
  0
SOLID
  8
0
 62
    15
 10
1.819696
 20
10.086955
 11
2.444321
 21
10.464902
 12
1.823660
 22
10.066252
 13
2.448286
 23
10.443758
  0
POLYLINE
  8
0
  6
CONTINUOUS
 66
     1
 40
0.000000
 41
0.000000
  0
VERTEX
  8
0
  6
CONTINUOUS
 10
1.819696
 20
10.086955
  0
VERTEX
  8
0
  6
CONTINUOUS
 10
2.444321
 20
10.464902
  0
VERTEX
  8
0
  6
CONTINUOUS
 10
2.448286
 20
10.443758
  0
VERTEX
  8
0
  6
CONTINUOUS
 10
1.823660
 20
10.066252
  0
VERTEX
  8
0
  6
CONTINUOUS
 10
1.819696
 20
10.086955
  0
SEQEND
  8
0
  0
SOLID
  8
0
 62
    15
 10
1.906914
 20
10.014273
 11
2.531980
 21
10.391780
 12
1.906914
 22
9.401541
 13
2.531980
 23
9.779488
  0
POLYLINE
  8
0
  6
CONTINUOUS
 66
     1
 40
0.000000
 41
0.000000
  0
VERTEX
  8
0
  6
CONTINUOUS
 10
1.906914
 20
10.014273
  0
VERTEX
  8
0
  6
CONTINUOUS
 10
2.531980
 20
10.391780
  0
VERTEX
  8
0
  6
CONTINUOUS
 10
2.531980
 20
9.779488
  0
VERTEX
  8
0
  6
CONTINUOUS
 10
1.906914
 20
9.401541
  0
VERTEX
  8
0
  6
CONTINUOUS
 10
1.906914
 20
10.014273
  0
SEQEND
  8
0
  0
SOLID
  8
0
 62
    15
 10
1.788420
 20
9.218294
 11
2.413046
 21
9.596241
 12
1.906914
 22
9.218294
 13
2.531980
 23
9.596241
  0
POLYLINE
  8
0
  6
CONTINUOUS
 66
     1
 40
0.000000
 41
0.000000
  0
VERTEX
  8
0
  6
CONTINUOUS
 10
1.788420
 20
9.218294
  0
VERTEX
  8
0
  6
CONTINUOUS
 10
2.413046
 20
9.596241
  0
VERTEX
  8
0
  6
CONTINUOUS
 10
2.531980
 20
9.596241
  0
VERTEX
  8
0
  6
CONTINUOUS
 10
1.906914
 20
9.218294
  0
VERTEX
  8
0
  6
CONTINUOUS
 10
1.788420
 20
9.218294
  0
SEQEND
  8
0
  0
SOLID
  8
0
 62
    15
 10
1.906914
 20
9.218294
 11
2.531980
 21
9.596241
 12
1.904712
 22
9.216092
 13
2.529778
 23
9.594039
  0
POLYLINE
  8
0
  6
CONTINUOUS
 66
     1
 40
0.000000
 41
0.000000
  0
VERTEX
  8
0
  6
CONTINUOUS
 10
1.906914
 20
9.218294
  0
VERTEX
  8
0
  6
CONTINUOUS
 10
2.531980
 20
9.596241
  0
VERTEX
  8
0
  6
CONTINUOUS
 10
2.529778
 20
9.594039
  0
VERTEX
  8
0
  6
CONTINUOUS
 10
1.904712
 20
9.216092
  0
VERTEX
  8
0
  6
CONTINUOUS
 10
1.906914
 20
9.218294
  0
SEQEND
  8
0
  0
SOLID
  8
0
 62
    15
 10
1.904712
 20
9.216092
 11
2.529778
 21
9.594039
 12
1.904712
 22
1.216214
 13
2.529778
 23
1.594161
  0
POLYLINE
  8
0
  6
CONTINUOUS
 66
     1
 40
0.000000
 41
0.000000
  0
VERTEX
  8
0
  6
CONTINUOUS
 10
1.904712
 20
9.216092
  0
VERTEX
  8
0
  6
CONTINUOUS
 10
2.529778
 20
9.594039
  0
VERTEX
  8
0
  6
CONTINUOUS
 10
2.529778
 20
1.594161
  0
VERTEX
  8
0
  6
CONTINUOUS
 10
1.904712
 20
1.216214
  0
VERTEX
  8
0
  6
CONTINUOUS
 10
1.904712
 20
9.216092
  0
SEQEND
  8
0
  0
SOLID
  8
0
 62
    15
 10
1.904712
 20
1.216214
 11
2.529778
 21
1.594161
 12
1.904712
 22
1.189344
 13
2.529778
 23
1.566850
  0
POLYLINE
  8
0
  6
CONTINUOUS
 66
     1
 40
0.000000
 41
0.000000
  0
VERTEX
  8
0
  6
CONTINUOUS
 10
1.904712
 20
1.216214
  0
VERTEX
  8
0
  6
CONTINUOUS
 10
2.529778
 20
1.594161
  0
VERTEX
  8
0
  6
CONTINUOUS
 10
2.529778
 20
1.566850
  0
VERTEX
  8
0
  6
CONTINUOUS
 10
1.904712
 20
1.189344
  0
VERTEX
  8
0
  6
CONTINUOUS
 10
1.904712
 20
1.216214
  0
SEQEND
  8
0
  0
POLYLINE
  8
0
  6
CONTINUOUS
 66
     1
 40
0.000000
 41
0.000000
  0
VERTEX
  8
0
  6
CONTINUOUS
 10
1.904712
 20
1.189344
  0
VERTEX
  8
0
  6
CONTINUOUS
 10
0.871745
 20
1.189344
  0
VERTEX
  8
0
  6
CONTINUOUS
 10
0.871745
 20
10.086955
  0
VERTEX
  8
0
  6
CONTINUOUS
 10
1.819696
 20
10.086955
  0
VERTEX
  8
0
  6
CONTINUOUS
 10
1.823660
 20
10.066252
  0
VERTEX
  8
0
  6
CONTINUOUS
 10
1.830268
 20
10.049513
  0
VERTEX
  8
0
  6
CONTINUOUS
 10
1.849209
 20
10.027048
  0
VERTEX
  8
0
  6
CONTINUOUS
 10
1.875198
 20
10.016916
  0
VERTEX
  8
0
  6
CONTINUOUS
 10
1.906914
 20
10.014273
  0
VERTEX
  8
0
  6
CONTINUOUS
 10
1.906914
 20
9.401541
  0
VERTEX
  8
0
  6
CONTINUOUS
 10
1.788420
 20
9.401541
  0
VERTEX
  8
0
  6
CONTINUOUS
 10
1.788420
 20
9.218294
  0
VERTEX
  8
0
  6
CONTINUOUS
 10
1.906914
 20
9.218294
  0
VERTEX
  8
0
  6
CONTINUOUS
 10
1.904712
 20
9.216092
  0
VERTEX
  8
0
  6
CONTINUOUS
 10
1.904712
 20
1.216214
  0
VERTEX
  8
0
  6
CONTINUOUS
 10
1.904712
 20
1.189344
  0
SEQEND
  8
0
  0
TEXT
  8
0
 10
1.561124
 20
0.792896
 40
0.137804
  1
480
 41
1.000000
  7
SN0
 71
     0
 72
     5
 11
1.838648
 21
0.792896
  0
TEXT
  8
0
 10
1.285372
 20
0.601279
 40
0.137804
  1
1" x 8-1/4"*
 41
1.000000
  7
SN0
 71
     0
 72
     5
 11
2.115743
 21
0.601279
  0
TEXT
  8
0
 10
7.646158
 20
10.527894
 40
0.137804
  1
base 
 41
1.000000
  7
SN0
 71
     0
 72
     5
 11
8.053084
 21
10.527894
  0
TEXT
  8
0
 10
7.687565
 20
10.336277
 40
0.137804
  1
480
 41
1.000000
  7
SN0
 71
     0
 72
     5
 11
7.965089
 21
10.336277
  0
ENDSEC
  0
EOF
