  0
SECTION
  2
HEADER
  9
$ACADVER
  1
AC1006
  9
$EXTMIN
 10
3.937560
 20
0.441760
  9
$EXTMAX
 10
7.062440
 20
4.012360
  9
$LTSCALE
 40
0.044000
  9
$PDMODE
 70
    35
  9
$PDSIZE
 40
0.035200
  0
ENDSEC
  0
SECTION
  2
TABLES
  0
TABLE
  2
LTYPE
 70
     9
  0
LTYPE
  2
CONTINUOUS
 70
    64
  3
Solid line
 72
    65
 73
     0
 40
0.000000
  0
LTYPE
  2
DASHED
 70
    64
  3
__ __ __ __ __ __ __ __ __ __ __ __ __ __ __
 72
    65
 73
     2
 40
0.000330
 49
0.000220
 49
-0.000110
  0
LTYPE
  2
HIDDEN
 70
    64
  3
 _ _ _ _ _ _ _ _ _ _ _ _ _ _ _ _ _ _ _ _ _ _
 72
    65
 73
     2
 40
0.000165
 49
0.000110
 49
-0.000055
  0
LTYPE
  2
CENTER
 70
    64
  3
____ _ ____ _ ____ _ ____ _ ____ _ ____ _ ____
 72
    65
 73
     4
 40
0.000880
 49
0.000550
 49
-0.000110
 49
0.000110
 49
-0.000110
  0
LTYPE
  2
PHANTOM
 70
    64
  3
_____ _ _ _____ _ _ _____ _ _ _____ _ _ ____
 72
    65
 73
     6
 40
0.001100
 49
0.000550
 49
-0.000110
 49
0.000110
 49
-0.000110
 49
0.000110
 49
-0.000110
  0
LTYPE
  2
DOT
 70
    64
  3
...............................................
 72
    65
 73
     2
 40
0.000110
 49
0.000000
 49
-0.000110
  0
LTYPE
  2
DASHDOT
 70
    64
  3
__ . __ . __ . __ . __ . __ . __ . __ . __ . __
 72
    65
 73
     4
 40
0.000440
 49
0.000220
 49
-0.000110
 49
0.000000
 49
-0.000110
  0
LTYPE
  2
BORDER
 70
    64
  3
__ __ . __ __ . __ __ . __ __ . __ __ . __ __
 72
    65
 73
     6
 40
0.000770
 49
0.000220
 49
-0.000110
 49
0.000220
 49
-0.000110
 49
0.000000
 49
-0.000110
  0
LTYPE
  2
DIVIDE
 70
    64
  3
__ . . __ . . __ . . __ . . __ . . __ . . __
 72
    65
 73
     6
 40
0.000550
 49
0.000220
 49
-0.000110
 49
0.000000
 49
-0.000110
 49
0.000000
 49
-0.000110
  0
LTYPE
  2
DOTDOT
 70
    64
  3
 . .  . .  . .  . .  . .  . . 
 72
    65
 73
     5
 40
0.000242
 49
-0.000110
 49
0.000000
 49
-0.000110
 49
0.000000
 49
-0.000110
  0
ENDTAB
  0
TABLE
  2
STYLE
 70
     2
  0
STYLE
 70
     0
  2
SN0
 40
0.000000
 41
0.000440
 50
0.000000
 71
     0
 42
0.000000
  3
ROMAND
  0
STYLE
 70
    68
  2
SV0
 40
0.000000
 41
0.000440
 50
0.000000
 71
     0
 42
0.000000
  3
ROMAND
  0
ENDTAB
  0
TABLE
  2
LAYER
 70
     3
  0
LAYER
  2
FOREGROUND
 70
    64
 62
     7
  6
CONTINUOUS
  0
LAYER
  2
BACKGROUND
 70
    65
 62
    -7
  6
CONTINUOUS
  0
LAYER
  2
0
 70
    64
 62
     7
  6
CONTINUOUS
  0
ENDTAB
  0
ENDSEC
  0
SECTION
  2
ENTITIES
  0
POLYLINE
  8
FOREGROUND
  6
CONTINUOUS
 66
     1
 40
0.000000
 41
0.000000
  0
VERTEX
  8
FOREGROUND
  6
CONTINUOUS
 10
0.000000
 20
4.454120
  0
VERTEX
  8
FOREGROUND
  6
CONTINUOUS
 10
8.499920
 20
4.454120
  0
VERTEX
  8
FOREGROUND
  6
CONTINUOUS
 10
8.499920
 20
-6.545880
  0
VERTEX
  8
FOREGROUND
  6
CONTINUOUS
 10
0.000000
 20
-6.545880
  0
VERTEX
  8
FOREGROUND
  6
CONTINUOUS
 10
0.000000
 20
4.454120
  0
SEQEND
  8
0
  0
POLYLINE
  8
FOREGROUND
  6
CONTINUOUS
 66
     1
 40
0.000000
 41
0.000000
  0
VERTEX
  8
FOREGROUND
  6
CONTINUOUS
 10
0.000000
 20
4.454120
  0
VERTEX
  8
FOREGROUND
  6
CONTINUOUS
 10
8.499920
 20
4.454120
  0
VERTEX
  8
FOREGROUND
  6
CONTINUOUS
 10
8.499920
 20
-6.545880
  0
VERTEX
  8
FOREGROUND
  6
CONTINUOUS
 10
0.000000
 20
-6.545880
  0
VERTEX
  8
FOREGROUND
  6
CONTINUOUS
 10
0.000000
 20
4.454120
  0
SEQEND
  8
0
  0
POLYLINE
  8
0
  6
CONTINUOUS
 66
     1
 40
0.014080
 41
0.014080
  0
VERTEX
  8
0
  6
CONTINUOUS
 10
6.644440
 20
3.846920
  0
VERTEX
  8
0
  6
CONTINUOUS
 10
6.644880
 20
3.826680
  0
VERTEX
  8
0
  6
CONTINUOUS
 10
6.646200
 20
3.804680
  0
VERTEX
  8
0
  6
CONTINUOUS
 10
6.648840
 20
3.780920
  0
VERTEX
  8
0
  6
CONTINUOUS
 10
6.652360
 20
3.755400
  0
VERTEX
  8
0
  6
CONTINUOUS
 10
6.656760
 20
3.729000
  0
VERTEX
  8
0
  6
CONTINUOUS
 10
6.662920
 20
3.701280
  0
VERTEX
  8
0
  6
CONTINUOUS
 10
6.670400
 20
3.672680
  0
VERTEX
  8
0
  6
CONTINUOUS
 10
6.679200
 20
3.644080
  0
VERTEX
  8
0
  6
CONTINUOUS
 10
6.689320
 20
3.614600
  0
VERTEX
  8
0
  6
CONTINUOUS
 10
6.701200
 20
3.585120
  0
VERTEX
  8
0
  6
CONTINUOUS
 10
6.714840
 20
3.556080
  0
VERTEX
  8
0
  6
CONTINUOUS
 10
6.730240
 20
3.527040
  0
VERTEX
  8
0
  6
CONTINUOUS
 10
6.747400
 20
3.498880
  0
VERTEX
  8
0
  6
CONTINUOUS
 10
6.766760
 20
3.471600
  0
VERTEX
  8
0
  6
CONTINUOUS
 10
6.787880
 20
3.445200
  0
VERTEX
  8
0
  6
CONTINUOUS
 10
6.799320
 20
3.432440
  0
VERTEX
  8
0
  6
CONTINUOUS
 10
6.811200
 20
3.420120
  0
VERTEX
  8
0
  6
CONTINUOUS
 10
6.835400
 20
3.397240
  0
VERTEX
  8
0
  6
CONTINUOUS
 10
6.859160
 20
3.376120
  0
VERTEX
  8
0
  6
CONTINUOUS
 10
6.882040
 20
3.357200
  0
VERTEX
  8
0
  6
CONTINUOUS
 10
6.904040
 20
3.340040
  0
VERTEX
  8
0
  6
CONTINUOUS
 10
6.925160
 20
3.323760
  0
VERTEX
  8
0
  6
CONTINUOUS
 10
6.945400
 20
3.308800
  0
VERTEX
  8
0
  6
CONTINUOUS
 10
6.964320
 20
3.294280
  0
VERTEX
  8
0
  6
CONTINUOUS
 10
6.981920
 20
3.279760
  0
VERTEX
  8
0
  6
CONTINUOUS
 10
6.998200
 20
3.265680
  0
VERTEX
  8
0
  6
CONTINUOUS
 10
7.012280
 20
3.250720
  0
VERTEX
  8
0
  6
CONTINUOUS
 10
7.025040
 20
3.234880
  0
VERTEX
  8
0
  6
CONTINUOUS
 10
7.035600
 20
3.218160
  0
VERTEX
  8
0
  6
CONTINUOUS
 10
7.040000
 20
3.209360
  0
VERTEX
  8
0
  6
CONTINUOUS
 10
7.043960
 20
3.199680
  0
VERTEX
  8
0
  6
CONTINUOUS
 10
7.047480
 20
3.190000
  0
VERTEX
  8
0
  6
CONTINUOUS
 10
7.050120
 20
3.179880
  0
VERTEX
  8
0
  6
CONTINUOUS
 10
7.052320
 20
3.168880
  0
VERTEX
  8
0
  6
CONTINUOUS
 10
7.054080
 20
3.157440
  0
VERTEX
  8
0
  6
CONTINUOUS
 10
7.054960
 20
3.145560
  0
VERTEX
  8
0
  6
CONTINUOUS
 10
7.055400
 20
3.132800
  0
VERTEX
  8
0
  6
CONTINUOUS
 10
7.055400
 20
1.379840
  0
VERTEX
  8
0
  6
CONTINUOUS
 10
6.241400
 20
1.379840
  0
VERTEX
  8
0
  6
CONTINUOUS
 10
6.241400
 20
4.004440
  0
VERTEX
  8
0
  6
CONTINUOUS
 10
6.516840
 20
4.004440
  0
VERTEX
  8
0
  6
CONTINUOUS
 10
6.516840
 20
3.849560
  0
VERTEX
  8
0
  6
CONTINUOUS
 10
6.644440
 20
3.849560
  0
VERTEX
  8
0
  6
CONTINUOUS
 10
6.644440
 20
3.846920
  0
SEQEND
  8
0
  0
SOLID
  8
0
 62
    15
 10
4.627040
 20
2.867480
 11
5.272080
 21
3.241040
 12
4.642440
 22
2.856040
 13
5.287040
 23
3.230040
  0
POLYLINE
  8
0
  6
CONTINUOUS
 66
     1
 40
0.000000
 41
0.000000
  0
VERTEX
  8
0
  6
CONTINUOUS
 10
4.627040
 20
2.867480
  0
VERTEX
  8
0
  6
CONTINUOUS
 10
5.272080
 20
3.241040
  0
VERTEX
  8
0
  6
CONTINUOUS
 10
5.287040
 20
3.230040
  0
VERTEX
  8
0
  6
CONTINUOUS
 10
4.642440
 20
2.856040
  0
VERTEX
  8
0
  6
CONTINUOUS
 10
4.627040
 20
2.867480
  0
SEQEND
  8
0
  0
SOLID
  8
0
 62
    15
 10
4.342800
 20
3.351920
 11
4.987840
 21
3.725480
 12
4.348960
 22
3.302640
 13
4.993560
 23
3.676640
  0
POLYLINE
  8
0
  6
CONTINUOUS
 66
     1
 40
0.000000
 41
0.000000
  0
VERTEX
  8
0
  6
CONTINUOUS
 10
4.342800
 20
3.351920
  0
VERTEX
  8
0
  6
CONTINUOUS
 10
4.987840
 20
3.725480
  0
VERTEX
  8
0
  6
CONTINUOUS
 10
4.993560
 20
3.676640
  0
VERTEX
  8
0
  6
CONTINUOUS
 10
4.348960
 20
3.302640
  0
VERTEX
  8
0
  6
CONTINUOUS
 10
4.342800
 20
3.351920
  0
SEQEND
  8
0
  0
SOLID
  8
0
 62
    15
 10
4.348960
 20
3.302640
 11
4.993560
 21
3.676640
 12
4.359520
 22
3.248520
 13
5.004560
 23
3.622520
  0
POLYLINE
  8
0
  6
CONTINUOUS
 66
     1
 40
0.000000
 41
0.000000
  0
VERTEX
  8
0
  6
CONTINUOUS
 10
4.348960
 20
3.302640
  0
VERTEX
  8
0
  6
CONTINUOUS
 10
4.993560
 20
3.676640
  0
VERTEX
  8
0
  6
CONTINUOUS
 10
5.004560
 20
3.622520
  0
VERTEX
  8
0
  6
CONTINUOUS
 10
4.359520
 20
3.248520
  0
VERTEX
  8
0
  6
CONTINUOUS
 10
4.348960
 20
3.302640
  0
SEQEND
  8
0
  0
SOLID
  8
0
 62
    15
 10
4.359520
 20
3.248520
 11
5.004560
 21
3.622520
 12
4.375800
 22
3.191320
 13
5.020840
 23
3.565320
  0
POLYLINE
  8
0
  6
CONTINUOUS
 66
     1
 40
0.000000
 41
0.000000
  0
VERTEX
  8
0
  6
CONTINUOUS
 10
4.359520
 20
3.248520
  0
VERTEX
  8
0
  6
CONTINUOUS
 10
5.004560
 20
3.622520
  0
VERTEX
  8
0
  6
CONTINUOUS
 10
5.020840
 20
3.565320
  0
VERTEX
  8
0
  6
CONTINUOUS
 10
4.375800
 20
3.191320
  0
VERTEX
  8
0
  6
CONTINUOUS
 10
4.359520
 20
3.248520
  0
SEQEND
  8
0
  0
SOLID
  8
0
 62
    15
 10
4.375800
 20
3.191320
 11
5.020840
 21
3.565320
 12
4.398240
 22
3.132800
 13
5.042840
 23
3.506360
  0
POLYLINE
  8
0
  6
CONTINUOUS
 66
     1
 40
0.000000
 41
0.000000
  0
VERTEX
  8
0
  6
CONTINUOUS
 10
4.375800
 20
3.191320
  0
VERTEX
  8
0
  6
CONTINUOUS
 10
5.020840
 20
3.565320
  0
VERTEX
  8
0
  6
CONTINUOUS
 10
5.042840
 20
3.506360
  0
VERTEX
  8
0
  6
CONTINUOUS
 10
4.398240
 20
3.132800
  0
VERTEX
  8
0
  6
CONTINUOUS
 10
4.375800
 20
3.191320
  0
SEQEND
  8
0
  0
SOLID
  8
0
 62
    15
 10
4.398240
 20
3.132800
 11
5.042840
 21
3.506360
 12
4.426840
 22
3.074720
 13
5.071880
 23
3.448280
  0
POLYLINE
  8
0
  6
CONTINUOUS
 66
     1
 40
0.000000
 41
0.000000
  0
VERTEX
  8
0
  6
CONTINUOUS
 10
4.398240
 20
3.132800
  0
VERTEX
  8
0
  6
CONTINUOUS
 10
5.042840
 20
3.506360
  0
VERTEX
  8
0
  6
CONTINUOUS
 10
5.071880
 20
3.448280
  0
VERTEX
  8
0
  6
CONTINUOUS
 10
4.426840
 20
3.074720
  0
VERTEX
  8
0
  6
CONTINUOUS
 10
4.398240
 20
3.132800
  0
SEQEND
  8
0
  0
SOLID
  8
0
 62
    15
 10
4.426840
 20
3.074720
 11
5.071880
 21
3.448280
 12
4.463360
 22
3.018840
 13
5.108400
 23
3.392840
  0
POLYLINE
  8
0
  6
CONTINUOUS
 66
     1
 40
0.000000
 41
0.000000
  0
VERTEX
  8
0
  6
CONTINUOUS
 10
4.426840
 20
3.074720
  0
VERTEX
  8
0
  6
CONTINUOUS
 10
5.071880
 20
3.448280
  0
VERTEX
  8
0
  6
CONTINUOUS
 10
5.108400
 20
3.392840
  0
VERTEX
  8
0
  6
CONTINUOUS
 10
4.463360
 20
3.018840
  0
VERTEX
  8
0
  6
CONTINUOUS
 10
4.426840
 20
3.074720
  0
SEQEND
  8
0
  0
SOLID
  8
0
 62
    15
 10
4.463360
 20
3.018840
 11
5.108400
 21
3.392840
 12
4.507800
 22
2.967800
 13
5.152840
 23
3.341360
  0
POLYLINE
  8
0
  6
CONTINUOUS
 66
     1
 40
0.000000
 41
0.000000
  0
VERTEX
  8
0
  6
CONTINUOUS
 10
4.463360
 20
3.018840
  0
VERTEX
  8
0
  6
CONTINUOUS
 10
5.108400
 20
3.392840
  0
VERTEX
  8
0
  6
CONTINUOUS
 10
5.152840
 20
3.341360
  0
VERTEX
  8
0
  6
CONTINUOUS
 10
4.507800
 20
2.967800
  0
VERTEX
  8
0
  6
CONTINUOUS
 10
4.463360
 20
3.018840
  0
SEQEND
  8
0
  0
SOLID
  8
0
 62
    15
 10
4.507800
 20
2.967800
 11
5.152840
 21
3.341360
 12
4.555760
 22
2.923800
 13
5.200800
 23
3.297360
  0
POLYLINE
  8
0
  6
CONTINUOUS
 66
     1
 40
0.000000
 41
0.000000
  0
VERTEX
  8
0
  6
CONTINUOUS
 10
4.507800
 20
2.967800
  0
VERTEX
  8
0
  6
CONTINUOUS
 10
5.152840
 20
3.341360
  0
VERTEX
  8
0
  6
CONTINUOUS
 10
5.200800
 20
3.297360
  0
VERTEX
  8
0
  6
CONTINUOUS
 10
4.555760
 20
2.923800
  0
VERTEX
  8
0
  6
CONTINUOUS
 10
4.507800
 20
2.967800
  0
SEQEND
  8
0
  0
SOLID
  8
0
 62
    15
 10
4.555760
 20
2.923800
 11
5.200800
 21
3.297360
 12
4.601080
 22
2.887280
 13
5.245680
 23
3.261280
  0
POLYLINE
  8
0
  6
CONTINUOUS
 66
     1
 40
0.000000
 41
0.000000
  0
VERTEX
  8
0
  6
CONTINUOUS
 10
4.555760
 20
2.923800
  0
VERTEX
  8
0
  6
CONTINUOUS
 10
5.200800
 20
3.297360
  0
VERTEX
  8
0
  6
CONTINUOUS
 10
5.245680
 20
3.261280
  0
VERTEX
  8
0
  6
CONTINUOUS
 10
4.601080
 20
2.887280
  0
VERTEX
  8
0
  6
CONTINUOUS
 10
4.555760
 20
2.923800
  0
SEQEND
  8
0
  0
SOLID
  8
0
 62
    15
 10
4.601080
 20
2.887280
 11
5.245680
 21
3.261280
 12
4.627040
 22
2.867480
 13
5.272080
 23
3.241040
  0
POLYLINE
  8
0
  6
CONTINUOUS
 66
     1
 40
0.000000
 41
0.000000
  0
VERTEX
  8
0
  6
CONTINUOUS
 10
4.601080
 20
2.887280
  0
VERTEX
  8
0
  6
CONTINUOUS
 10
5.245680
 20
3.261280
  0
VERTEX
  8
0
  6
CONTINUOUS
 10
5.272080
 20
3.241040
  0
VERTEX
  8
0
  6
CONTINUOUS
 10
4.627040
 20
2.867480
  0
VERTEX
  8
0
  6
CONTINUOUS
 10
4.601080
 20
2.887280
  0
SEQEND
  8
0
  0
SOLID
  8
0
 62
    15
 10
4.341040
 20
3.394160
 11
4.986080
 21
3.768160
 12
4.342800
 22
3.351920
 13
4.987840
 23
3.725480
  0
POLYLINE
  8
0
  6
CONTINUOUS
 66
     1
 40
0.000000
 41
0.000000
  0
VERTEX
  8
0
  6
CONTINUOUS
 10
4.341040
 20
3.394160
  0
VERTEX
  8
0
  6
CONTINUOUS
 10
4.986080
 20
3.768160
  0
VERTEX
  8
0
  6
CONTINUOUS
 10
4.987840
 20
3.725480
  0
VERTEX
  8
0
  6
CONTINUOUS
 10
4.342800
 20
3.351920
  0
VERTEX
  8
0
  6
CONTINUOUS
 10
4.341040
 20
3.394160
  0
SEQEND
  8
0
  0
SOLID
  8
0
 62
    15
 10
4.642440
 20
2.856040
 11
5.287040
 21
3.230040
 12
4.678960
 22
2.827440
 13
5.323560
 23
3.201000
  0
POLYLINE
  8
0
  6
CONTINUOUS
 66
     1
 40
0.000000
 41
0.000000
  0
VERTEX
  8
0
  6
CONTINUOUS
 10
4.642440
 20
2.856040
  0
VERTEX
  8
0
  6
CONTINUOUS
 10
5.287040
 20
3.230040
  0
VERTEX
  8
0
  6
CONTINUOUS
 10
5.323560
 20
3.201000
  0
VERTEX
  8
0
  6
CONTINUOUS
 10
4.678960
 20
2.827440
  0
VERTEX
  8
0
  6
CONTINUOUS
 10
4.642440
 20
2.856040
  0
SEQEND
  8
0
  0
SOLID
  8
0
 62
    15
 10
4.678960
 20
2.827440
 11
5.323560
 21
3.201000
 12
4.709320
 22
2.797960
 13
5.353920
 23
3.171520
  0
POLYLINE
  8
0
  6
CONTINUOUS
 66
     1
 40
0.000000
 41
0.000000
  0
VERTEX
  8
0
  6
CONTINUOUS
 10
4.678960
 20
2.827440
  0
VERTEX
  8
0
  6
CONTINUOUS
 10
5.323560
 20
3.201000
  0
VERTEX
  8
0
  6
CONTINUOUS
 10
5.353920
 20
3.171520
  0
VERTEX
  8
0
  6
CONTINUOUS
 10
4.709320
 20
2.797960
  0
VERTEX
  8
0
  6
CONTINUOUS
 10
4.678960
 20
2.827440
  0
SEQEND
  8
0
  0
SOLID
  8
0
 62
    15
 10
4.709320
 20
2.797960
 11
5.353920
 21
3.171520
 12
4.732200
 22
2.765400
 13
5.377240
 23
3.138960
  0
POLYLINE
  8
0
  6
CONTINUOUS
 66
     1
 40
0.000000
 41
0.000000
  0
VERTEX
  8
0
  6
CONTINUOUS
 10
4.709320
 20
2.797960
  0
VERTEX
  8
0
  6
CONTINUOUS
 10
5.353920
 20
3.171520
  0
VERTEX
  8
0
  6
CONTINUOUS
 10
5.377240
 20
3.138960
  0
VERTEX
  8
0
  6
CONTINUOUS
 10
4.732200
 20
2.765400
  0
VERTEX
  8
0
  6
CONTINUOUS
 10
4.709320
 20
2.797960
  0
SEQEND
  8
0
  0
SOLID
  8
0
 62
    15
 10
4.732200
 20
2.765400
 11
5.377240
 21
3.138960
 12
4.747160
 22
2.727120
 13
5.391760
 23
3.100680
  0
POLYLINE
  8
0
  6
CONTINUOUS
 66
     1
 40
0.000000
 41
0.000000
  0
VERTEX
  8
0
  6
CONTINUOUS
 10
4.732200
 20
2.765400
  0
VERTEX
  8
0
  6
CONTINUOUS
 10
5.377240
 20
3.138960
  0
VERTEX
  8
0
  6
CONTINUOUS
 10
5.391760
 20
3.100680
  0
VERTEX
  8
0
  6
CONTINUOUS
 10
4.747160
 20
2.727120
  0
VERTEX
  8
0
  6
CONTINUOUS
 10
4.732200
 20
2.765400
  0
SEQEND
  8
0
  0
SOLID
  8
0
 62
    15
 10
4.747160
 20
2.727120
 11
5.391760
 21
3.100680
 12
4.752000
 22
2.680040
 13
5.397040
 23
3.053600
  0
POLYLINE
  8
0
  6
CONTINUOUS
 66
     1
 40
0.000000
 41
0.000000
  0
VERTEX
  8
0
  6
CONTINUOUS
 10
4.747160
 20
2.727120
  0
VERTEX
  8
0
  6
CONTINUOUS
 10
5.391760
 20
3.100680
  0
VERTEX
  8
0
  6
CONTINUOUS
 10
5.397040
 20
3.053600
  0
VERTEX
  8
0
  6
CONTINUOUS
 10
4.752000
 20
2.680040
  0
VERTEX
  8
0
  6
CONTINUOUS
 10
4.747160
 20
2.727120
  0
SEQEND
  8
0
  0
SOLID
  8
0
 62
    15
 10
4.752000
 20
2.680040
 11
5.397040
 21
3.053600
 12
4.752000
 22
0.927080
 13
5.397040
 23
1.301080
  0
POLYLINE
  8
0
  6
CONTINUOUS
 66
     1
 40
0.000000
 41
0.000000
  0
VERTEX
  8
0
  6
CONTINUOUS
 10
4.752000
 20
2.680040
  0
VERTEX
  8
0
  6
CONTINUOUS
 10
5.397040
 20
3.053600
  0
VERTEX
  8
0
  6
CONTINUOUS
 10
5.397040
 20
1.301080
  0
VERTEX
  8
0
  6
CONTINUOUS
 10
4.752000
 20
0.927080
  0
VERTEX
  8
0
  6
CONTINUOUS
 10
4.752000
 20
2.680040
  0
SEQEND
  8
0
  0
SOLID
  8
0
 62
    15
 10
3.938000
 20
3.552120
 11
4.583040
 21
3.925680
 12
4.213440
 22
3.552120
 13
4.858480
 23
3.925680
  0
POLYLINE
  8
0
  6
CONTINUOUS
 66
     1
 40
0.000000
 41
0.000000
  0
VERTEX
  8
0
  6
CONTINUOUS
 10
3.938000
 20
3.552120
  0
VERTEX
  8
0
  6
CONTINUOUS
 10
4.583040
 20
3.925680
  0
VERTEX
  8
0
  6
CONTINUOUS
 10
4.858480
 20
3.925680
  0
VERTEX
  8
0
  6
CONTINUOUS
 10
4.213440
 20
3.552120
  0
VERTEX
  8
0
  6
CONTINUOUS
 10
3.938000
 20
3.552120
  0
SEQEND
  8
0
  0
SOLID
  8
0
 62
    15
 10
4.213440
 20
3.552120
 11
4.858480
 21
3.925680
 12
4.213440
 22
3.396800
 13
4.858480
 23
3.770360
  0
POLYLINE
  8
0
  6
CONTINUOUS
 66
     1
 40
0.000000
 41
0.000000
  0
VERTEX
  8
0
  6
CONTINUOUS
 10
4.213440
 20
3.552120
  0
VERTEX
  8
0
  6
CONTINUOUS
 10
4.858480
 20
3.925680
  0
VERTEX
  8
0
  6
CONTINUOUS
 10
4.858480
 20
3.770360
  0
VERTEX
  8
0
  6
CONTINUOUS
 10
4.213440
 20
3.396800
  0
VERTEX
  8
0
  6
CONTINUOUS
 10
4.213440
 20
3.552120
  0
SEQEND
  8
0
  0
SOLID
  8
0
 62
    15
 10
4.213440
 20
3.396800
 11
4.858480
 21
3.770360
 12
4.341040
 22
3.396800
 13
4.986080
 23
3.770360
  0
POLYLINE
  8
0
  6
CONTINUOUS
 66
     1
 40
0.000000
 41
0.000000
  0
VERTEX
  8
0
  6
CONTINUOUS
 10
4.213440
 20
3.396800
  0
VERTEX
  8
0
  6
CONTINUOUS
 10
4.858480
 20
3.770360
  0
VERTEX
  8
0
  6
CONTINUOUS
 10
4.986080
 20
3.770360
  0
VERTEX
  8
0
  6
CONTINUOUS
 10
4.341040
 20
3.396800
  0
VERTEX
  8
0
  6
CONTINUOUS
 10
4.213440
 20
3.396800
  0
SEQEND
  8
0
  0
SOLID
  8
0
 62
    15
 10
4.341040
 20
3.396800
 11
4.986080
 21
3.770360
 12
4.341040
 22
3.394160
 13
4.986080
 23
3.768160
  0
POLYLINE
  8
0
  6
CONTINUOUS
 66
     1
 40
0.000000
 41
0.000000
  0
VERTEX
  8
0
  6
CONTINUOUS
 10
4.341040
 20
3.396800
  0
VERTEX
  8
0
  6
CONTINUOUS
 10
4.986080
 20
3.770360
  0
VERTEX
  8
0
  6
CONTINUOUS
 10
4.986080
 20
3.768160
  0
VERTEX
  8
0
  6
CONTINUOUS
 10
4.341040
 20
3.394160
  0
VERTEX
  8
0
  6
CONTINUOUS
 10
4.341040
 20
3.396800
  0
SEQEND
  8
0
  0
POLYLINE
  8
0
  6
CONTINUOUS
 66
     1
 40
0.000000
 41
0.000000
  0
VERTEX
  8
0
  6
CONTINUOUS
 10
4.341040
 20
3.394160
  0
VERTEX
  8
0
  6
CONTINUOUS
 10
4.342800
 20
3.351920
  0
VERTEX
  8
0
  6
CONTINUOUS
 10
4.348960
 20
3.302640
  0
VERTEX
  8
0
  6
CONTINUOUS
 10
4.359520
 20
3.248520
  0
VERTEX
  8
0
  6
CONTINUOUS
 10
4.375800
 20
3.191320
  0
VERTEX
  8
0
  6
CONTINUOUS
 10
4.398240
 20
3.132800
  0
VERTEX
  8
0
  6
CONTINUOUS
 10
4.426840
 20
3.074720
  0
VERTEX
  8
0
  6
CONTINUOUS
 10
4.463360
 20
3.018840
  0
VERTEX
  8
0
  6
CONTINUOUS
 10
4.507800
 20
2.967800
  0
VERTEX
  8
0
  6
CONTINUOUS
 10
4.555760
 20
2.923800
  0
VERTEX
  8
0
  6
CONTINUOUS
 10
4.601080
 20
2.887280
  0
VERTEX
  8
0
  6
CONTINUOUS
 10
4.627040
 20
2.867480
  0
VERTEX
  8
0
  6
CONTINUOUS
 10
4.642440
 20
2.856040
  0
VERTEX
  8
0
  6
CONTINUOUS
 10
4.678960
 20
2.827440
  0
VERTEX
  8
0
  6
CONTINUOUS
 10
4.709320
 20
2.797960
  0
VERTEX
  8
0
  6
CONTINUOUS
 10
4.732200
 20
2.765400
  0
VERTEX
  8
0
  6
CONTINUOUS
 10
4.747160
 20
2.727120
  0
VERTEX
  8
0
  6
CONTINUOUS
 10
4.752000
 20
2.680040
  0
VERTEX
  8
0
  6
CONTINUOUS
 10
4.752000
 20
0.927080
  0
VERTEX
  8
0
  6
CONTINUOUS
 10
3.938000
 20
0.927080
  0
VERTEX
  8
0
  6
CONTINUOUS
 10
3.938000
 20
3.552120
  0
VERTEX
  8
0
  6
CONTINUOUS
 10
4.213440
 20
3.552120
  0
VERTEX
  8
0
  6
CONTINUOUS
 10
4.213440
 20
3.396800
  0
VERTEX
  8
0
  6
CONTINUOUS
 10
4.341040
 20
3.396800
  0
VERTEX
  8
0
  6
CONTINUOUS
 10
4.341040
 20
3.394160
  0
SEQEND
  8
0
  0
TEXT
  8
0
 10
4.371400
 20
0.676280
 40
0.138128
  1
BA  477
 41
1.000000
  7
SN0
 71
     0
 72
     5
 11
4.961263
 21
0.676280
  0
TEXT
  8
0
 10
4.123240
 20
0.484440
 40
0.138128
  1
13/16" x 2-5/8"
 41
1.000000
  7
SN0
 71
     0
 72
     5
 11
5.207274
 21
0.484440
  0
ENDSEC
  0
EOF
