  0
SECTION
  2
HEADER
  9
$ACADVER
  1
AC1006
  9
$EXTMIN
 10
4.673680
 20
0.483560
  9
$EXTMAX
 10
7.967520
 20
2.211440
  9
$LTSCALE
 40
0.044000
  9
$PDMODE
 70
    35
  9
$PDSIZE
 40
0.035200
  0
ENDSEC
  0
SECTION
  2
TABLES
  0
TABLE
  2
LTYPE
 70
     9
  0
LTYPE
  2
CONTINUOUS
 70
    64
  3
Solid line
 72
    65
 73
     0
 40
0.000000
  0
LTYPE
  2
DASHED
 70
    64
  3
__ __ __ __ __ __ __ __ __ __ __ __ __ __ __
 72
    65
 73
     2
 40
0.000330
 49
0.000220
 49
-0.000110
  0
LTYPE
  2
HIDDEN
 70
    64
  3
 _ _ _ _ _ _ _ _ _ _ _ _ _ _ _ _ _ _ _ _ _ _
 72
    65
 73
     2
 40
0.000165
 49
0.000110
 49
-0.000055
  0
LTYPE
  2
CENTER
 70
    64
  3
____ _ ____ _ ____ _ ____ _ ____ _ ____ _ ____
 72
    65
 73
     4
 40
0.000880
 49
0.000550
 49
-0.000110
 49
0.000110
 49
-0.000110
  0
LTYPE
  2
PHANTOM
 70
    64
  3
_____ _ _ _____ _ _ _____ _ _ _____ _ _ ____
 72
    65
 73
     6
 40
0.001100
 49
0.000550
 49
-0.000110
 49
0.000110
 49
-0.000110
 49
0.000110
 49
-0.000110
  0
LTYPE
  2
DOT
 70
    64
  3
...............................................
 72
    65
 73
     2
 40
0.000110
 49
0.000000
 49
-0.000110
  0
LTYPE
  2
DASHDOT
 70
    64
  3
__ . __ . __ . __ . __ . __ . __ . __ . __ . __
 72
    65
 73
     4
 40
0.000440
 49
0.000220
 49
-0.000110
 49
0.000000
 49
-0.000110
  0
LTYPE
  2
BORDER
 70
    64
  3
__ __ . __ __ . __ __ . __ __ . __ __ . __ __
 72
    65
 73
     6
 40
0.000770
 49
0.000220
 49
-0.000110
 49
0.000220
 49
-0.000110
 49
0.000000
 49
-0.000110
  0
LTYPE
  2
DIVIDE
 70
    64
  3
__ . . __ . . __ . . __ . . __ . . __ . . __
 72
    65
 73
     6
 40
0.000550
 49
0.000220
 49
-0.000110
 49
0.000000
 49
-0.000110
 49
0.000000
 49
-0.000110
  0
LTYPE
  2
DOTDOT
 70
    64
  3
 . .  . .  . .  . .  . .  . . 
 72
    65
 73
     5
 40
0.000242
 49
-0.000110
 49
0.000000
 49
-0.000110
 49
0.000000
 49
-0.000110
  0
ENDTAB
  0
TABLE
  2
STYLE
 70
     2
  0
STYLE
 70
     0
  2
SN0
 40
0.000000
 41
0.000440
 50
0.000000
 71
     0
 42
0.000000
  3
ROMAND
  0
STYLE
 70
    68
  2
SV0
 40
0.000000
 41
0.000440
 50
0.000000
 71
     0
 42
0.000000
  3
ROMAND
  0
ENDTAB
  0
TABLE
  2
LAYER
 70
     3
  0
LAYER
  2
FOREGROUND
 70
    64
 62
     7
  6
CONTINUOUS
  0
LAYER
  2
BACKGROUND
 70
    65
 62
    -7
  6
CONTINUOUS
  0
LAYER
  2
0
 70
    64
 62
     7
  6
CONTINUOUS
  0
ENDTAB
  0
ENDSEC
  0
SECTION
  2
ENTITIES
  0
SOLID
  8
FOREGROUND
 62
     7
 10
0.000000
 20
2.695000
 11
8.499920
 21
2.695000
 12
0.000000
 22
-8.305000
 13
8.499920
 23
-8.305000
  0
POLYLINE
  8
FOREGROUND
 62
     7
  6
CONTINUOUS
 66
     1
 40
0.000000
 41
0.000000
  0
VERTEX
  8
FOREGROUND
 62
     7
  6
CONTINUOUS
 10
0.000000
 20
2.695000
  0
VERTEX
  8
FOREGROUND
 62
     7
  6
CONTINUOUS
 10
8.499920
 20
2.695000
  0
VERTEX
  8
FOREGROUND
 62
     7
  6
CONTINUOUS
 10
8.499920
 20
-8.305000
  0
VERTEX
  8
FOREGROUND
 62
     7
  6
CONTINUOUS
 10
0.000000
 20
-8.305000
  0
VERTEX
  8
FOREGROUND
 62
     7
  6
CONTINUOUS
 10
0.000000
 20
2.695000
  0
SEQEND
  8
0
  0
TEXT
  8
0
 10
5.235120
 20
0.718080
 40
0.138140
  1
BA  476
 41
1.000000
  7
SN0
 71
     0
 72
     5
 11
5.825376
 21
0.718080
  0
TEXT
  8
0
 10
4.968480
 20
0.526680
 40
0.138140
  1
13/16" x 15/16"
 41
1.000000
  7
SN0
 71
     0
 72
     5
 11
6.091021
 21
0.526680
  0
SOLID
  8
0
 62
    15
 10
5.376800
 20
1.444960
 11
6.021840
 21
1.815880
 12
5.406720
 22
1.438800
 13
6.051760
 23
1.809720
  0
POLYLINE
  8
0
  6
CONTINUOUS
 66
     1
 40
0.000000
 41
0.000000
  0
VERTEX
  8
0
  6
CONTINUOUS
 10
5.376800
 20
1.444960
  0
VERTEX
  8
0
  6
CONTINUOUS
 10
6.021840
 20
1.815880
  0
VERTEX
  8
0
  6
CONTINUOUS
 10
6.051760
 20
1.809720
  0
VERTEX
  8
0
  6
CONTINUOUS
 10
5.406720
 20
1.438800
  0
VERTEX
  8
0
  6
CONTINUOUS
 10
5.376800
 20
1.444960
  0
SEQEND
  8
0
  0
SOLID
  8
0
 62
     7
 10
4.836920
 20
1.839640
 11
5.481960
 21
2.210560
 12
4.836920
 22
1.837880
 13
5.481960
 23
2.208800
  0
POLYLINE
  8
0
  6
CONTINUOUS
 66
     1
 40
0.000000
 41
0.000000
  0
VERTEX
  8
0
  6
CONTINUOUS
 10
4.836920
 20
1.839640
  0
VERTEX
  8
0
  6
CONTINUOUS
 10
5.481960
 20
2.210560
  0
VERTEX
  8
0
  6
CONTINUOUS
 10
5.481960
 20
2.208800
  0
VERTEX
  8
0
  6
CONTINUOUS
 10
4.836920
 20
1.837880
  0
VERTEX
  8
0
  6
CONTINUOUS
 10
4.836920
 20
1.839640
  0
SEQEND
  8
0
  0
SOLID
  8
0
 62
     7
 10
4.836920
 20
1.837880
 11
5.481960
 21
2.208800
 12
4.839560
 22
1.796080
 13
5.484600
 23
2.167000
  0
POLYLINE
  8
0
  6
CONTINUOUS
 66
     1
 40
0.000000
 41
0.000000
  0
VERTEX
  8
0
  6
CONTINUOUS
 10
4.836920
 20
1.837880
  0
VERTEX
  8
0
  6
CONTINUOUS
 10
5.481960
 20
2.208800
  0
VERTEX
  8
0
  6
CONTINUOUS
 10
5.484600
 20
2.167000
  0
VERTEX
  8
0
  6
CONTINUOUS
 10
4.839560
 20
1.796080
  0
VERTEX
  8
0
  6
CONTINUOUS
 10
4.836920
 20
1.837880
  0
SEQEND
  8
0
  0
SOLID
  8
0
 62
     7
 10
4.839560
 20
1.796080
 11
5.484600
 21
2.167000
 12
4.847480
 22
1.763960
 13
5.492520
 23
2.134880
  0
POLYLINE
  8
0
  6
CONTINUOUS
 66
     1
 40
0.000000
 41
0.000000
  0
VERTEX
  8
0
  6
CONTINUOUS
 10
4.839560
 20
1.796080
  0
VERTEX
  8
0
  6
CONTINUOUS
 10
5.484600
 20
2.167000
  0
VERTEX
  8
0
  6
CONTINUOUS
 10
5.492520
 20
2.134880
  0
VERTEX
  8
0
  6
CONTINUOUS
 10
4.847480
 20
1.763960
  0
VERTEX
  8
0
  6
CONTINUOUS
 10
4.839560
 20
1.796080
  0
SEQEND
  8
0
  0
SOLID
  8
0
 62
     7
 10
4.847480
 20
1.763960
 11
5.492520
 21
2.134880
 12
4.860240
 22
1.740640
 13
5.505280
 23
2.111560
  0
POLYLINE
  8
0
  6
CONTINUOUS
 66
     1
 40
0.000000
 41
0.000000
  0
VERTEX
  8
0
  6
CONTINUOUS
 10
4.847480
 20
1.763960
  0
VERTEX
  8
0
  6
CONTINUOUS
 10
5.492520
 20
2.134880
  0
VERTEX
  8
0
  6
CONTINUOUS
 10
5.505280
 20
2.111560
  0
VERTEX
  8
0
  6
CONTINUOUS
 10
4.860240
 20
1.740640
  0
VERTEX
  8
0
  6
CONTINUOUS
 10
4.847480
 20
1.763960
  0
SEQEND
  8
0
  0
SOLID
  8
0
 62
     7
 10
4.860240
 20
1.740640
 11
5.505280
 21
2.111560
 12
4.876960
 22
1.724360
 13
5.522000
 23
2.095280
  0
POLYLINE
  8
0
  6
CONTINUOUS
 66
     1
 40
0.000000
 41
0.000000
  0
VERTEX
  8
0
  6
CONTINUOUS
 10
4.860240
 20
1.740640
  0
VERTEX
  8
0
  6
CONTINUOUS
 10
5.505280
 20
2.111560
  0
VERTEX
  8
0
  6
CONTINUOUS
 10
5.522000
 20
2.095280
  0
VERTEX
  8
0
  6
CONTINUOUS
 10
4.876960
 20
1.724360
  0
VERTEX
  8
0
  6
CONTINUOUS
 10
4.860240
 20
1.740640
  0
SEQEND
  8
0
  0
SOLID
  8
0
 62
    15
 10
4.876960
 20
1.724360
 11
5.522000
 21
2.095280
 12
4.897640
 22
1.714240
 13
5.542680
 23
2.085160
  0
POLYLINE
  8
0
  6
CONTINUOUS
 66
     1
 40
0.000000
 41
0.000000
  0
VERTEX
  8
0
  6
CONTINUOUS
 10
4.876960
 20
1.724360
  0
VERTEX
  8
0
  6
CONTINUOUS
 10
5.522000
 20
2.095280
  0
VERTEX
  8
0
  6
CONTINUOUS
 10
5.542680
 20
2.085160
  0
VERTEX
  8
0
  6
CONTINUOUS
 10
4.897640
 20
1.714240
  0
VERTEX
  8
0
  6
CONTINUOUS
 10
4.876960
 20
1.724360
  0
SEQEND
  8
0
  0
SOLID
  8
0
 62
    15
 10
4.897640
 20
1.714240
 11
5.542680
 21
2.085160
 12
4.921400
 22
1.708520
 13
5.566440
 23
2.079440
  0
POLYLINE
  8
0
  6
CONTINUOUS
 66
     1
 40
0.000000
 41
0.000000
  0
VERTEX
  8
0
  6
CONTINUOUS
 10
4.897640
 20
1.714240
  0
VERTEX
  8
0
  6
CONTINUOUS
 10
5.542680
 20
2.085160
  0
VERTEX
  8
0
  6
CONTINUOUS
 10
5.566440
 20
2.079440
  0
VERTEX
  8
0
  6
CONTINUOUS
 10
4.921400
 20
1.708520
  0
VERTEX
  8
0
  6
CONTINUOUS
 10
4.897640
 20
1.714240
  0
SEQEND
  8
0
  0
SOLID
  8
0
 62
    15
 10
4.921400
 20
1.708520
 11
5.566440
 21
2.079440
 12
4.978600
 22
1.706320
 13
5.623640
 23
2.077240
  0
POLYLINE
  8
0
  6
CONTINUOUS
 66
     1
 40
0.000000
 41
0.000000
  0
VERTEX
  8
0
  6
CONTINUOUS
 10
4.921400
 20
1.708520
  0
VERTEX
  8
0
  6
CONTINUOUS
 10
5.566440
 20
2.079440
  0
VERTEX
  8
0
  6
CONTINUOUS
 10
5.623640
 20
2.077240
  0
VERTEX
  8
0
  6
CONTINUOUS
 10
4.978600
 20
1.706320
  0
VERTEX
  8
0
  6
CONTINUOUS
 10
4.921400
 20
1.708520
  0
SEQEND
  8
0
  0
SOLID
  8
0
 62
     7
 10
4.978600
 20
1.706320
 11
5.623640
 21
2.077240
 12
4.978600
 22
1.589720
 13
5.623640
 23
1.960640
  0
POLYLINE
  8
0
  6
CONTINUOUS
 66
     1
 40
0.000000
 41
0.000000
  0
VERTEX
  8
0
  6
CONTINUOUS
 10
4.978600
 20
1.706320
  0
VERTEX
  8
0
  6
CONTINUOUS
 10
5.623640
 20
2.077240
  0
VERTEX
  8
0
  6
CONTINUOUS
 10
5.623640
 20
1.960640
  0
VERTEX
  8
0
  6
CONTINUOUS
 10
4.978600
 20
1.589720
  0
VERTEX
  8
0
  6
CONTINUOUS
 10
4.978600
 20
1.706320
  0
SEQEND
  8
0
  0
SOLID
  8
0
 62
    15
 10
4.978600
 20
1.589720
 11
5.623640
 21
1.960640
 12
5.345120
 22
1.589720
 13
5.990160
 23
1.960640
  0
POLYLINE
  8
0
  6
CONTINUOUS
 66
     1
 40
0.000000
 41
0.000000
  0
VERTEX
  8
0
  6
CONTINUOUS
 10
4.978600
 20
1.589720
  0
VERTEX
  8
0
  6
CONTINUOUS
 10
5.623640
 20
1.960640
  0
VERTEX
  8
0
  6
CONTINUOUS
 10
5.990160
 20
1.960640
  0
VERTEX
  8
0
  6
CONTINUOUS
 10
5.345120
 20
1.589720
  0
VERTEX
  8
0
  6
CONTINUOUS
 10
4.978600
 20
1.589720
  0
SEQEND
  8
0
  0
SOLID
  8
0
 62
     7
 10
5.345120
 20
1.589720
 11
5.990160
 21
1.960640
 12
5.345120
 22
1.445840
 13
5.990160
 23
1.816760
  0
POLYLINE
  8
0
  6
CONTINUOUS
 66
     1
 40
0.000000
 41
0.000000
  0
VERTEX
  8
0
  6
CONTINUOUS
 10
5.345120
 20
1.589720
  0
VERTEX
  8
0
  6
CONTINUOUS
 10
5.990160
 20
1.960640
  0
VERTEX
  8
0
  6
CONTINUOUS
 10
5.990160
 20
1.816760
  0
VERTEX
  8
0
  6
CONTINUOUS
 10
5.345120
 20
1.445840
  0
VERTEX
  8
0
  6
CONTINUOUS
 10
5.345120
 20
1.589720
  0
SEQEND
  8
0
  0
SOLID
  8
0
 62
    15
 10
5.345120
 20
1.445840
 11
5.990160
 21
1.816760
 12
5.376800
 22
1.444960
 13
6.021840
 23
1.815880
  0
POLYLINE
  8
0
  6
CONTINUOUS
 66
     1
 40
0.000000
 41
0.000000
  0
VERTEX
  8
0
  6
CONTINUOUS
 10
5.345120
 20
1.445840
  0
VERTEX
  8
0
  6
CONTINUOUS
 10
5.990160
 20
1.816760
  0
VERTEX
  8
0
  6
CONTINUOUS
 10
6.021840
 20
1.815880
  0
VERTEX
  8
0
  6
CONTINUOUS
 10
5.376800
 20
1.444960
  0
VERTEX
  8
0
  6
CONTINUOUS
 10
5.345120
 20
1.445840
  0
SEQEND
  8
0
  0
SOLID
  8
0
 62
    15
 10
4.680720
 20
1.839640
 11
5.325760
 21
2.210560
 12
4.836920
 22
1.839640
 13
5.481960
 23
2.210560
  0
POLYLINE
  8
0
  6
CONTINUOUS
 66
     1
 40
0.000000
 41
0.000000
  0
VERTEX
  8
0
  6
CONTINUOUS
 10
4.680720
 20
1.839640
  0
VERTEX
  8
0
  6
CONTINUOUS
 10
5.325760
 20
2.210560
  0
VERTEX
  8
0
  6
CONTINUOUS
 10
5.481960
 20
2.210560
  0
VERTEX
  8
0
  6
CONTINUOUS
 10
4.836920
 20
1.839640
  0
VERTEX
  8
0
  6
CONTINUOUS
 10
4.680720
 20
1.839640
  0
SEQEND
  8
0
  0
SOLID
  8
0
 62
    15
 10
5.406720
 20
1.438800
 11
6.051760
 21
1.809720
 12
5.435320
 22
1.428680
 13
6.079920
 23
1.799600
  0
POLYLINE
  8
0
  6
CONTINUOUS
 66
     1
 40
0.000000
 41
0.000000
  0
VERTEX
  8
0
  6
CONTINUOUS
 10
5.406720
 20
1.438800
  0
VERTEX
  8
0
  6
CONTINUOUS
 10
6.051760
 20
1.809720
  0
VERTEX
  8
0
  6
CONTINUOUS
 10
6.079920
 20
1.799600
  0
VERTEX
  8
0
  6
CONTINUOUS
 10
5.435320
 20
1.428680
  0
VERTEX
  8
0
  6
CONTINUOUS
 10
5.406720
 20
1.438800
  0
SEQEND
  8
0
  0
SOLID
  8
0
 62
    15
 10
5.435320
 20
1.428680
 11
6.079920
 21
1.799600
 12
5.460840
 22
1.415480
 13
6.105880
 23
1.786400
  0
POLYLINE
  8
0
  6
CONTINUOUS
 66
     1
 40
0.000000
 41
0.000000
  0
VERTEX
  8
0
  6
CONTINUOUS
 10
5.435320
 20
1.428680
  0
VERTEX
  8
0
  6
CONTINUOUS
 10
6.079920
 20
1.799600
  0
VERTEX
  8
0
  6
CONTINUOUS
 10
6.105880
 20
1.786400
  0
VERTEX
  8
0
  6
CONTINUOUS
 10
5.460840
 20
1.415480
  0
VERTEX
  8
0
  6
CONTINUOUS
 10
5.435320
 20
1.428680
  0
SEQEND
  8
0
  0
SOLID
  8
0
 62
     7
 10
5.460840
 20
1.415480
 11
6.105880
 21
1.786400
 12
5.483280
 22
1.399200
 13
6.128320
 23
1.770120
  0
POLYLINE
  8
0
  6
CONTINUOUS
 66
     1
 40
0.000000
 41
0.000000
  0
VERTEX
  8
0
  6
CONTINUOUS
 10
5.460840
 20
1.415480
  0
VERTEX
  8
0
  6
CONTINUOUS
 10
6.105880
 20
1.786400
  0
VERTEX
  8
0
  6
CONTINUOUS
 10
6.128320
 20
1.770120
  0
VERTEX
  8
0
  6
CONTINUOUS
 10
5.483280
 20
1.399200
  0
VERTEX
  8
0
  6
CONTINUOUS
 10
5.460840
 20
1.415480
  0
SEQEND
  8
0
  0
SOLID
  8
0
 62
     7
 10
5.483280
 20
1.399200
 11
6.128320
 21
1.770120
 12
5.502200
 22
1.381600
 13
6.147240
 23
1.752520
  0
POLYLINE
  8
0
  6
CONTINUOUS
 66
     1
 40
0.000000
 41
0.000000
  0
VERTEX
  8
0
  6
CONTINUOUS
 10
5.483280
 20
1.399200
  0
VERTEX
  8
0
  6
CONTINUOUS
 10
6.128320
 20
1.770120
  0
VERTEX
  8
0
  6
CONTINUOUS
 10
6.147240
 20
1.752520
  0
VERTEX
  8
0
  6
CONTINUOUS
 10
5.502200
 20
1.381600
  0
VERTEX
  8
0
  6
CONTINUOUS
 10
5.483280
 20
1.399200
  0
SEQEND
  8
0
  0
SOLID
  8
0
 62
     7
 10
5.502200
 20
1.381600
 11
6.147240
 21
1.752520
 12
5.516720
 22
1.362680
 13
6.161760
 23
1.733600
  0
POLYLINE
  8
0
  6
CONTINUOUS
 66
     1
 40
0.000000
 41
0.000000
  0
VERTEX
  8
0
  6
CONTINUOUS
 10
5.502200
 20
1.381600
  0
VERTEX
  8
0
  6
CONTINUOUS
 10
6.147240
 20
1.752520
  0
VERTEX
  8
0
  6
CONTINUOUS
 10
6.161760
 20
1.733600
  0
VERTEX
  8
0
  6
CONTINUOUS
 10
5.516720
 20
1.362680
  0
VERTEX
  8
0
  6
CONTINUOUS
 10
5.502200
 20
1.381600
  0
SEQEND
  8
0
  0
SOLID
  8
0
 62
     7
 10
5.516720
 20
1.362680
 11
6.161760
 21
1.733600
 12
5.526400
 22
1.343760
 13
6.171440
 23
1.715120
  0
POLYLINE
  8
0
  6
CONTINUOUS
 66
     1
 40
0.000000
 41
0.000000
  0
VERTEX
  8
0
  6
CONTINUOUS
 10
5.516720
 20
1.362680
  0
VERTEX
  8
0
  6
CONTINUOUS
 10
6.161760
 20
1.733600
  0
VERTEX
  8
0
  6
CONTINUOUS
 10
6.171440
 20
1.715120
  0
VERTEX
  8
0
  6
CONTINUOUS
 10
5.526400
 20
1.343760
  0
VERTEX
  8
0
  6
CONTINUOUS
 10
5.516720
 20
1.362680
  0
SEQEND
  8
0
  0
SOLID
  8
0
 62
     7
 10
5.526400
 20
1.343760
 11
6.171440
 21
1.715120
 12
5.536080
 22
1.321320
 13
6.181120
 23
1.692680
  0
POLYLINE
  8
0
  6
CONTINUOUS
 66
     1
 40
0.000000
 41
0.000000
  0
VERTEX
  8
0
  6
CONTINUOUS
 10
5.526400
 20
1.343760
  0
VERTEX
  8
0
  6
CONTINUOUS
 10
6.171440
 20
1.715120
  0
VERTEX
  8
0
  6
CONTINUOUS
 10
6.181120
 20
1.692680
  0
VERTEX
  8
0
  6
CONTINUOUS
 10
5.536080
 20
1.321320
  0
VERTEX
  8
0
  6
CONTINUOUS
 10
5.526400
 20
1.343760
  0
SEQEND
  8
0
  0
SOLID
  8
0
 62
     7
 10
5.536080
 20
1.321320
 11
6.181120
 21
1.692680
 12
5.554120
 22
1.294040
 13
6.199160
 23
1.664960
  0
POLYLINE
  8
0
  6
CONTINUOUS
 66
     1
 40
0.000000
 41
0.000000
  0
VERTEX
  8
0
  6
CONTINUOUS
 10
5.536080
 20
1.321320
  0
VERTEX
  8
0
  6
CONTINUOUS
 10
6.181120
 20
1.692680
  0
VERTEX
  8
0
  6
CONTINUOUS
 10
6.199160
 20
1.664960
  0
VERTEX
  8
0
  6
CONTINUOUS
 10
5.554120
 20
1.294040
  0
VERTEX
  8
0
  6
CONTINUOUS
 10
5.536080
 20
1.321320
  0
SEQEND
  8
0
  0
SOLID
  8
0
 62
     7
 10
5.554120
 20
1.294040
 11
6.199160
 21
1.664960
 12
5.582280
 22
1.270280
 13
6.226880
 23
1.641200
  0
POLYLINE
  8
0
  6
CONTINUOUS
 66
     1
 40
0.000000
 41
0.000000
  0
VERTEX
  8
0
  6
CONTINUOUS
 10
5.554120
 20
1.294040
  0
VERTEX
  8
0
  6
CONTINUOUS
 10
6.199160
 20
1.664960
  0
VERTEX
  8
0
  6
CONTINUOUS
 10
6.226880
 20
1.641200
  0
VERTEX
  8
0
  6
CONTINUOUS
 10
5.582280
 20
1.270280
  0
VERTEX
  8
0
  6
CONTINUOUS
 10
5.554120
 20
1.294040
  0
SEQEND
  8
0
  0
SOLID
  8
0
 62
    15
 10
5.582280
 20
1.270280
 11
6.226880
 21
1.641200
 12
5.600760
 22
1.262360
 13
6.245360
 23
1.633280
  0
POLYLINE
  8
0
  6
CONTINUOUS
 66
     1
 40
0.000000
 41
0.000000
  0
VERTEX
  8
0
  6
CONTINUOUS
 10
5.582280
 20
1.270280
  0
VERTEX
  8
0
  6
CONTINUOUS
 10
6.226880
 20
1.641200
  0
VERTEX
  8
0
  6
CONTINUOUS
 10
6.245360
 20
1.633280
  0
VERTEX
  8
0
  6
CONTINUOUS
 10
5.600760
 20
1.262360
  0
VERTEX
  8
0
  6
CONTINUOUS
 10
5.582280
 20
1.270280
  0
SEQEND
  8
0
  0
SOLID
  8
0
 62
    15
 10
5.600760
 20
1.262360
 11
6.245360
 21
1.633280
 12
5.622320
 22
1.258400
 13
6.267360
 23
1.629320
  0
POLYLINE
  8
0
  6
CONTINUOUS
 66
     1
 40
0.000000
 41
0.000000
  0
VERTEX
  8
0
  6
CONTINUOUS
 10
5.600760
 20
1.262360
  0
VERTEX
  8
0
  6
CONTINUOUS
 10
6.245360
 20
1.633280
  0
VERTEX
  8
0
  6
CONTINUOUS
 10
6.267360
 20
1.629320
  0
VERTEX
  8
0
  6
CONTINUOUS
 10
5.622320
 20
1.258400
  0
VERTEX
  8
0
  6
CONTINUOUS
 10
5.600760
 20
1.262360
  0
SEQEND
  8
0
  0
SOLID
  8
0
 62
    15
 10
5.622320
 20
1.258400
 11
6.267360
 21
1.629320
 12
5.622320
 22
1.035760
 13
6.267360
 23
1.406680
  0
POLYLINE
  8
0
  6
CONTINUOUS
 66
     1
 40
0.000000
 41
0.000000
  0
VERTEX
  8
0
  6
CONTINUOUS
 10
5.622320
 20
1.258400
  0
VERTEX
  8
0
  6
CONTINUOUS
 10
6.267360
 20
1.629320
  0
VERTEX
  8
0
  6
CONTINUOUS
 10
6.267360
 20
1.406680
  0
VERTEX
  8
0
  6
CONTINUOUS
 10
5.622320
 20
1.035760
  0
VERTEX
  8
0
  6
CONTINUOUS
 10
5.622320
 20
1.258400
  0
SEQEND
  8
0
  0
SOLID
  8
0
 62
    15
 10
4.674560
 20
1.839640
 11
5.319160
 21
2.210560
 12
4.680720
 22
1.839640
 13
5.325760
 23
2.210560
  0
POLYLINE
  8
0
  6
CONTINUOUS
 66
     1
 40
0.000000
 41
0.000000
  0
VERTEX
  8
0
  6
CONTINUOUS
 10
4.674560
 20
1.839640
  0
VERTEX
  8
0
  6
CONTINUOUS
 10
5.319160
 20
2.210560
  0
VERTEX
  8
0
  6
CONTINUOUS
 10
5.325760
 20
2.210560
  0
VERTEX
  8
0
  6
CONTINUOUS
 10
4.680720
 20
1.839640
  0
VERTEX
  8
0
  6
CONTINUOUS
 10
4.674560
 20
1.839640
  0
SEQEND
  8
0
  0
POLYLINE
  8
0
  6
CONTINUOUS
 66
     1
 40
0.000000
 41
0.000000
  0
VERTEX
  8
0
  6
CONTINUOUS
 10
4.680720
 20
1.839640
  0
VERTEX
  8
0
  6
CONTINUOUS
 10
4.836920
 20
1.839640
  0
VERTEX
  8
0
  6
CONTINUOUS
 10
4.836920
 20
1.837880
  0
VERTEX
  8
0
  6
CONTINUOUS
 10
4.839560
 20
1.796080
  0
VERTEX
  8
0
  6
CONTINUOUS
 10
4.847480
 20
1.763960
  0
VERTEX
  8
0
  6
CONTINUOUS
 10
4.860240
 20
1.740640
  0
VERTEX
  8
0
  6
CONTINUOUS
 10
4.876960
 20
1.724360
  0
VERTEX
  8
0
  6
CONTINUOUS
 10
4.897640
 20
1.714240
  0
VERTEX
  8
0
  6
CONTINUOUS
 10
4.921400
 20
1.708520
  0
VERTEX
  8
0
  6
CONTINUOUS
 10
4.978600
 20
1.706320
  0
VERTEX
  8
0
  6
CONTINUOUS
 10
4.978600
 20
1.589720
  0
VERTEX
  8
0
  6
CONTINUOUS
 10
5.345120
 20
1.589720
  0
VERTEX
  8
0
  6
CONTINUOUS
 10
5.345120
 20
1.445840
  0
VERTEX
  8
0
  6
CONTINUOUS
 10
5.376800
 20
1.444960
  0
VERTEX
  8
0
  6
CONTINUOUS
 10
5.406720
 20
1.438800
  0
VERTEX
  8
0
  6
CONTINUOUS
 10
5.435320
 20
1.428680
  0
VERTEX
  8
0
  6
CONTINUOUS
 10
5.460840
 20
1.415480
  0
VERTEX
  8
0
  6
CONTINUOUS
 10
5.483280
 20
1.399200
  0
VERTEX
  8
0
  6
CONTINUOUS
 10
5.502200
 20
1.381600
  0
VERTEX
  8
0
  6
CONTINUOUS
 10
5.516720
 20
1.362680
  0
VERTEX
  8
0
  6
CONTINUOUS
 10
5.526400
 20
1.343760
  0
VERTEX
  8
0
  6
CONTINUOUS
 10
5.536080
 20
1.321320
  0
VERTEX
  8
0
  6
CONTINUOUS
 10
5.554120
 20
1.294040
  0
VERTEX
  8
0
  6
CONTINUOUS
 10
5.582280
 20
1.270280
  0
VERTEX
  8
0
  6
CONTINUOUS
 10
5.600760
 20
1.262360
  0
VERTEX
  8
0
  6
CONTINUOUS
 10
5.622320
 20
1.258400
  0
VERTEX
  8
0
  6
CONTINUOUS
 10
5.622320
 20
1.035760
  0
VERTEX
  8
0
  6
CONTINUOUS
 10
4.674560
 20
1.035760
  0
VERTEX
  8
0
  6
CONTINUOUS
 10
4.674560
 20
1.839640
  0
VERTEX
  8
0
  6
CONTINUOUS
 10
4.680720
 20
1.839640
  0
SEQEND
  8
0
  0
POLYLINE
  8
0
  6
CONTINUOUS
 66
     1
 40
0.014080
 41
0.014080
  0
VERTEX
  8
0
  6
CONTINUOUS
 10
6.824840
 20
1.900800
  0
VERTEX
  8
0
  6
CONTINUOUS
 10
6.981040
 20
1.900800
  0
VERTEX
  8
0
  6
CONTINUOUS
 10
6.981920
 20
1.876600
  0
VERTEX
  8
0
  6
CONTINUOUS
 10
6.985440
 20
1.848000
  0
VERTEX
  8
0
  6
CONTINUOUS
 10
6.991600
 20
1.825120
  0
VERTEX
  8
0
  6
CONTINUOUS
 10
6.997320
 20
1.812360
  0
VERTEX
  8
0
  6
CONTINUOUS
 10
7.012280
 20
1.792560
  0
VERTEX
  8
0
  6
CONTINUOUS
 10
7.030760
 20
1.779360
  0
VERTEX
  8
0
  6
CONTINUOUS
 10
7.053200
 20
1.771880
  0
VERTEX
  8
0
  6
CONTINUOUS
 10
7.078280
 20
1.767920
  0
VERTEX
  8
0
  6
CONTINUOUS
 10
7.122720
 20
1.767480
  0
VERTEX
  8
0
  6
CONTINUOUS
 10
7.122720
 20
1.650880
  0
VERTEX
  8
0
  6
CONTINUOUS
 10
7.489240
 20
1.650880
  0
VERTEX
  8
0
  6
CONTINUOUS
 10
7.489240
 20
1.507000
  0
VERTEX
  8
0
  6
CONTINUOUS
 10
7.520920
 20
1.506120
  0
VERTEX
  8
0
  6
CONTINUOUS
 10
7.550840
 20
1.499960
  0
VERTEX
  8
0
  6
CONTINUOUS
 10
7.579440
 20
1.489840
  0
VERTEX
  8
0
  6
CONTINUOUS
 10
7.604960
 20
1.476200
  0
VERTEX
  8
0
  6
CONTINUOUS
 10
7.627400
 20
1.460360
  0
VERTEX
  8
0
  6
CONTINUOUS
 10
7.646320
 20
1.442760
  0
VERTEX
  8
0
  6
CONTINUOUS
 10
7.660840
 20
1.423840
  0
VERTEX
  8
0
  6
CONTINUOUS
 10
7.670520
 20
1.404920
  0
VERTEX
  8
0
  6
CONTINUOUS
 10
7.680200
 20
1.382480
  0
VERTEX
  8
0
  6
CONTINUOUS
 10
7.688120
 20
1.368840
  0
VERTEX
  8
0
  6
CONTINUOUS
 10
7.703960
 20
1.348600
  0
VERTEX
  8
0
  6
CONTINUOUS
 10
7.726400
 20
1.331440
  0
VERTEX
  8
0
  6
CONTINUOUS
 10
7.744880
 20
1.323520
  0
VERTEX
  8
0
  6
CONTINUOUS
 10
7.766440
 20
1.319560
  0
VERTEX
  8
0
  6
CONTINUOUS
 10
7.766440
 20
1.096480
  0
VERTEX
  8
0
  6
CONTINUOUS
 10
6.818680
 20
1.096480
  0
VERTEX
  8
0
  6
CONTINUOUS
 10
6.818680
 20
1.900800
  0
VERTEX
  8
0
  6
CONTINUOUS
 10
6.824840
 20
1.900800
  0
SEQEND
  8
0
  0
TEXT
  8
0
 10
6.997760
 20
0.804320
 40
0.138140
  1
BA  476
 41
1.000000
  7
SN0
 71
     0
 72
     5
 11
7.588016
 21
0.804320
  0
TEXT
  8
0
 10
6.731120
 20
0.612920
 40
0.138140
  1
13/16" x 15/16"
 41
1.000000
  7
SN0
 71
     0
 72
     5
 11
7.853661
 21
0.612920
  0
ENDSEC
  0
EOF
