  0
SECTION
  2
HEADER
  9
$ACADVER
  1
AC1006
  9
$EXTMIN
 10
4.509560
 20
0.613360
  9
$EXTMAX
 10
7.602760
 20
5.065720
  9
$LTSCALE
 40
0.044000
  9
$PDMODE
 70
    35
  9
$PDSIZE
 40
0.035200
  0
ENDSEC
  0
SECTION
  2
TABLES
  0
TABLE
  2
LTYPE
 70
     9
  0
LTYPE
  2
CONTINUOUS
 70
    64
  3
Solid line
 72
    65
 73
     0
 40
0.000000
  0
LTYPE
  2
DASHED
 70
    64
  3
__ __ __ __ __ __ __ __ __ __ __ __ __ __ __
 72
    65
 73
     2
 40
0.000330
 49
0.000220
 49
-0.000110
  0
LTYPE
  2
HIDDEN
 70
    64
  3
 _ _ _ _ _ _ _ _ _ _ _ _ _ _ _ _ _ _ _ _ _ _
 72
    65
 73
     2
 40
0.000165
 49
0.000110
 49
-0.000055
  0
LTYPE
  2
CENTER
 70
    64
  3
____ _ ____ _ ____ _ ____ _ ____ _ ____ _ ____
 72
    65
 73
     4
 40
0.000880
 49
0.000550
 49
-0.000110
 49
0.000110
 49
-0.000110
  0
LTYPE
  2
PHANTOM
 70
    64
  3
_____ _ _ _____ _ _ _____ _ _ _____ _ _ ____
 72
    65
 73
     6
 40
0.001100
 49
0.000550
 49
-0.000110
 49
0.000110
 49
-0.000110
 49
0.000110
 49
-0.000110
  0
LTYPE
  2
DOT
 70
    64
  3
...............................................
 72
    65
 73
     2
 40
0.000110
 49
0.000000
 49
-0.000110
  0
LTYPE
  2
DASHDOT
 70
    64
  3
__ . __ . __ . __ . __ . __ . __ . __ . __ . __
 72
    65
 73
     4
 40
0.000440
 49
0.000220
 49
-0.000110
 49
0.000000
 49
-0.000110
  0
LTYPE
  2
BORDER
 70
    64
  3
__ __ . __ __ . __ __ . __ __ . __ __ . __ __
 72
    65
 73
     6
 40
0.000770
 49
0.000220
 49
-0.000110
 49
0.000220
 49
-0.000110
 49
0.000000
 49
-0.000110
  0
LTYPE
  2
DIVIDE
 70
    64
  3
__ . . __ . . __ . . __ . . __ . . __ . . __
 72
    65
 73
     6
 40
0.000550
 49
0.000220
 49
-0.000110
 49
0.000000
 49
-0.000110
 49
0.000000
 49
-0.000110
  0
LTYPE
  2
DOTDOT
 70
    64
  3
 . .  . .  . .  . .  . .  . . 
 72
    65
 73
     5
 40
0.000242
 49
-0.000110
 49
0.000000
 49
-0.000110
 49
0.000000
 49
-0.000110
  0
ENDTAB
  0
TABLE
  2
STYLE
 70
     2
  0
STYLE
 70
     0
  2
SN0
 40
0.000000
 41
0.000440
 50
0.000000
 71
     0
 42
0.000000
  3
ROMAND
  0
STYLE
 70
    68
  2
SV0
 40
0.000000
 41
0.000440
 50
0.000000
 71
     0
 42
0.000000
  3
ROMAND
  0
ENDTAB
  0
TABLE
  2
LAYER
 70
     3
  0
LAYER
  2
FOREGROUND
 70
    64
 62
     7
  6
CONTINUOUS
  0
LAYER
  2
BACKGROUND
 70
    65
 62
    -7
  6
CONTINUOUS
  0
LAYER
  2
0
 70
    64
 62
     7
  6
CONTINUOUS
  0
ENDTAB
  0
ENDSEC
  0
SECTION
  2
ENTITIES
  0
POLYLINE
  8
FOREGROUND
  6
CONTINUOUS
 66
     1
 40
0.000000
 41
0.000000
  0
VERTEX
  8
FOREGROUND
  6
CONTINUOUS
 10
0.000000
 20
5.679080
  0
VERTEX
  8
FOREGROUND
  6
CONTINUOUS
 10
8.499920
 20
5.679080
  0
VERTEX
  8
FOREGROUND
  6
CONTINUOUS
 10
8.499920
 20
-5.320920
  0
VERTEX
  8
FOREGROUND
  6
CONTINUOUS
 10
0.000000
 20
-5.320920
  0
VERTEX
  8
FOREGROUND
  6
CONTINUOUS
 10
0.000000
 20
5.679080
  0
SEQEND
  8
0
  0
POLYLINE
  8
FOREGROUND
  6
CONTINUOUS
 66
     1
 40
0.000000
 41
0.000000
  0
VERTEX
  8
FOREGROUND
  6
CONTINUOUS
 10
0.000000
 20
5.679080
  0
VERTEX
  8
FOREGROUND
  6
CONTINUOUS
 10
8.499920
 20
5.679080
  0
VERTEX
  8
FOREGROUND
  6
CONTINUOUS
 10
8.499920
 20
-5.320920
  0
VERTEX
  8
FOREGROUND
  6
CONTINUOUS
 10
0.000000
 20
-5.320920
  0
VERTEX
  8
FOREGROUND
  6
CONTINUOUS
 10
0.000000
 20
5.679080
  0
SEQEND
  8
0
  0
POLYLINE
  8
0
  6
CONTINUOUS
 66
     1
 40
0.014080
 41
0.014080
  0
VERTEX
  8
0
  6
CONTINUOUS
 10
7.060240
 20
4.064720
  0
VERTEX
  8
0
  6
CONTINUOUS
 10
7.026800
 20
4.473480
  0
VERTEX
  8
0
  6
CONTINUOUS
 10
7.018440
 20
4.520120
  0
VERTEX
  8
0
  6
CONTINUOUS
 10
7.006560
 20
4.565000
  0
VERTEX
  8
0
  6
CONTINUOUS
 10
6.991160
 20
4.607680
  0
VERTEX
  8
0
  6
CONTINUOUS
 10
6.972680
 20
4.648600
  0
VERTEX
  8
0
  6
CONTINUOUS
 10
6.938800
 20
4.705360
  0
VERTEX
  8
0
  6
CONTINUOUS
 10
6.912840
 20
4.740560
  0
VERTEX
  8
0
  6
CONTINUOUS
 10
6.869280
 20
4.788960
  0
VERTEX
  8
0
  6
CONTINUOUS
 10
6.820440
 20
4.832080
  0
VERTEX
  8
0
  6
CONTINUOUS
 10
6.785680
 20
4.857600
  0
VERTEX
  8
0
  6
CONTINUOUS
 10
6.729800
 20
4.891480
  0
VERTEX
  8
0
  6
CONTINUOUS
 10
6.671280
 20
4.919200
  0
VERTEX
  8
0
  6
CONTINUOUS
 10
6.610120
 20
4.940760
  0
VERTEX
  8
0
  6
CONTINUOUS
 10
6.546760
 20
4.956160
  0
VERTEX
  8
0
  6
CONTINUOUS
 10
6.504080
 20
4.962760
  0
VERTEX
  8
0
  6
CONTINUOUS
 10
6.460960
 20
4.966280
  0
VERTEX
  8
0
  6
CONTINUOUS
 10
6.418280
 20
4.967160
  0
VERTEX
  8
0
  6
CONTINUOUS
 10
6.375160
 20
4.964520
  0
VERTEX
  8
0
  6
CONTINUOUS
 10
6.332480
 20
4.959240
  0
VERTEX
  8
0
  6
CONTINUOUS
 10
6.269560
 20
4.945160
  0
VERTEX
  8
0
  6
CONTINUOUS
 10
6.208840
 20
4.923600
  0
VERTEX
  8
0
  6
CONTINUOUS
 10
6.169680
 20
4.905120
  0
VERTEX
  8
0
  6
CONTINUOUS
 10
6.113360
 20
4.870800
  0
VERTEX
  8
0
  6
CONTINUOUS
 10
6.061000
 20
4.828560
  0
VERTEX
  8
0
  6
CONTINUOUS
 10
6.028440
 20
4.796000
  0
VERTEX
  8
0
  6
CONTINUOUS
 10
5.998080
 20
4.759920
  0
VERTEX
  8
0
  6
CONTINUOUS
 10
5.984000
 20
4.740560
  0
VERTEX
  8
0
  6
CONTINUOUS
 10
5.958920
 20
4.739240
  0
VERTEX
  8
0
  6
CONTINUOUS
 10
5.946600
 20
5.057800
  0
VERTEX
  8
0
  6
CONTINUOUS
 10
5.126000
 20
5.057800
  0
VERTEX
  8
0
  6
CONTINUOUS
 10
4.517040
 20
3.878600
  0
VERTEX
  8
0
  6
CONTINUOUS
 10
4.517040
 20
3.681920
  0
VERTEX
  8
0
  6
CONTINUOUS
 10
7.267040
 20
3.681920
  0
VERTEX
  8
0
  6
CONTINUOUS
 10
7.267040
 20
4.063840
  0
VERTEX
  8
0
  6
CONTINUOUS
 10
7.059800
 20
4.063840
  0
VERTEX
  8
0
  6
CONTINUOUS
 10
7.060240
 20
4.064720
  0
SEQEND
  8
0
  0
SOLID
  8
0
 62
    15
 10
6.688000
 20
2.369840
 11
6.689320
 21
3.125320
 12
6.773800
 22
2.374680
 13
6.775120
 23
3.130160
  0
POLYLINE
  8
0
  6
CONTINUOUS
 66
     1
 40
0.000000
 41
0.000000
  0
VERTEX
  8
0
  6
CONTINUOUS
 10
6.688000
 20
2.369840
  0
VERTEX
  8
0
  6
CONTINUOUS
 10
6.689320
 20
3.125320
  0
VERTEX
  8
0
  6
CONTINUOUS
 10
6.775120
 20
3.130160
  0
VERTEX
  8
0
  6
CONTINUOUS
 10
6.773800
 20
2.374680
  0
VERTEX
  8
0
  6
CONTINUOUS
 10
6.688000
 20
2.369840
  0
SEQEND
  8
0
  0
SOLID
  8
0
 62
    15
 10
7.601000
 20
1.470920
 11
7.602760
 21
2.226400
 12
7.601000
 22
1.089440
 13
7.602760
 23
1.844920
  0
POLYLINE
  8
0
  6
CONTINUOUS
 66
     1
 40
0.000000
 41
0.000000
  0
VERTEX
  8
0
  6
CONTINUOUS
 10
7.601000
 20
1.470920
  0
VERTEX
  8
0
  6
CONTINUOUS
 10
7.602760
 20
2.226400
  0
VERTEX
  8
0
  6
CONTINUOUS
 10
7.602760
 20
1.844920
  0
VERTEX
  8
0
  6
CONTINUOUS
 10
7.601000
 20
1.089440
  0
VERTEX
  8
0
  6
CONTINUOUS
 10
7.601000
 20
1.470920
  0
SEQEND
  8
0
  0
SOLID
  8
0
 62
    15
 10
4.851440
 20
1.285680
 11
4.852760
 21
2.041160
 12
5.460400
 22
2.465320
 13
5.461720
 23
3.220800
  0
POLYLINE
  8
0
  6
CONTINUOUS
 66
     1
 40
0.000000
 41
0.000000
  0
VERTEX
  8
0
  6
CONTINUOUS
 10
4.851440
 20
1.285680
  0
VERTEX
  8
0
  6
CONTINUOUS
 10
4.852760
 20
2.041160
  0
VERTEX
  8
0
  6
CONTINUOUS
 10
5.461720
 20
3.220800
  0
VERTEX
  8
0
  6
CONTINUOUS
 10
5.460400
 20
2.465320
  0
VERTEX
  8
0
  6
CONTINUOUS
 10
4.851440
 20
1.285680
  0
SEQEND
  8
0
  0
SOLID
  8
0
 62
    15
 10
5.460400
 20
2.465320
 11
5.461720
 21
3.220800
 12
6.280560
 22
2.465320
 13
6.282320
 23
3.220800
  0
POLYLINE
  8
0
  6
CONTINUOUS
 66
     1
 40
0.000000
 41
0.000000
  0
VERTEX
  8
0
  6
CONTINUOUS
 10
5.460400
 20
2.465320
  0
VERTEX
  8
0
  6
CONTINUOUS
 10
5.461720
 20
3.220800
  0
VERTEX
  8
0
  6
CONTINUOUS
 10
6.282320
 20
3.220800
  0
VERTEX
  8
0
  6
CONTINUOUS
 10
6.280560
 20
2.465320
  0
VERTEX
  8
0
  6
CONTINUOUS
 10
5.460400
 20
2.465320
  0
SEQEND
  8
0
  0
SOLID
  8
0
 62
    15
 10
6.280560
 20
2.465320
 11
6.282320
 21
3.220800
 12
6.293320
 22
2.146760
 13
6.294640
 23
2.902240
  0
POLYLINE
  8
0
  6
CONTINUOUS
 66
     1
 40
0.000000
 41
0.000000
  0
VERTEX
  8
0
  6
CONTINUOUS
 10
6.280560
 20
2.465320
  0
VERTEX
  8
0
  6
CONTINUOUS
 10
6.282320
 20
3.220800
  0
VERTEX
  8
0
  6
CONTINUOUS
 10
6.294640
 20
2.902240
  0
VERTEX
  8
0
  6
CONTINUOUS
 10
6.293320
 20
2.146760
  0
VERTEX
  8
0
  6
CONTINUOUS
 10
6.280560
 20
2.465320
  0
SEQEND
  8
0
  0
SOLID
  8
0
 62
    15
 10
6.293320
 20
2.146760
 11
6.294640
 21
2.902240
 12
6.317960
 22
2.147640
 13
6.319280
 23
2.903120
  0
POLYLINE
  8
0
  6
CONTINUOUS
 66
     1
 40
0.000000
 41
0.000000
  0
VERTEX
  8
0
  6
CONTINUOUS
 10
6.293320
 20
2.146760
  0
VERTEX
  8
0
  6
CONTINUOUS
 10
6.294640
 20
2.902240
  0
VERTEX
  8
0
  6
CONTINUOUS
 10
6.319280
 20
2.903120
  0
VERTEX
  8
0
  6
CONTINUOUS
 10
6.317960
 20
2.147640
  0
VERTEX
  8
0
  6
CONTINUOUS
 10
6.293320
 20
2.146760
  0
SEQEND
  8
0
  0
SOLID
  8
0
 62
    15
 10
6.317960
 20
2.147640
 11
6.319280
 21
2.903120
 12
6.378680
 22
2.220240
 13
6.380000
 23
2.975720
  0
POLYLINE
  8
0
  6
CONTINUOUS
 66
     1
 40
0.000000
 41
0.000000
  0
VERTEX
  8
0
  6
CONTINUOUS
 10
6.317960
 20
2.147640
  0
VERTEX
  8
0
  6
CONTINUOUS
 10
6.319280
 20
2.903120
  0
VERTEX
  8
0
  6
CONTINUOUS
 10
6.380000
 20
2.975720
  0
VERTEX
  8
0
  6
CONTINUOUS
 10
6.378680
 20
2.220240
  0
VERTEX
  8
0
  6
CONTINUOUS
 10
6.317960
 20
2.147640
  0
SEQEND
  8
0
  0
SOLID
  8
0
 62
    15
 10
6.378680
 20
2.220240
 11
6.380000
 21
2.975720
 12
6.447320
 22
2.277880
 13
6.449080
 23
3.033360
  0
POLYLINE
  8
0
  6
CONTINUOUS
 66
     1
 40
0.000000
 41
0.000000
  0
VERTEX
  8
0
  6
CONTINUOUS
 10
6.378680
 20
2.220240
  0
VERTEX
  8
0
  6
CONTINUOUS
 10
6.380000
 20
2.975720
  0
VERTEX
  8
0
  6
CONTINUOUS
 10
6.449080
 20
3.033360
  0
VERTEX
  8
0
  6
CONTINUOUS
 10
6.447320
 20
2.277880
  0
VERTEX
  8
0
  6
CONTINUOUS
 10
6.378680
 20
2.220240
  0
SEQEND
  8
0
  0
SOLID
  8
0
 62
    15
 10
6.447320
 20
2.277880
 11
6.449080
 21
3.033360
 12
6.523000
 22
2.321880
 13
6.524760
 23
3.077360
  0
POLYLINE
  8
0
  6
CONTINUOUS
 66
     1
 40
0.000000
 41
0.000000
  0
VERTEX
  8
0
  6
CONTINUOUS
 10
6.447320
 20
2.277880
  0
VERTEX
  8
0
  6
CONTINUOUS
 10
6.449080
 20
3.033360
  0
VERTEX
  8
0
  6
CONTINUOUS
 10
6.524760
 20
3.077360
  0
VERTEX
  8
0
  6
CONTINUOUS
 10
6.523000
 20
2.321880
  0
VERTEX
  8
0
  6
CONTINUOUS
 10
6.447320
 20
2.277880
  0
SEQEND
  8
0
  0
SOLID
  8
0
 62
    15
 10
6.523000
 20
2.321880
 11
6.524760
 21
3.077360
 12
6.603960
 22
2.352240
 13
6.605280
 23
3.107720
  0
POLYLINE
  8
0
  6
CONTINUOUS
 66
     1
 40
0.000000
 41
0.000000
  0
VERTEX
  8
0
  6
CONTINUOUS
 10
6.523000
 20
2.321880
  0
VERTEX
  8
0
  6
CONTINUOUS
 10
6.524760
 20
3.077360
  0
VERTEX
  8
0
  6
CONTINUOUS
 10
6.605280
 20
3.107720
  0
VERTEX
  8
0
  6
CONTINUOUS
 10
6.603960
 20
2.352240
  0
VERTEX
  8
0
  6
CONTINUOUS
 10
6.523000
 20
2.321880
  0
SEQEND
  8
0
  0
SOLID
  8
0
 62
    15
 10
6.603960
 20
2.352240
 11
6.605280
 21
3.107720
 12
6.688000
 22
2.369840
 13
6.689320
 23
3.125320
  0
POLYLINE
  8
0
  6
CONTINUOUS
 66
     1
 40
0.000000
 41
0.000000
  0
VERTEX
  8
0
  6
CONTINUOUS
 10
6.603960
 20
2.352240
  0
VERTEX
  8
0
  6
CONTINUOUS
 10
6.605280
 20
3.107720
  0
VERTEX
  8
0
  6
CONTINUOUS
 10
6.689320
 20
3.125320
  0
VERTEX
  8
0
  6
CONTINUOUS
 10
6.688000
 20
2.369840
  0
VERTEX
  8
0
  6
CONTINUOUS
 10
6.603960
 20
2.352240
  0
SEQEND
  8
0
  0
SOLID
  8
0
 62
    15
 10
7.393760
 20
1.470920
 11
7.395520
 21
2.226400
 12
7.601000
 22
1.470920
 13
7.602760
 23
2.226400
  0
POLYLINE
  8
0
  6
CONTINUOUS
 66
     1
 40
0.000000
 41
0.000000
  0
VERTEX
  8
0
  6
CONTINUOUS
 10
7.393760
 20
1.470920
  0
VERTEX
  8
0
  6
CONTINUOUS
 10
7.395520
 20
2.226400
  0
VERTEX
  8
0
  6
CONTINUOUS
 10
7.602760
 20
2.226400
  0
VERTEX
  8
0
  6
CONTINUOUS
 10
7.601000
 20
1.470920
  0
VERTEX
  8
0
  6
CONTINUOUS
 10
7.393760
 20
1.470920
  0
SEQEND
  8
0
  0
SOLID
  8
0
 62
    15
 10
6.773800
 20
2.374680
 11
6.775120
 21
3.130160
 12
6.859600
 22
2.367200
 13
6.860920
 23
3.122680
  0
POLYLINE
  8
0
  6
CONTINUOUS
 66
     1
 40
0.000000
 41
0.000000
  0
VERTEX
  8
0
  6
CONTINUOUS
 10
6.773800
 20
2.374680
  0
VERTEX
  8
0
  6
CONTINUOUS
 10
6.775120
 20
3.130160
  0
VERTEX
  8
0
  6
CONTINUOUS
 10
6.860920
 20
3.122680
  0
VERTEX
  8
0
  6
CONTINUOUS
 10
6.859600
 20
2.367200
  0
VERTEX
  8
0
  6
CONTINUOUS
 10
6.773800
 20
2.374680
  0
SEQEND
  8
0
  0
SOLID
  8
0
 62
    15
 10
6.859600
 20
2.367200
 11
6.860920
 21
3.122680
 12
6.944080
 22
2.348280
 13
6.945400
 23
3.103760
  0
POLYLINE
  8
0
  6
CONTINUOUS
 66
     1
 40
0.000000
 41
0.000000
  0
VERTEX
  8
0
  6
CONTINUOUS
 10
6.859600
 20
2.367200
  0
VERTEX
  8
0
  6
CONTINUOUS
 10
6.860920
 20
3.122680
  0
VERTEX
  8
0
  6
CONTINUOUS
 10
6.945400
 20
3.103760
  0
VERTEX
  8
0
  6
CONTINUOUS
 10
6.944080
 20
2.348280
  0
VERTEX
  8
0
  6
CONTINUOUS
 10
6.859600
 20
2.367200
  0
SEQEND
  8
0
  0
SOLID
  8
0
 62
    15
 10
6.944080
 20
2.348280
 11
6.945400
 21
3.103760
 12
7.025040
 22
2.317920
 13
7.026800
 23
3.073400
  0
POLYLINE
  8
0
  6
CONTINUOUS
 66
     1
 40
0.000000
 41
0.000000
  0
VERTEX
  8
0
  6
CONTINUOUS
 10
6.944080
 20
2.348280
  0
VERTEX
  8
0
  6
CONTINUOUS
 10
6.945400
 20
3.103760
  0
VERTEX
  8
0
  6
CONTINUOUS
 10
7.026800
 20
3.073400
  0
VERTEX
  8
0
  6
CONTINUOUS
 10
7.025040
 20
2.317920
  0
VERTEX
  8
0
  6
CONTINUOUS
 10
6.944080
 20
2.348280
  0
SEQEND
  8
0
  0
SOLID
  8
0
 62
    15
 10
7.025040
 20
2.317920
 11
7.026800
 21
3.073400
 12
7.101600
 22
2.277000
 13
7.102920
 23
3.032480
  0
POLYLINE
  8
0
  6
CONTINUOUS
 66
     1
 40
0.000000
 41
0.000000
  0
VERTEX
  8
0
  6
CONTINUOUS
 10
7.025040
 20
2.317920
  0
VERTEX
  8
0
  6
CONTINUOUS
 10
7.026800
 20
3.073400
  0
VERTEX
  8
0
  6
CONTINUOUS
 10
7.102920
 20
3.032480
  0
VERTEX
  8
0
  6
CONTINUOUS
 10
7.101600
 20
2.277000
  0
VERTEX
  8
0
  6
CONTINUOUS
 10
7.025040
 20
2.317920
  0
SEQEND
  8
0
  0
SOLID
  8
0
 62
    15
 10
7.101600
 20
2.277000
 11
7.102920
 21
3.032480
 12
7.171120
 22
2.225960
 13
7.172880
 23
2.981440
  0
POLYLINE
  8
0
  6
CONTINUOUS
 66
     1
 40
0.000000
 41
0.000000
  0
VERTEX
  8
0
  6
CONTINUOUS
 10
7.101600
 20
2.277000
  0
VERTEX
  8
0
  6
CONTINUOUS
 10
7.102920
 20
3.032480
  0
VERTEX
  8
0
  6
CONTINUOUS
 10
7.172880
 20
2.981440
  0
VERTEX
  8
0
  6
CONTINUOUS
 10
7.171120
 20
2.225960
  0
VERTEX
  8
0
  6
CONTINUOUS
 10
7.101600
 20
2.277000
  0
SEQEND
  8
0
  0
SOLID
  8
0
 62
    15
 10
7.171120
 20
2.225960
 11
7.172880
 21
2.981440
 12
7.232720
 22
2.164800
 13
7.234480
 23
2.920280
  0
POLYLINE
  8
0
  6
CONTINUOUS
 66
     1
 40
0.000000
 41
0.000000
  0
VERTEX
  8
0
  6
CONTINUOUS
 10
7.171120
 20
2.225960
  0
VERTEX
  8
0
  6
CONTINUOUS
 10
7.172880
 20
2.981440
  0
VERTEX
  8
0
  6
CONTINUOUS
 10
7.234480
 20
2.920280
  0
VERTEX
  8
0
  6
CONTINUOUS
 10
7.232720
 20
2.164800
  0
VERTEX
  8
0
  6
CONTINUOUS
 10
7.171120
 20
2.225960
  0
SEQEND
  8
0
  0
SOLID
  8
0
 62
    15
 10
7.232720
 20
2.164800
 11
7.234480
 21
2.920280
 12
7.284640
 22
2.094400
 13
7.286400
 23
2.849880
  0
POLYLINE
  8
0
  6
CONTINUOUS
 66
     1
 40
0.000000
 41
0.000000
  0
VERTEX
  8
0
  6
CONTINUOUS
 10
7.232720
 20
2.164800
  0
VERTEX
  8
0
  6
CONTINUOUS
 10
7.234480
 20
2.920280
  0
VERTEX
  8
0
  6
CONTINUOUS
 10
7.286400
 20
2.849880
  0
VERTEX
  8
0
  6
CONTINUOUS
 10
7.284640
 20
2.094400
  0
VERTEX
  8
0
  6
CONTINUOUS
 10
7.232720
 20
2.164800
  0
SEQEND
  8
0
  0
SOLID
  8
0
 62
    15
 10
7.284640
 20
2.094400
 11
7.286400
 21
2.849880
 12
7.325120
 22
2.015200
 13
7.326880
 23
2.770680
  0
POLYLINE
  8
0
  6
CONTINUOUS
 66
     1
 40
0.000000
 41
0.000000
  0
VERTEX
  8
0
  6
CONTINUOUS
 10
7.284640
 20
2.094400
  0
VERTEX
  8
0
  6
CONTINUOUS
 10
7.286400
 20
2.849880
  0
VERTEX
  8
0
  6
CONTINUOUS
 10
7.326880
 20
2.770680
  0
VERTEX
  8
0
  6
CONTINUOUS
 10
7.325120
 20
2.015200
  0
VERTEX
  8
0
  6
CONTINUOUS
 10
7.284640
 20
2.094400
  0
SEQEND
  8
0
  0
SOLID
  8
0
 62
    15
 10
7.325120
 20
2.015200
 11
7.326880
 21
2.770680
 12
7.352400
 22
1.927640
 13
7.354160
 23
2.683120
  0
POLYLINE
  8
0
  6
CONTINUOUS
 66
     1
 40
0.000000
 41
0.000000
  0
VERTEX
  8
0
  6
CONTINUOUS
 10
7.325120
 20
2.015200
  0
VERTEX
  8
0
  6
CONTINUOUS
 10
7.326880
 20
2.770680
  0
VERTEX
  8
0
  6
CONTINUOUS
 10
7.354160
 20
2.683120
  0
VERTEX
  8
0
  6
CONTINUOUS
 10
7.352400
 20
1.927640
  0
VERTEX
  8
0
  6
CONTINUOUS
 10
7.325120
 20
2.015200
  0
SEQEND
  8
0
  0
SOLID
  8
0
 62
    15
 10
7.365160
 20
1.832160
 11
7.366480
 21
2.587640
 12
7.394200
 22
1.472240
 13
7.395520
 23
2.227720
  0
POLYLINE
  8
0
  6
CONTINUOUS
 66
     1
 40
0.000000
 41
0.000000
  0
VERTEX
  8
0
  6
CONTINUOUS
 10
7.365160
 20
1.832160
  0
VERTEX
  8
0
  6
CONTINUOUS
 10
7.366480
 20
2.587640
  0
VERTEX
  8
0
  6
CONTINUOUS
 10
7.395520
 20
2.227720
  0
VERTEX
  8
0
  6
CONTINUOUS
 10
7.394200
 20
1.472240
  0
VERTEX
  8
0
  6
CONTINUOUS
 10
7.365160
 20
1.832160
  0
SEQEND
  8
0
  0
SOLID
  8
0
 62
    15
 10
7.352400
 20
1.927640
 11
7.354160
 21
2.683120
 12
7.365160
 22
1.832160
 13
7.366480
 23
2.587640
  0
POLYLINE
  8
0
  6
CONTINUOUS
 66
     1
 40
0.000000
 41
0.000000
  0
VERTEX
  8
0
  6
CONTINUOUS
 10
7.352400
 20
1.927640
  0
VERTEX
  8
0
  6
CONTINUOUS
 10
7.354160
 20
2.683120
  0
VERTEX
  8
0
  6
CONTINUOUS
 10
7.366480
 20
2.587640
  0
VERTEX
  8
0
  6
CONTINUOUS
 10
7.365160
 20
1.832160
  0
VERTEX
  8
0
  6
CONTINUOUS
 10
7.352400
 20
1.927640
  0
SEQEND
  8
0
  0
POLYLINE
  8
0
  6
CONTINUOUS
 66
     1
 40
0.000000
 41
0.000000
  0
VERTEX
  8
0
  6
CONTINUOUS
 10
7.393760
 20
1.470920
  0
VERTEX
  8
0
  6
CONTINUOUS
 10
7.601000
 20
1.470920
  0
VERTEX
  8
0
  6
CONTINUOUS
 10
7.601000
 20
1.089440
  0
VERTEX
  8
0
  6
CONTINUOUS
 10
4.851440
 20
1.089440
  0
VERTEX
  8
0
  6
CONTINUOUS
 10
4.851440
 20
1.285680
  0
VERTEX
  8
0
  6
CONTINUOUS
 10
5.460400
 20
2.465320
  0
VERTEX
  8
0
  6
CONTINUOUS
 10
6.280560
 20
2.465320
  0
VERTEX
  8
0
  6
CONTINUOUS
 10
6.293320
 20
2.146760
  0
VERTEX
  8
0
  6
CONTINUOUS
 10
6.317960
 20
2.147640
  0
VERTEX
  8
0
  6
CONTINUOUS
 10
6.378680
 20
2.220240
  0
VERTEX
  8
0
  6
CONTINUOUS
 10
6.447320
 20
2.277880
  0
VERTEX
  8
0
  6
CONTINUOUS
 10
6.523000
 20
2.321880
  0
VERTEX
  8
0
  6
CONTINUOUS
 10
6.603960
 20
2.352240
  0
VERTEX
  8
0
  6
CONTINUOUS
 10
6.688000
 20
2.369840
  0
VERTEX
  8
0
  6
CONTINUOUS
 10
6.773800
 20
2.374680
  0
VERTEX
  8
0
  6
CONTINUOUS
 10
6.859600
 20
2.367200
  0
VERTEX
  8
0
  6
CONTINUOUS
 10
6.944080
 20
2.348280
  0
VERTEX
  8
0
  6
CONTINUOUS
 10
7.025040
 20
2.317920
  0
VERTEX
  8
0
  6
CONTINUOUS
 10
7.101600
 20
2.277000
  0
VERTEX
  8
0
  6
CONTINUOUS
 10
7.171120
 20
2.225960
  0
VERTEX
  8
0
  6
CONTINUOUS
 10
7.232720
 20
2.164800
  0
VERTEX
  8
0
  6
CONTINUOUS
 10
7.284640
 20
2.094400
  0
VERTEX
  8
0
  6
CONTINUOUS
 10
7.325120
 20
2.015200
  0
VERTEX
  8
0
  6
CONTINUOUS
 10
7.352400
 20
1.927640
  0
VERTEX
  8
0
  6
CONTINUOUS
 10
7.365160
 20
1.832160
  0
VERTEX
  8
0
  6
CONTINUOUS
 10
7.394200
 20
1.472240
  0
VERTEX
  8
0
  6
CONTINUOUS
 10
7.393760
 20
1.470920
  0
SEQEND
  8
0
  0
TEXT
  8
0
 10
5.933400
 20
0.849200
 40
0.138158
  1
BA  475
 41
1.000000
  7
SN0
 71
     0
 72
     5
 11
6.524673
 21
0.849200
  0
TEXT
  8
0
 10
5.703720
 20
0.657360
 40
0.138158
  1
1-3/8" x 3-1/8"
 41
1.000000
  7
SN0
 71
     0
 72
     5
 11
6.754032
 21
0.657360
  0
ENDSEC
  0
EOF
