  0
SECTION
  2
HEADER
  9
$ACADVER
  1
AC1006
  9
$EXTMIN
 10
5.025240
 20
0.519200
  9
$EXTMAX
 10
7.353720
 20
3.964840
  9
$LTSCALE
 40
0.044000
  9
$PDMODE
 70
    35
  9
$PDSIZE
 40
0.035200
  0
ENDSEC
  0
SECTION
  2
TABLES
  0
TABLE
  2
LTYPE
 70
     9
  0
LTYPE
  2
CONTINUOUS
 70
    64
  3
Solid line
 72
    65
 73
     0
 40
0.000000
  0
LTYPE
  2
DASHED
 70
    64
  3
__ __ __ __ __ __ __ __ __ __ __ __ __ __ __
 72
    65
 73
     2
 40
0.000330
 49
0.000220
 49
-0.000110
  0
LTYPE
  2
HIDDEN
 70
    64
  3
 _ _ _ _ _ _ _ _ _ _ _ _ _ _ _ _ _ _ _ _ _ _
 72
    65
 73
     2
 40
0.000165
 49
0.000110
 49
-0.000055
  0
LTYPE
  2
CENTER
 70
    64
  3
____ _ ____ _ ____ _ ____ _ ____ _ ____ _ ____
 72
    65
 73
     4
 40
0.000880
 49
0.000550
 49
-0.000110
 49
0.000110
 49
-0.000110
  0
LTYPE
  2
PHANTOM
 70
    64
  3
_____ _ _ _____ _ _ _____ _ _ _____ _ _ ____
 72
    65
 73
     6
 40
0.001100
 49
0.000550
 49
-0.000110
 49
0.000110
 49
-0.000110
 49
0.000110
 49
-0.000110
  0
LTYPE
  2
DOT
 70
    64
  3
...............................................
 72
    65
 73
     2
 40
0.000110
 49
0.000000
 49
-0.000110
  0
LTYPE
  2
DASHDOT
 70
    64
  3
__ . __ . __ . __ . __ . __ . __ . __ . __ . __
 72
    65
 73
     4
 40
0.000440
 49
0.000220
 49
-0.000110
 49
0.000000
 49
-0.000110
  0
LTYPE
  2
BORDER
 70
    64
  3
__ __ . __ __ . __ __ . __ __ . __ __ . __ __
 72
    65
 73
     6
 40
0.000770
 49
0.000220
 49
-0.000110
 49
0.000220
 49
-0.000110
 49
0.000000
 49
-0.000110
  0
LTYPE
  2
DIVIDE
 70
    64
  3
__ . . __ . . __ . . __ . . __ . . __ . . __
 72
    65
 73
     6
 40
0.000550
 49
0.000220
 49
-0.000110
 49
0.000000
 49
-0.000110
 49
0.000000
 49
-0.000110
  0
LTYPE
  2
DOTDOT
 70
    64
  3
 . .  . .  . .  . .  . .  . . 
 72
    65
 73
     5
 40
0.000242
 49
-0.000110
 49
0.000000
 49
-0.000110
 49
0.000000
 49
-0.000110
  0
ENDTAB
  0
TABLE
  2
STYLE
 70
     2
  0
STYLE
 70
     0
  2
SN0
 40
0.000000
 41
0.000440
 50
0.000000
 71
     0
 42
0.000000
  3
ROMAND
  0
STYLE
 70
    68
  2
SV0
 40
0.000000
 41
0.000440
 50
0.000000
 71
     0
 42
0.000000
  3
ROMAND
  0
ENDTAB
  0
TABLE
  2
LAYER
 70
     3
  0
LAYER
  2
FOREGROUND
 70
    64
 62
     7
  6
CONTINUOUS
  0
LAYER
  2
BACKGROUND
 70
    65
 62
    -7
  6
CONTINUOUS
  0
LAYER
  2
0
 70
    64
 62
     7
  6
CONTINUOUS
  0
ENDTAB
  0
ENDSEC
  0
SECTION
  2
ENTITIES
  0
POLYLINE
  8
FOREGROUND
  6
CONTINUOUS
 66
     1
 40
0.000000
 41
0.000000
  0
VERTEX
  8
FOREGROUND
  6
CONTINUOUS
 10
0.000000
 20
4.484040
  0
VERTEX
  8
FOREGROUND
  6
CONTINUOUS
 10
8.499920
 20
4.484040
  0
VERTEX
  8
FOREGROUND
  6
CONTINUOUS
 10
8.499920
 20
-6.515960
  0
VERTEX
  8
FOREGROUND
  6
CONTINUOUS
 10
0.000000
 20
-6.515960
  0
VERTEX
  8
FOREGROUND
  6
CONTINUOUS
 10
0.000000
 20
4.484040
  0
SEQEND
  8
0
  0
POLYLINE
  8
FOREGROUND
  6
CONTINUOUS
 66
     1
 40
0.000000
 41
0.000000
  0
VERTEX
  8
FOREGROUND
  6
CONTINUOUS
 10
0.000000
 20
4.484040
  0
VERTEX
  8
FOREGROUND
  6
CONTINUOUS
 10
8.499920
 20
4.484040
  0
VERTEX
  8
FOREGROUND
  6
CONTINUOUS
 10
8.499920
 20
-6.515960
  0
VERTEX
  8
FOREGROUND
  6
CONTINUOUS
 10
0.000000
 20
-6.515960
  0
VERTEX
  8
FOREGROUND
  6
CONTINUOUS
 10
0.000000
 20
4.484040
  0
SEQEND
  8
0
  0
POLYLINE
  8
0
  6
CONTINUOUS
 66
     1
 40
0.014080
 41
0.014080
  0
VERTEX
  8
0
  6
CONTINUOUS
 10
5.032720
 20
3.381840
  0
VERTEX
  8
0
  6
CONTINUOUS
 10
5.032720
 20
3.268760
  0
VERTEX
  8
0
  6
CONTINUOUS
 10
6.762360
 20
3.268760
  0
VERTEX
  8
0
  6
CONTINUOUS
 10
6.762360
 20
3.388440
  0
VERTEX
  8
0
  6
CONTINUOUS
 10
6.736840
 20
3.390200
  0
VERTEX
  8
0
  6
CONTINUOUS
 10
6.697680
 20
3.398560
  0
VERTEX
  8
0
  6
CONTINUOUS
 10
6.659400
 20
3.413520
  0
VERTEX
  8
0
  6
CONTINUOUS
 10
6.634320
 20
3.426280
  0
VERTEX
  8
0
  6
CONTINUOUS
 10
6.609680
 20
3.441240
  0
VERTEX
  8
0
  6
CONTINUOUS
 10
6.585920
 20
3.457960
  0
VERTEX
  8
0
  6
CONTINUOUS
 10
6.541920
 20
3.495360
  0
VERTEX
  8
0
  6
CONTINUOUS
 10
6.504080
 20
3.536280
  0
VERTEX
  8
0
  6
CONTINUOUS
 10
6.487800
 20
3.556960
  0
VERTEX
  8
0
  6
CONTINUOUS
 10
6.461840
 20
3.598760
  0
VERTEX
  8
0
  6
CONTINUOUS
 10
6.449080
 20
3.628680
  0
VERTEX
  8
0
  6
CONTINUOUS
 10
6.446440
 20
3.638360
  0
VERTEX
  8
0
  6
CONTINUOUS
 10
6.232600
 20
3.638360
  0
VERTEX
  8
0
  6
CONTINUOUS
 10
6.227320
 20
3.671360
  0
VERTEX
  8
0
  6
CONTINUOUS
 10
6.219400
 20
3.703480
  0
VERTEX
  8
0
  6
CONTINUOUS
 10
6.201800
 20
3.749240
  0
VERTEX
  8
0
  6
CONTINUOUS
 10
6.178480
 20
3.791920
  0
VERTEX
  8
0
  6
CONTINUOUS
 10
6.150320
 20
3.830640
  0
VERTEX
  8
0
  6
CONTINUOUS
 10
6.116880
 20
3.864960
  0
VERTEX
  8
0
  6
CONTINUOUS
 10
6.079040
 20
3.894880
  0
VERTEX
  8
0
  6
CONTINUOUS
 10
6.051760
 20
3.912040
  0
VERTEX
  8
0
  6
CONTINUOUS
 10
6.007760
 20
3.932720
  0
VERTEX
  8
0
  6
CONTINUOUS
 10
5.960680
 20
3.947680
  0
VERTEX
  8
0
  6
CONTINUOUS
 10
5.928120
 20
3.953840
  0
VERTEX
  8
0
  6
CONTINUOUS
 10
5.894240
 20
3.956920
  0
VERTEX
  8
0
  6
CONTINUOUS
 10
5.859920
 20
3.956920
  0
VERTEX
  8
0
  6
CONTINUOUS
 10
5.826040
 20
3.953840
  0
VERTEX
  8
0
  6
CONTINUOUS
 10
5.793480
 20
3.947680
  0
VERTEX
  8
0
  6
CONTINUOUS
 10
5.746400
 20
3.932720
  0
VERTEX
  8
0
  6
CONTINUOUS
 10
5.702400
 20
3.912040
  0
VERTEX
  8
0
  6
CONTINUOUS
 10
5.662360
 20
3.885640
  0
VERTEX
  8
0
  6
CONTINUOUS
 10
5.625840
 20
3.854400
  0
VERTEX
  8
0
  6
CONTINUOUS
 10
5.594160
 20
3.818320
  0
VERTEX
  8
0
  6
CONTINUOUS
 10
5.575680
 20
3.791920
  0
VERTEX
  8
0
  6
CONTINUOUS
 10
5.552360
 20
3.749680
  0
VERTEX
  8
0
  6
CONTINUOUS
 10
5.534760
 20
3.703920
  0
VERTEX
  8
0
  6
CONTINUOUS
 10
5.523760
 20
3.655520
  0
VERTEX
  8
0
  6
CONTINUOUS
 10
5.521560
 20
3.638800
  0
VERTEX
  8
0
  6
CONTINUOUS
 10
5.348640
 20
3.638800
  0
VERTEX
  8
0
  6
CONTINUOUS
 10
5.337640
 20
3.609760
  0
VERTEX
  8
0
  6
CONTINUOUS
 10
5.320040
 20
3.578960
  0
VERTEX
  8
0
  6
CONTINUOUS
 10
5.287480
 20
3.535840
  0
VERTEX
  8
0
  6
CONTINUOUS
 10
5.246560
 20
3.493600
  0
VERTEX
  8
0
  6
CONTINUOUS
 10
5.200800
 20
3.454880
  0
VERTEX
  8
0
  6
CONTINUOUS
 10
5.176600
 20
3.437280
  0
VERTEX
  8
0
  6
CONTINUOUS
 10
5.126880
 20
3.408240
  0
VERTEX
  8
0
  6
CONTINUOUS
 10
5.089920
 20
3.392840
  0
VERTEX
  8
0
  6
CONTINUOUS
 10
5.066160
 20
3.385800
  0
VERTEX
  8
0
  6
CONTINUOUS
 10
5.043280
 20
3.382280
  0
VERTEX
  8
0
  6
CONTINUOUS
 10
5.032280
 20
3.381840
  0
VERTEX
  8
0
  6
CONTINUOUS
 10
5.032720
 20
3.381840
  0
SEQEND
  8
0
  0
SOLID
  8
0
 62
    15
 10
6.601760
 20
1.851960
 11
7.353720
 21
1.848000
 12
6.600000
 22
1.817640
 13
7.351960
 23
1.813680
  0
POLYLINE
  8
0
  6
CONTINUOUS
 66
     1
 40
0.000000
 41
0.000000
  0
VERTEX
  8
0
  6
CONTINUOUS
 10
6.601760
 20
1.851960
  0
VERTEX
  8
0
  6
CONTINUOUS
 10
7.353720
 20
1.848000
  0
VERTEX
  8
0
  6
CONTINUOUS
 10
7.351960
 20
1.813680
  0
VERTEX
  8
0
  6
CONTINUOUS
 10
6.600000
 20
1.817640
  0
VERTEX
  8
0
  6
CONTINUOUS
 10
6.601760
 20
1.851960
  0
SEQEND
  8
0
  0
SOLID
  8
0
 62
    15
 10
6.032840
 20
2.737240
 11
6.785240
 21
2.733720
 12
6.039880
 22
2.685760
 13
6.791840
 23
2.681800
  0
POLYLINE
  8
0
  6
CONTINUOUS
 66
     1
 40
0.000000
 41
0.000000
  0
VERTEX
  8
0
  6
CONTINUOUS
 10
6.032840
 20
2.737240
  0
VERTEX
  8
0
  6
CONTINUOUS
 10
6.785240
 20
2.733720
  0
VERTEX
  8
0
  6
CONTINUOUS
 10
6.791840
 20
2.681800
  0
VERTEX
  8
0
  6
CONTINUOUS
 10
6.039880
 20
2.685760
  0
VERTEX
  8
0
  6
CONTINUOUS
 10
6.032840
 20
2.737240
  0
SEQEND
  8
0
  0
SOLID
  8
0
 62
    15
 10
6.039880
 20
2.685760
 11
6.791840
 21
2.681800
 12
6.057920
 22
2.634280
 13
6.809880
 23
2.630320
  0
POLYLINE
  8
0
  6
CONTINUOUS
 66
     1
 40
0.000000
 41
0.000000
  0
VERTEX
  8
0
  6
CONTINUOUS
 10
6.039880
 20
2.685760
  0
VERTEX
  8
0
  6
CONTINUOUS
 10
6.791840
 20
2.681800
  0
VERTEX
  8
0
  6
CONTINUOUS
 10
6.809880
 20
2.630320
  0
VERTEX
  8
0
  6
CONTINUOUS
 10
6.057920
 20
2.634280
  0
VERTEX
  8
0
  6
CONTINUOUS
 10
6.039880
 20
2.685760
  0
SEQEND
  8
0
  0
SOLID
  8
0
 62
    15
 10
6.057920
 20
2.634280
 11
6.809880
 21
2.630320
 12
6.085640
 22
2.584560
 13
6.837600
 23
2.580600
  0
POLYLINE
  8
0
  6
CONTINUOUS
 66
     1
 40
0.000000
 41
0.000000
  0
VERTEX
  8
0
  6
CONTINUOUS
 10
6.057920
 20
2.634280
  0
VERTEX
  8
0
  6
CONTINUOUS
 10
6.809880
 20
2.630320
  0
VERTEX
  8
0
  6
CONTINUOUS
 10
6.837600
 20
2.580600
  0
VERTEX
  8
0
  6
CONTINUOUS
 10
6.085640
 20
2.584560
  0
VERTEX
  8
0
  6
CONTINUOUS
 10
6.057920
 20
2.634280
  0
SEQEND
  8
0
  0
SOLID
  8
0
 62
    15
 10
6.085640
 20
2.584560
 11
6.837600
 21
2.580600
 12
6.120400
 22
2.538360
 13
6.872360
 23
2.534400
  0
POLYLINE
  8
0
  6
CONTINUOUS
 66
     1
 40
0.000000
 41
0.000000
  0
VERTEX
  8
0
  6
CONTINUOUS
 10
6.085640
 20
2.584560
  0
VERTEX
  8
0
  6
CONTINUOUS
 10
6.837600
 20
2.580600
  0
VERTEX
  8
0
  6
CONTINUOUS
 10
6.872360
 20
2.534400
  0
VERTEX
  8
0
  6
CONTINUOUS
 10
6.120400
 20
2.538360
  0
VERTEX
  8
0
  6
CONTINUOUS
 10
6.085640
 20
2.584560
  0
SEQEND
  8
0
  0
SOLID
  8
0
 62
    15
 10
6.120400
 20
2.538360
 11
6.872360
 21
2.534400
 12
6.160000
 22
2.497000
 13
6.911960
 23
2.493040
  0
POLYLINE
  8
0
  6
CONTINUOUS
 66
     1
 40
0.000000
 41
0.000000
  0
VERTEX
  8
0
  6
CONTINUOUS
 10
6.120400
 20
2.538360
  0
VERTEX
  8
0
  6
CONTINUOUS
 10
6.872360
 20
2.534400
  0
VERTEX
  8
0
  6
CONTINUOUS
 10
6.911960
 20
2.493040
  0
VERTEX
  8
0
  6
CONTINUOUS
 10
6.160000
 20
2.497000
  0
VERTEX
  8
0
  6
CONTINUOUS
 10
6.120400
 20
2.538360
  0
SEQEND
  8
0
  0
SOLID
  8
0
 62
    15
 10
6.160000
 20
2.497000
 11
6.911960
 21
2.493040
 12
6.201800
 22
2.462680
 13
6.953760
 23
2.458720
  0
POLYLINE
  8
0
  6
CONTINUOUS
 66
     1
 40
0.000000
 41
0.000000
  0
VERTEX
  8
0
  6
CONTINUOUS
 10
6.160000
 20
2.497000
  0
VERTEX
  8
0
  6
CONTINUOUS
 10
6.911960
 20
2.493040
  0
VERTEX
  8
0
  6
CONTINUOUS
 10
6.953760
 20
2.458720
  0
VERTEX
  8
0
  6
CONTINUOUS
 10
6.201800
 20
2.462680
  0
VERTEX
  8
0
  6
CONTINUOUS
 10
6.160000
 20
2.497000
  0
SEQEND
  8
0
  0
SOLID
  8
0
 62
    15
 10
6.201800
 20
2.462680
 11
6.953760
 21
2.458720
 12
6.243600
 22
2.436720
 13
6.995560
 23
2.432760
  0
POLYLINE
  8
0
  6
CONTINUOUS
 66
     1
 40
0.000000
 41
0.000000
  0
VERTEX
  8
0
  6
CONTINUOUS
 10
6.201800
 20
2.462680
  0
VERTEX
  8
0
  6
CONTINUOUS
 10
6.953760
 20
2.458720
  0
VERTEX
  8
0
  6
CONTINUOUS
 10
6.995560
 20
2.432760
  0
VERTEX
  8
0
  6
CONTINUOUS
 10
6.243600
 20
2.436720
  0
VERTEX
  8
0
  6
CONTINUOUS
 10
6.201800
 20
2.462680
  0
SEQEND
  8
0
  0
SOLID
  8
0
 62
    15
 10
6.243600
 20
2.436720
 11
6.995560
 21
2.432760
 12
6.282760
 22
2.421320
 13
7.034720
 23
2.417360
  0
POLYLINE
  8
0
  6
CONTINUOUS
 66
     1
 40
0.000000
 41
0.000000
  0
VERTEX
  8
0
  6
CONTINUOUS
 10
6.243600
 20
2.436720
  0
VERTEX
  8
0
  6
CONTINUOUS
 10
6.995560
 20
2.432760
  0
VERTEX
  8
0
  6
CONTINUOUS
 10
7.034720
 20
2.417360
  0
VERTEX
  8
0
  6
CONTINUOUS
 10
6.282760
 20
2.421320
  0
VERTEX
  8
0
  6
CONTINUOUS
 10
6.243600
 20
2.436720
  0
SEQEND
  8
0
  0
SOLID
  8
0
 62
    15
 10
6.282760
 20
2.421320
 11
7.034720
 21
2.417360
 12
6.282760
 22
2.207480
 13
7.034720
 23
2.203520
  0
POLYLINE
  8
0
  6
CONTINUOUS
 66
     1
 40
0.000000
 41
0.000000
  0
VERTEX
  8
0
  6
CONTINUOUS
 10
6.282760
 20
2.421320
  0
VERTEX
  8
0
  6
CONTINUOUS
 10
7.034720
 20
2.417360
  0
VERTEX
  8
0
  6
CONTINUOUS
 10
7.034720
 20
2.203520
  0
VERTEX
  8
0
  6
CONTINUOUS
 10
6.282760
 20
2.207480
  0
VERTEX
  8
0
  6
CONTINUOUS
 10
6.282760
 20
2.421320
  0
SEQEND
  8
0
  0
SOLID
  8
0
 62
    15
 10
6.282760
 20
2.207480
 11
7.034720
 21
2.203520
 12
6.315760
 22
2.202200
 13
7.067720
 23
2.198240
  0
POLYLINE
  8
0
  6
CONTINUOUS
 66
     1
 40
0.000000
 41
0.000000
  0
VERTEX
  8
0
  6
CONTINUOUS
 10
6.282760
 20
2.207480
  0
VERTEX
  8
0
  6
CONTINUOUS
 10
7.034720
 20
2.203520
  0
VERTEX
  8
0
  6
CONTINUOUS
 10
7.067720
 20
2.198240
  0
VERTEX
  8
0
  6
CONTINUOUS
 10
6.315760
 20
2.202200
  0
VERTEX
  8
0
  6
CONTINUOUS
 10
6.282760
 20
2.207480
  0
SEQEND
  8
0
  0
SOLID
  8
0
 62
    15
 10
6.315760
 20
2.202200
 11
7.067720
 21
2.198240
 12
6.347880
 22
2.193840
 13
7.099840
 23
2.190320
  0
POLYLINE
  8
0
  6
CONTINUOUS
 66
     1
 40
0.000000
 41
0.000000
  0
VERTEX
  8
0
  6
CONTINUOUS
 10
6.315760
 20
2.202200
  0
VERTEX
  8
0
  6
CONTINUOUS
 10
7.067720
 20
2.198240
  0
VERTEX
  8
0
  6
CONTINUOUS
 10
7.099840
 20
2.190320
  0
VERTEX
  8
0
  6
CONTINUOUS
 10
6.347880
 20
2.193840
  0
VERTEX
  8
0
  6
CONTINUOUS
 10
6.315760
 20
2.202200
  0
SEQEND
  8
0
  0
SOLID
  8
0
 62
    15
 10
6.347880
 20
2.193840
 11
7.099840
 21
2.190320
 12
6.408160
 22
2.169640
 13
7.160120
 23
2.165680
  0
POLYLINE
  8
0
  6
CONTINUOUS
 66
     1
 40
0.000000
 41
0.000000
  0
VERTEX
  8
0
  6
CONTINUOUS
 10
6.347880
 20
2.193840
  0
VERTEX
  8
0
  6
CONTINUOUS
 10
7.099840
 20
2.190320
  0
VERTEX
  8
0
  6
CONTINUOUS
 10
7.160120
 20
2.165680
  0
VERTEX
  8
0
  6
CONTINUOUS
 10
6.408160
 20
2.169640
  0
VERTEX
  8
0
  6
CONTINUOUS
 10
6.347880
 20
2.193840
  0
SEQEND
  8
0
  0
SOLID
  8
0
 62
    15
 10
6.408160
 20
2.169640
 11
7.160120
 21
2.165680
 12
6.462280
 22
2.134880
 13
7.214680
 23
2.130920
  0
POLYLINE
  8
0
  6
CONTINUOUS
 66
     1
 40
0.000000
 41
0.000000
  0
VERTEX
  8
0
  6
CONTINUOUS
 10
6.408160
 20
2.169640
  0
VERTEX
  8
0
  6
CONTINUOUS
 10
7.160120
 20
2.165680
  0
VERTEX
  8
0
  6
CONTINUOUS
 10
7.214680
 20
2.130920
  0
VERTEX
  8
0
  6
CONTINUOUS
 10
6.462280
 20
2.134880
  0
VERTEX
  8
0
  6
CONTINUOUS
 10
6.408160
 20
2.169640
  0
SEQEND
  8
0
  0
SOLID
  8
0
 62
    15
 10
6.462280
 20
2.134880
 11
7.214680
 21
2.130920
 12
6.509360
 22
2.091320
 13
7.261320
 23
2.087800
  0
POLYLINE
  8
0
  6
CONTINUOUS
 66
     1
 40
0.000000
 41
0.000000
  0
VERTEX
  8
0
  6
CONTINUOUS
 10
6.462280
 20
2.134880
  0
VERTEX
  8
0
  6
CONTINUOUS
 10
7.214680
 20
2.130920
  0
VERTEX
  8
0
  6
CONTINUOUS
 10
7.261320
 20
2.087800
  0
VERTEX
  8
0
  6
CONTINUOUS
 10
6.509360
 20
2.091320
  0
VERTEX
  8
0
  6
CONTINUOUS
 10
6.462280
 20
2.134880
  0
SEQEND
  8
0
  0
SOLID
  8
0
 62
    15
 10
6.509360
 20
2.091320
 11
7.261320
 21
2.087800
 12
6.548080
 22
2.040280
 13
7.300040
 23
2.036320
  0
POLYLINE
  8
0
  6
CONTINUOUS
 66
     1
 40
0.000000
 41
0.000000
  0
VERTEX
  8
0
  6
CONTINUOUS
 10
6.509360
 20
2.091320
  0
VERTEX
  8
0
  6
CONTINUOUS
 10
7.261320
 20
2.087800
  0
VERTEX
  8
0
  6
CONTINUOUS
 10
7.300040
 20
2.036320
  0
VERTEX
  8
0
  6
CONTINUOUS
 10
6.548080
 20
2.040280
  0
VERTEX
  8
0
  6
CONTINUOUS
 10
6.509360
 20
2.091320
  0
SEQEND
  8
0
  0
SOLID
  8
0
 62
    15
 10
6.548080
 20
2.040280
 11
7.300040
 21
2.036320
 12
6.577120
 22
1.982200
 13
7.329080
 23
1.978680
  0
POLYLINE
  8
0
  6
CONTINUOUS
 66
     1
 40
0.000000
 41
0.000000
  0
VERTEX
  8
0
  6
CONTINUOUS
 10
6.548080
 20
2.040280
  0
VERTEX
  8
0
  6
CONTINUOUS
 10
7.300040
 20
2.036320
  0
VERTEX
  8
0
  6
CONTINUOUS
 10
7.329080
 20
1.978680
  0
VERTEX
  8
0
  6
CONTINUOUS
 10
6.577120
 20
1.982200
  0
VERTEX
  8
0
  6
CONTINUOUS
 10
6.548080
 20
2.040280
  0
SEQEND
  8
0
  0
SOLID
  8
0
 62
    15
 10
6.577120
 20
1.982200
 11
7.329080
 21
1.978680
 12
6.595160
 22
1.919280
 13
7.347560
 23
1.915320
  0
POLYLINE
  8
0
  6
CONTINUOUS
 66
     1
 40
0.000000
 41
0.000000
  0
VERTEX
  8
0
  6
CONTINUOUS
 10
6.577120
 20
1.982200
  0
VERTEX
  8
0
  6
CONTINUOUS
 10
7.329080
 20
1.978680
  0
VERTEX
  8
0
  6
CONTINUOUS
 10
7.347560
 20
1.915320
  0
VERTEX
  8
0
  6
CONTINUOUS
 10
6.595160
 20
1.919280
  0
VERTEX
  8
0
  6
CONTINUOUS
 10
6.577120
 20
1.982200
  0
SEQEND
  8
0
  0
SOLID
  8
0
 62
    15
 10
6.595160
 20
1.919280
 11
7.347560
 21
1.915320
 12
6.600000
 22
1.885840
 13
7.351960
 23
1.882320
  0
POLYLINE
  8
0
  6
CONTINUOUS
 66
     1
 40
0.000000
 41
0.000000
  0
VERTEX
  8
0
  6
CONTINUOUS
 10
6.595160
 20
1.919280
  0
VERTEX
  8
0
  6
CONTINUOUS
 10
7.347560
 20
1.915320
  0
VERTEX
  8
0
  6
CONTINUOUS
 10
7.351960
 20
1.882320
  0
VERTEX
  8
0
  6
CONTINUOUS
 10
6.600000
 20
1.885840
  0
VERTEX
  8
0
  6
CONTINUOUS
 10
6.595160
 20
1.919280
  0
SEQEND
  8
0
  0
SOLID
  8
0
 62
    15
 10
6.600000
 20
1.885840
 11
7.351960
 21
1.882320
 12
6.601760
 22
1.851960
 13
7.353720
 23
1.848000
  0
POLYLINE
  8
0
  6
CONTINUOUS
 66
     1
 40
0.000000
 41
0.000000
  0
VERTEX
  8
0
  6
CONTINUOUS
 10
6.600000
 20
1.885840
  0
VERTEX
  8
0
  6
CONTINUOUS
 10
7.351960
 20
1.882320
  0
VERTEX
  8
0
  6
CONTINUOUS
 10
7.353720
 20
1.848000
  0
VERTEX
  8
0
  6
CONTINUOUS
 10
6.601760
 20
1.851960
  0
VERTEX
  8
0
  6
CONTINUOUS
 10
6.600000
 20
1.885840
  0
SEQEND
  8
0
  0
SOLID
  8
0
 62
    15
 10
6.026240
 20
1.007600
 11
6.778200
 21
1.003640
 12
5.913160
 22
1.007600
 13
6.665120
 23
1.003640
  0
POLYLINE
  8
0
  6
CONTINUOUS
 66
     1
 40
0.000000
 41
0.000000
  0
VERTEX
  8
0
  6
CONTINUOUS
 10
6.026240
 20
1.007600
  0
VERTEX
  8
0
  6
CONTINUOUS
 10
6.778200
 20
1.003640
  0
VERTEX
  8
0
  6
CONTINUOUS
 10
6.665120
 20
1.003640
  0
VERTEX
  8
0
  6
CONTINUOUS
 10
5.913160
 20
1.007600
  0
VERTEX
  8
0
  6
CONTINUOUS
 10
6.026240
 20
1.007600
  0
SEQEND
  8
0
  0
SOLID
  8
0
 62
    15
 10
6.600000
 20
1.817640
 11
7.351960
 21
1.813680
 12
6.595160
 22
1.784200
 13
7.347560
 23
1.780680
  0
POLYLINE
  8
0
  6
CONTINUOUS
 66
     1
 40
0.000000
 41
0.000000
  0
VERTEX
  8
0
  6
CONTINUOUS
 10
6.600000
 20
1.817640
  0
VERTEX
  8
0
  6
CONTINUOUS
 10
7.351960
 20
1.813680
  0
VERTEX
  8
0
  6
CONTINUOUS
 10
7.347560
 20
1.780680
  0
VERTEX
  8
0
  6
CONTINUOUS
 10
6.595160
 20
1.784200
  0
VERTEX
  8
0
  6
CONTINUOUS
 10
6.600000
 20
1.817640
  0
SEQEND
  8
0
  0
SOLID
  8
0
 62
    15
 10
6.595160
 20
1.784200
 11
7.347560
 21
1.780680
 12
6.577120
 22
1.721280
 13
7.329080
 23
1.717320
  0
POLYLINE
  8
0
  6
CONTINUOUS
 66
     1
 40
0.000000
 41
0.000000
  0
VERTEX
  8
0
  6
CONTINUOUS
 10
6.595160
 20
1.784200
  0
VERTEX
  8
0
  6
CONTINUOUS
 10
7.347560
 20
1.780680
  0
VERTEX
  8
0
  6
CONTINUOUS
 10
7.329080
 20
1.717320
  0
VERTEX
  8
0
  6
CONTINUOUS
 10
6.577120
 20
1.721280
  0
VERTEX
  8
0
  6
CONTINUOUS
 10
6.595160
 20
1.784200
  0
SEQEND
  8
0
  0
SOLID
  8
0
 62
    15
 10
6.577120
 20
1.721280
 11
7.329080
 21
1.717320
 12
6.548080
 22
1.663200
 13
7.300040
 23
1.659680
  0
POLYLINE
  8
0
  6
CONTINUOUS
 66
     1
 40
0.000000
 41
0.000000
  0
VERTEX
  8
0
  6
CONTINUOUS
 10
6.577120
 20
1.721280
  0
VERTEX
  8
0
  6
CONTINUOUS
 10
7.329080
 20
1.717320
  0
VERTEX
  8
0
  6
CONTINUOUS
 10
7.300040
 20
1.659680
  0
VERTEX
  8
0
  6
CONTINUOUS
 10
6.548080
 20
1.663200
  0
VERTEX
  8
0
  6
CONTINUOUS
 10
6.577120
 20
1.721280
  0
SEQEND
  8
0
  0
SOLID
  8
0
 62
    15
 10
6.548080
 20
1.663200
 11
7.300040
 21
1.659680
 12
6.509360
 22
1.612160
 13
7.261760
 23
1.608200
  0
POLYLINE
  8
0
  6
CONTINUOUS
 66
     1
 40
0.000000
 41
0.000000
  0
VERTEX
  8
0
  6
CONTINUOUS
 10
6.548080
 20
1.663200
  0
VERTEX
  8
0
  6
CONTINUOUS
 10
7.300040
 20
1.659680
  0
VERTEX
  8
0
  6
CONTINUOUS
 10
7.261760
 20
1.608200
  0
VERTEX
  8
0
  6
CONTINUOUS
 10
6.509360
 20
1.612160
  0
VERTEX
  8
0
  6
CONTINUOUS
 10
6.548080
 20
1.663200
  0
SEQEND
  8
0
  0
SOLID
  8
0
 62
    15
 10
6.509360
 20
1.612160
 11
7.261760
 21
1.608200
 12
6.462720
 22
1.568600
 13
7.214680
 23
1.565080
  0
POLYLINE
  8
0
  6
CONTINUOUS
 66
     1
 40
0.000000
 41
0.000000
  0
VERTEX
  8
0
  6
CONTINUOUS
 10
6.509360
 20
1.612160
  0
VERTEX
  8
0
  6
CONTINUOUS
 10
7.261760
 20
1.608200
  0
VERTEX
  8
0
  6
CONTINUOUS
 10
7.214680
 20
1.565080
  0
VERTEX
  8
0
  6
CONTINUOUS
 10
6.462720
 20
1.568600
  0
VERTEX
  8
0
  6
CONTINUOUS
 10
6.509360
 20
1.612160
  0
SEQEND
  8
0
  0
SOLID
  8
0
 62
    15
 10
6.462720
 20
1.568600
 11
7.214680
 21
1.565080
 12
6.408600
 22
1.534280
 13
7.160560
 23
1.530320
  0
POLYLINE
  8
0
  6
CONTINUOUS
 66
     1
 40
0.000000
 41
0.000000
  0
VERTEX
  8
0
  6
CONTINUOUS
 10
6.462720
 20
1.568600
  0
VERTEX
  8
0
  6
CONTINUOUS
 10
7.214680
 20
1.565080
  0
VERTEX
  8
0
  6
CONTINUOUS
 10
7.160560
 20
1.530320
  0
VERTEX
  8
0
  6
CONTINUOUS
 10
6.408600
 20
1.534280
  0
VERTEX
  8
0
  6
CONTINUOUS
 10
6.462720
 20
1.568600
  0
SEQEND
  8
0
  0
SOLID
  8
0
 62
    15
 10
6.408600
 20
1.534280
 11
7.160560
 21
1.530320
 12
6.348320
 22
1.509640
 13
7.100280
 23
1.505680
  0
POLYLINE
  8
0
  6
CONTINUOUS
 66
     1
 40
0.000000
 41
0.000000
  0
VERTEX
  8
0
  6
CONTINUOUS
 10
6.408600
 20
1.534280
  0
VERTEX
  8
0
  6
CONTINUOUS
 10
7.160560
 20
1.530320
  0
VERTEX
  8
0
  6
CONTINUOUS
 10
7.100280
 20
1.505680
  0
VERTEX
  8
0
  6
CONTINUOUS
 10
6.348320
 20
1.509640
  0
VERTEX
  8
0
  6
CONTINUOUS
 10
6.408600
 20
1.534280
  0
SEQEND
  8
0
  0
SOLID
  8
0
 62
    15
 10
6.348320
 20
1.509640
 11
7.100280
 21
1.505680
 12
6.316200
 22
1.501280
 13
7.068160
 23
1.497760
  0
POLYLINE
  8
0
  6
CONTINUOUS
 66
     1
 40
0.000000
 41
0.000000
  0
VERTEX
  8
0
  6
CONTINUOUS
 10
6.348320
 20
1.509640
  0
VERTEX
  8
0
  6
CONTINUOUS
 10
7.100280
 20
1.505680
  0
VERTEX
  8
0
  6
CONTINUOUS
 10
7.068160
 20
1.497760
  0
VERTEX
  8
0
  6
CONTINUOUS
 10
6.316200
 20
1.501280
  0
VERTEX
  8
0
  6
CONTINUOUS
 10
6.348320
 20
1.509640
  0
SEQEND
  8
0
  0
SOLID
  8
0
 62
    15
 10
6.316200
 20
1.501280
 11
7.068160
 21
1.497760
 12
6.283200
 22
1.496440
 13
7.035160
 23
1.492480
  0
POLYLINE
  8
0
  6
CONTINUOUS
 66
     1
 40
0.000000
 41
0.000000
  0
VERTEX
  8
0
  6
CONTINUOUS
 10
6.316200
 20
1.501280
  0
VERTEX
  8
0
  6
CONTINUOUS
 10
7.068160
 20
1.497760
  0
VERTEX
  8
0
  6
CONTINUOUS
 10
7.035160
 20
1.492480
  0
VERTEX
  8
0
  6
CONTINUOUS
 10
6.283200
 20
1.496440
  0
VERTEX
  8
0
  6
CONTINUOUS
 10
6.316200
 20
1.501280
  0
SEQEND
  8
0
  0
SOLID
  8
0
 62
    15
 10
6.283200
 20
1.496440
 11
7.035160
 21
1.492480
 12
6.283200
 22
1.323520
 13
7.035160
 23
1.319560
  0
POLYLINE
  8
0
  6
CONTINUOUS
 66
     1
 40
0.000000
 41
0.000000
  0
VERTEX
  8
0
  6
CONTINUOUS
 10
6.283200
 20
1.496440
  0
VERTEX
  8
0
  6
CONTINUOUS
 10
7.035160
 20
1.492480
  0
VERTEX
  8
0
  6
CONTINUOUS
 10
7.035160
 20
1.319560
  0
VERTEX
  8
0
  6
CONTINUOUS
 10
6.283200
 20
1.323520
  0
VERTEX
  8
0
  6
CONTINUOUS
 10
6.283200
 20
1.496440
  0
SEQEND
  8
0
  0
SOLID
  8
0
 62
    15
 10
6.283200
 20
1.323520
 11
7.035160
 21
1.319560
 12
6.264280
 22
1.316920
 13
7.016240
 23
1.312960
  0
POLYLINE
  8
0
  6
CONTINUOUS
 66
     1
 40
0.000000
 41
0.000000
  0
VERTEX
  8
0
  6
CONTINUOUS
 10
6.283200
 20
1.323520
  0
VERTEX
  8
0
  6
CONTINUOUS
 10
7.035160
 20
1.319560
  0
VERTEX
  8
0
  6
CONTINUOUS
 10
7.016240
 20
1.312960
  0
VERTEX
  8
0
  6
CONTINUOUS
 10
6.264280
 20
1.316920
  0
VERTEX
  8
0
  6
CONTINUOUS
 10
6.283200
 20
1.323520
  0
SEQEND
  8
0
  0
SOLID
  8
0
 62
    15
 10
6.264280
 20
1.316920
 11
7.016240
 21
1.312960
 12
6.244040
 22
1.307240
 13
6.996000
 23
1.303280
  0
POLYLINE
  8
0
  6
CONTINUOUS
 66
     1
 40
0.000000
 41
0.000000
  0
VERTEX
  8
0
  6
CONTINUOUS
 10
6.264280
 20
1.316920
  0
VERTEX
  8
0
  6
CONTINUOUS
 10
7.016240
 20
1.312960
  0
VERTEX
  8
0
  6
CONTINUOUS
 10
6.996000
 20
1.303280
  0
VERTEX
  8
0
  6
CONTINUOUS
 10
6.244040
 20
1.307240
  0
VERTEX
  8
0
  6
CONTINUOUS
 10
6.264280
 20
1.316920
  0
SEQEND
  8
0
  0
SOLID
  8
0
 62
    15
 10
6.244040
 20
1.307240
 11
6.996000
 21
1.303280
 12
6.201800
 22
1.279520
 13
6.953760
 23
1.275560
  0
POLYLINE
  8
0
  6
CONTINUOUS
 66
     1
 40
0.000000
 41
0.000000
  0
VERTEX
  8
0
  6
CONTINUOUS
 10
6.244040
 20
1.307240
  0
VERTEX
  8
0
  6
CONTINUOUS
 10
6.996000
 20
1.303280
  0
VERTEX
  8
0
  6
CONTINUOUS
 10
6.953760
 20
1.275560
  0
VERTEX
  8
0
  6
CONTINUOUS
 10
6.201800
 20
1.279520
  0
VERTEX
  8
0
  6
CONTINUOUS
 10
6.244040
 20
1.307240
  0
SEQEND
  8
0
  0
SOLID
  8
0
 62
    15
 10
6.201800
 20
1.279520
 11
6.953760
 21
1.275560
 12
6.158680
 22
1.242560
 13
6.911080
 23
1.239040
  0
POLYLINE
  8
0
  6
CONTINUOUS
 66
     1
 40
0.000000
 41
0.000000
  0
VERTEX
  8
0
  6
CONTINUOUS
 10
6.201800
 20
1.279520
  0
VERTEX
  8
0
  6
CONTINUOUS
 10
6.953760
 20
1.275560
  0
VERTEX
  8
0
  6
CONTINUOUS
 10
6.911080
 20
1.239040
  0
VERTEX
  8
0
  6
CONTINUOUS
 10
6.158680
 20
1.242560
  0
VERTEX
  8
0
  6
CONTINUOUS
 10
6.201800
 20
1.279520
  0
SEQEND
  8
0
  0
SOLID
  8
0
 62
    15
 10
6.158680
 20
1.242560
 11
6.911080
 21
1.239040
 12
6.117760
 22
1.199000
 13
6.870160
 23
1.195480
  0
POLYLINE
  8
0
  6
CONTINUOUS
 66
     1
 40
0.000000
 41
0.000000
  0
VERTEX
  8
0
  6
CONTINUOUS
 10
6.158680
 20
1.242560
  0
VERTEX
  8
0
  6
CONTINUOUS
 10
6.911080
 20
1.239040
  0
VERTEX
  8
0
  6
CONTINUOUS
 10
6.870160
 20
1.195480
  0
VERTEX
  8
0
  6
CONTINUOUS
 10
6.117760
 20
1.199000
  0
VERTEX
  8
0
  6
CONTINUOUS
 10
6.158680
 20
1.242560
  0
SEQEND
  8
0
  0
SOLID
  8
0
 62
    15
 10
6.117760
 20
1.199000
 11
6.870160
 21
1.195480
 12
6.081680
 22
1.151480
 13
6.833640
 23
1.147520
  0
POLYLINE
  8
0
  6
CONTINUOUS
 66
     1
 40
0.000000
 41
0.000000
  0
VERTEX
  8
0
  6
CONTINUOUS
 10
6.117760
 20
1.199000
  0
VERTEX
  8
0
  6
CONTINUOUS
 10
6.870160
 20
1.195480
  0
VERTEX
  8
0
  6
CONTINUOUS
 10
6.833640
 20
1.147520
  0
VERTEX
  8
0
  6
CONTINUOUS
 10
6.081680
 20
1.151480
  0
VERTEX
  8
0
  6
CONTINUOUS
 10
6.117760
 20
1.199000
  0
SEQEND
  8
0
  0
SOLID
  8
0
 62
    15
 10
6.081680
 20
1.151480
 11
6.833640
 21
1.147520
 12
6.052640
 22
1.101760
 13
6.804600
 23
1.097800
  0
POLYLINE
  8
0
  6
CONTINUOUS
 66
     1
 40
0.000000
 41
0.000000
  0
VERTEX
  8
0
  6
CONTINUOUS
 10
6.081680
 20
1.151480
  0
VERTEX
  8
0
  6
CONTINUOUS
 10
6.833640
 20
1.147520
  0
VERTEX
  8
0
  6
CONTINUOUS
 10
6.804600
 20
1.097800
  0
VERTEX
  8
0
  6
CONTINUOUS
 10
6.052640
 20
1.101760
  0
VERTEX
  8
0
  6
CONTINUOUS
 10
6.081680
 20
1.151480
  0
SEQEND
  8
0
  0
SOLID
  8
0
 62
    15
 10
6.052640
 20
1.101760
 11
6.804600
 21
1.097800
 12
6.033280
 22
1.052920
 13
6.785240
 23
1.048960
  0
POLYLINE
  8
0
  6
CONTINUOUS
 66
     1
 40
0.000000
 41
0.000000
  0
VERTEX
  8
0
  6
CONTINUOUS
 10
6.052640
 20
1.101760
  0
VERTEX
  8
0
  6
CONTINUOUS
 10
6.804600
 20
1.097800
  0
VERTEX
  8
0
  6
CONTINUOUS
 10
6.785240
 20
1.048960
  0
VERTEX
  8
0
  6
CONTINUOUS
 10
6.033280
 20
1.052920
  0
VERTEX
  8
0
  6
CONTINUOUS
 10
6.052640
 20
1.101760
  0
SEQEND
  8
0
  0
SOLID
  8
0
 62
    15
 10
6.033280
 20
1.052920
 11
6.785240
 21
1.048960
 12
6.028000
 22
1.029600
 13
6.779960
 23
1.025640
  0
POLYLINE
  8
0
  6
CONTINUOUS
 66
     1
 40
0.000000
 41
0.000000
  0
VERTEX
  8
0
  6
CONTINUOUS
 10
6.033280
 20
1.052920
  0
VERTEX
  8
0
  6
CONTINUOUS
 10
6.785240
 20
1.048960
  0
VERTEX
  8
0
  6
CONTINUOUS
 10
6.779960
 20
1.025640
  0
VERTEX
  8
0
  6
CONTINUOUS
 10
6.028000
 20
1.029600
  0
VERTEX
  8
0
  6
CONTINUOUS
 10
6.033280
 20
1.052920
  0
SEQEND
  8
0
  0
SOLID
  8
0
 62
    15
 10
6.028000
 20
1.029600
 11
6.779960
 21
1.025640
 12
6.026240
 22
1.007160
 13
6.778200
 23
1.003200
  0
POLYLINE
  8
0
  6
CONTINUOUS
 66
     1
 40
0.000000
 41
0.000000
  0
VERTEX
  8
0
  6
CONTINUOUS
 10
6.028000
 20
1.029600
  0
VERTEX
  8
0
  6
CONTINUOUS
 10
6.779960
 20
1.025640
  0
VERTEX
  8
0
  6
CONTINUOUS
 10
6.778200
 20
1.003200
  0
VERTEX
  8
0
  6
CONTINUOUS
 10
6.026240
 20
1.007160
  0
VERTEX
  8
0
  6
CONTINUOUS
 10
6.028000
 20
1.029600
  0
SEQEND
  8
0
  0
POLYLINE
  8
0
  6
CONTINUOUS
 66
     1
 40
0.000000
 41
0.000000
  0
VERTEX
  8
0
  6
CONTINUOUS
 10
6.026240
 20
1.007600
  0
VERTEX
  8
0
  6
CONTINUOUS
 10
5.913160
 20
1.007600
  0
VERTEX
  8
0
  6
CONTINUOUS
 10
5.913160
 20
2.737240
  0
VERTEX
  8
0
  6
CONTINUOUS
 10
6.032840
 20
2.737240
  0
VERTEX
  8
0
  6
CONTINUOUS
 10
6.039880
 20
2.685760
  0
VERTEX
  8
0
  6
CONTINUOUS
 10
6.057920
 20
2.634280
  0
VERTEX
  8
0
  6
CONTINUOUS
 10
6.085640
 20
2.584560
  0
VERTEX
  8
0
  6
CONTINUOUS
 10
6.120400
 20
2.538360
  0
VERTEX
  8
0
  6
CONTINUOUS
 10
6.160000
 20
2.497000
  0
VERTEX
  8
0
  6
CONTINUOUS
 10
6.201800
 20
2.462680
  0
VERTEX
  8
0
  6
CONTINUOUS
 10
6.243600
 20
2.436720
  0
VERTEX
  8
0
  6
CONTINUOUS
 10
6.282760
 20
2.421320
  0
VERTEX
  8
0
  6
CONTINUOUS
 10
6.282760
 20
2.207480
  0
VERTEX
  8
0
  6
CONTINUOUS
 10
6.315760
 20
2.202200
  0
VERTEX
  8
0
  6
CONTINUOUS
 10
6.347880
 20
2.193840
  0
VERTEX
  8
0
  6
CONTINUOUS
 10
6.408160
 20
2.169640
  0
VERTEX
  8
0
  6
CONTINUOUS
 10
6.462280
 20
2.134880
  0
VERTEX
  8
0
  6
CONTINUOUS
 10
6.509360
 20
2.091320
  0
VERTEX
  8
0
  6
CONTINUOUS
 10
6.548080
 20
2.040280
  0
VERTEX
  8
0
  6
CONTINUOUS
 10
6.577120
 20
1.982200
  0
VERTEX
  8
0
  6
CONTINUOUS
 10
6.595160
 20
1.919280
  0
VERTEX
  8
0
  6
CONTINUOUS
 10
6.600000
 20
1.885840
  0
VERTEX
  8
0
  6
CONTINUOUS
 10
6.601760
 20
1.851960
  0
VERTEX
  8
0
  6
CONTINUOUS
 10
6.600000
 20
1.817640
  0
VERTEX
  8
0
  6
CONTINUOUS
 10
6.595160
 20
1.784200
  0
VERTEX
  8
0
  6
CONTINUOUS
 10
6.577120
 20
1.721280
  0
VERTEX
  8
0
  6
CONTINUOUS
 10
6.548080
 20
1.663200
  0
VERTEX
  8
0
  6
CONTINUOUS
 10
6.509360
 20
1.612160
  0
VERTEX
  8
0
  6
CONTINUOUS
 10
6.462720
 20
1.568600
  0
VERTEX
  8
0
  6
CONTINUOUS
 10
6.408600
 20
1.534280
  0
VERTEX
  8
0
  6
CONTINUOUS
 10
6.348320
 20
1.509640
  0
VERTEX
  8
0
  6
CONTINUOUS
 10
6.316200
 20
1.501280
  0
VERTEX
  8
0
  6
CONTINUOUS
 10
6.283200
 20
1.496440
  0
VERTEX
  8
0
  6
CONTINUOUS
 10
6.283200
 20
1.323520
  0
VERTEX
  8
0
  6
CONTINUOUS
 10
6.264280
 20
1.316920
  0
VERTEX
  8
0
  6
CONTINUOUS
 10
6.244040
 20
1.307240
  0
VERTEX
  8
0
  6
CONTINUOUS
 10
6.201800
 20
1.279520
  0
VERTEX
  8
0
  6
CONTINUOUS
 10
6.158680
 20
1.242560
  0
VERTEX
  8
0
  6
CONTINUOUS
 10
6.117760
 20
1.199000
  0
VERTEX
  8
0
  6
CONTINUOUS
 10
6.081680
 20
1.151480
  0
VERTEX
  8
0
  6
CONTINUOUS
 10
6.052640
 20
1.101760
  0
VERTEX
  8
0
  6
CONTINUOUS
 10
6.033280
 20
1.052920
  0
VERTEX
  8
0
  6
CONTINUOUS
 10
6.028000
 20
1.029600
  0
VERTEX
  8
0
  6
CONTINUOUS
 10
6.026240
 20
1.007160
  0
VERTEX
  8
0
  6
CONTINUOUS
 10
6.026240
 20
1.007600
  0
SEQEND
  8
0
  0
TEXT
  8
0
 10
6.337320
 20
0.754160
 40
0.138032
  1
BA  470
 41
1.000000
  7
SN0
 71
     0
 72
     5
 11
6.927041
 21
0.754160
  0
TEXT
  8
0
 10
6.089160
 20
0.562760
 40
0.138032
  1
11/16" x 1-3/4"
 41
1.000000
  7
SN0
 71
     0
 72
     5
 11
7.173503
 21
0.562760
  0
ENDSEC
  0
EOF
