  0
SECTION
  2
HEADER
  9
$ACADVER
  1
AC1006
  9
$EXTMIN
 10
1.728320
 20
1.441440
  9
$EXTMAX
 10
7.255160
 20
5.844520
  9
$LTSCALE
 40
0.044000
  9
$PDMODE
 70
    35
  9
$PDSIZE
 40
0.035200
  0
ENDSEC
  0
SECTION
  2
TABLES
  0
TABLE
  2
LTYPE
 70
     9
  0
LTYPE
  2
CONTINUOUS
 70
    64
  3
Solid line
 72
    65
 73
     0
 40
0.000000
  0
LTYPE
  2
DASHED
 70
    64
  3
__ __ __ __ __ __ __ __ __ __ __ __ __ __ __
 72
    65
 73
     2
 40
0.000330
 49
0.000220
 49
-0.000110
  0
LTYPE
  2
HIDDEN
 70
    64
  3
 _ _ _ _ _ _ _ _ _ _ _ _ _ _ _ _ _ _ _ _ _ _
 72
    65
 73
     2
 40
0.000165
 49
0.000110
 49
-0.000055
  0
LTYPE
  2
CENTER
 70
    64
  3
____ _ ____ _ ____ _ ____ _ ____ _ ____ _ ____
 72
    65
 73
     4
 40
0.000880
 49
0.000550
 49
-0.000110
 49
0.000110
 49
-0.000110
  0
LTYPE
  2
PHANTOM
 70
    64
  3
_____ _ _ _____ _ _ _____ _ _ _____ _ _ ____
 72
    65
 73
     6
 40
0.001100
 49
0.000550
 49
-0.000110
 49
0.000110
 49
-0.000110
 49
0.000110
 49
-0.000110
  0
LTYPE
  2
DOT
 70
    64
  3
...............................................
 72
    65
 73
     2
 40
0.000110
 49
0.000000
 49
-0.000110
  0
LTYPE
  2
DASHDOT
 70
    64
  3
__ . __ . __ . __ . __ . __ . __ . __ . __ . __
 72
    65
 73
     4
 40
0.000440
 49
0.000220
 49
-0.000110
 49
0.000000
 49
-0.000110
  0
LTYPE
  2
BORDER
 70
    64
  3
__ __ . __ __ . __ __ . __ __ . __ __ . __ __
 72
    65
 73
     6
 40
0.000770
 49
0.000220
 49
-0.000110
 49
0.000220
 49
-0.000110
 49
0.000000
 49
-0.000110
  0
LTYPE
  2
DIVIDE
 70
    64
  3
__ . . __ . . __ . . __ . . __ . . __ . . __
 72
    65
 73
     6
 40
0.000550
 49
0.000220
 49
-0.000110
 49
0.000000
 49
-0.000110
 49
0.000000
 49
-0.000110
  0
LTYPE
  2
DOTDOT
 70
    64
  3
 . .  . .  . .  . .  . .  . . 
 72
    65
 73
     5
 40
0.000242
 49
-0.000110
 49
0.000000
 49
-0.000110
 49
0.000000
 49
-0.000110
  0
ENDTAB
  0
TABLE
  2
STYLE
 70
     2
  0
STYLE
 70
     0
  2
SN0
 40
0.000000
 41
0.000440
 50
0.000000
 71
     0
 42
0.000000
  3
ROMAND
  0
STYLE
 70
    68
  2
SV0
 40
0.000000
 41
0.000440
 50
0.000000
 71
     0
 42
0.000000
  3
ROMAND
  0
ENDTAB
  0
TABLE
  2
LAYER
 70
     3
  0
LAYER
  2
FOREGROUND
 70
    64
 62
     7
  6
CONTINUOUS
  0
LAYER
  2
BACKGROUND
 70
    65
 62
    -7
  6
CONTINUOUS
  0
LAYER
  2
0
 70
    64
 62
     7
  6
CONTINUOUS
  0
ENDTAB
  0
ENDSEC
  0
SECTION
  2
ENTITIES
  0
POLYLINE
  8
FOREGROUND
  6
CONTINUOUS
 66
     1
 40
0.000000
 41
0.000000
  0
VERTEX
  8
FOREGROUND
  6
CONTINUOUS
 10
0.000000
 20
7.285960
  0
VERTEX
  8
FOREGROUND
  6
CONTINUOUS
 10
8.499920
 20
7.285960
  0
VERTEX
  8
FOREGROUND
  6
CONTINUOUS
 10
8.499920
 20
-3.714040
  0
VERTEX
  8
FOREGROUND
  6
CONTINUOUS
 10
0.000000
 20
-3.714040
  0
VERTEX
  8
FOREGROUND
  6
CONTINUOUS
 10
0.000000
 20
7.285960
  0
SEQEND
  8
0
  0
POLYLINE
  8
FOREGROUND
  6
CONTINUOUS
 66
     1
 40
0.000000
 41
0.000000
  0
VERTEX
  8
FOREGROUND
  6
CONTINUOUS
 10
0.000000
 20
7.285960
  0
VERTEX
  8
FOREGROUND
  6
CONTINUOUS
 10
8.499920
 20
7.285960
  0
VERTEX
  8
FOREGROUND
  6
CONTINUOUS
 10
8.499920
 20
-3.714040
  0
VERTEX
  8
FOREGROUND
  6
CONTINUOUS
 10
0.000000
 20
-3.714040
  0
VERTEX
  8
FOREGROUND
  6
CONTINUOUS
 10
0.000000
 20
7.285960
  0
SEQEND
  8
0
  0
POLYLINE
  8
0
  6
CONTINUOUS
 66
     1
 40
0.014080
 41
0.014080
  0
VERTEX
  8
0
  6
CONTINUOUS
 10
5.459520
 20
5.386480
  0
VERTEX
  8
0
  6
CONTINUOUS
 10
5.408480
 20
5.445000
  0
VERTEX
  8
0
  6
CONTINUOUS
 10
5.355240
 20
5.496040
  0
VERTEX
  8
0
  6
CONTINUOUS
 10
5.300680
 20
5.540480
  0
VERTEX
  8
0
  6
CONTINUOUS
 10
5.244360
 20
5.577880
  0
VERTEX
  8
0
  6
CONTINUOUS
 10
5.186280
 20
5.609120
  0
VERTEX
  8
0
  6
CONTINUOUS
 10
5.125560
 20
5.634640
  0
VERTEX
  8
0
  6
CONTINUOUS
 10
5.063080
 20
5.654000
  0
VERTEX
  8
0
  6
CONTINUOUS
 10
5.020400
 20
5.664120
  0
VERTEX
  8
0
  6
CONTINUOUS
 10
4.953960
 20
5.674680
  0
VERTEX
  8
0
  6
CONTINUOUS
 10
4.908640
 20
5.679080
  0
VERTEX
  8
0
  6
CONTINUOUS
 10
4.862000
 20
5.681720
  0
VERTEX
  8
0
  6
CONTINUOUS
 10
4.814480
 20
5.682160
  0
VERTEX
  8
0
  6
CONTINUOUS
 10
4.715480
 20
5.677320
  0
VERTEX
  8
0
  6
CONTINUOUS
 10
4.664440
 20
5.672480
  0
VERTEX
  8
0
  6
CONTINUOUS
 10
4.611640
 20
5.665880
  0
VERTEX
  8
0
  6
CONTINUOUS
 10
4.502960
 20
5.648280
  0
VERTEX
  8
0
  6
CONTINUOUS
 10
4.389000
 20
5.625400
  0
VERTEX
  8
0
  6
CONTINUOUS
 10
4.207720
 20
5.582280
  0
VERTEX
  8
0
  6
CONTINUOUS
 10
3.945040
 20
5.513640
  0
VERTEX
  8
0
  6
CONTINUOUS
 10
3.806880
 20
5.478000
  0
VERTEX
  8
0
  6
CONTINUOUS
 10
3.709640
 20
5.457760
  0
VERTEX
  8
0
  6
CONTINUOUS
 10
3.619000
 20
5.444120
  0
VERTEX
  8
0
  6
CONTINUOUS
 10
3.534960
 20
5.436640
  0
VERTEX
  8
0
  6
CONTINUOUS
 10
3.457080
 20
5.434880
  0
VERTEX
  8
0
  6
CONTINUOUS
 10
3.385360
 20
5.438400
  0
VERTEX
  8
0
  6
CONTINUOUS
 10
3.318920
 20
5.446760
  0
VERTEX
  8
0
  6
CONTINUOUS
 10
3.257760
 20
5.459520
  0
VERTEX
  8
0
  6
CONTINUOUS
 10
3.201440
 20
5.475800
  0
VERTEX
  8
0
  6
CONTINUOUS
 10
3.133680
 20
5.503080
  0
VERTEX
  8
0
  6
CONTINUOUS
 10
3.073840
 20
5.535640
  0
VERTEX
  8
0
  6
CONTINUOUS
 10
3.020160
 20
5.572160
  0
VERTEX
  8
0
  6
CONTINUOUS
 10
2.973080
 20
5.611760
  0
VERTEX
  8
0
  6
CONTINUOUS
 10
2.931280
 20
5.653560
  0
VERTEX
  8
0
  6
CONTINUOUS
 10
2.894320
 20
5.695800
  0
VERTEX
  8
0
  6
CONTINUOUS
 10
2.831840
 20
5.779400
  0
VERTEX
  8
0
  6
CONTINUOUS
 10
2.791800
 20
5.837040
  0
VERTEX
  8
0
  6
CONTINUOUS
 10
2.764960
 20
5.833080
  0
VERTEX
  8
0
  6
CONTINUOUS
 10
2.735480
 20
5.825160
  0
VERTEX
  8
0
  6
CONTINUOUS
 10
2.687520
 20
5.805360
  0
VERTEX
  8
0
  6
CONTINUOUS
 10
2.637360
 20
5.776320
  0
VERTEX
  8
0
  6
CONTINUOUS
 10
2.603480
 20
5.751240
  0
VERTEX
  8
0
  6
CONTINUOUS
 10
2.570040
 20
5.722200
  0
VERTEX
  8
0
  6
CONTINUOUS
 10
2.537480
 20
5.688320
  0
VERTEX
  8
0
  6
CONTINUOUS
 10
2.506680
 20
5.650480
  0
VERTEX
  8
0
  6
CONTINUOUS
 10
2.478520
 20
5.607800
  0
VERTEX
  8
0
  6
CONTINUOUS
 10
2.453000
 20
5.560280
  0
VERTEX
  8
0
  6
CONTINUOUS
 10
2.431000
 20
5.508360
  0
VERTEX
  8
0
  6
CONTINUOUS
 10
2.413400
 20
5.451600
  0
VERTEX
  8
0
  6
CONTINUOUS
 10
2.400200
 20
5.390440
  0
VERTEX
  8
0
  6
CONTINUOUS
 10
2.392720
 20
5.324000
  0
VERTEX
  8
0
  6
CONTINUOUS
 10
2.391400
 20
5.252720
  0
VERTEX
  8
0
  6
CONTINUOUS
 10
2.353560
 20
5.254920
  0
VERTEX
  8
0
  6
CONTINUOUS
 10
2.310880
 20
5.261520
  0
VERTEX
  8
0
  6
CONTINUOUS
 10
2.280520
 20
5.268120
  0
VERTEX
  8
0
  6
CONTINUOUS
 10
2.248840
 20
5.276920
  0
VERTEX
  8
0
  6
CONTINUOUS
 10
2.183720
 20
5.300240
  0
VERTEX
  8
0
  6
CONTINUOUS
 10
2.119480
 20
5.331040
  0
VERTEX
  8
0
  6
CONTINUOUS
 10
2.088240
 20
5.349080
  0
VERTEX
  8
0
  6
CONTINUOUS
 10
2.043800
 20
5.379880
  0
VERTEX
  8
0
  6
CONTINUOUS
 10
2.016520
 20
5.402320
  0
VERTEX
  8
0
  6
CONTINUOUS
 10
1.980000
 20
5.439720
  0
VERTEX
  8
0
  6
CONTINUOUS
 10
1.959320
 20
5.467000
  0
VERTEX
  8
0
  6
CONTINUOUS
 10
1.941720
 20
5.496040
  0
VERTEX
  8
0
  6
CONTINUOUS
 10
1.738880
 20
5.342920
  0
VERTEX
  8
0
  6
CONTINUOUS
 10
2.054360
 20
4.968480
  0
VERTEX
  8
0
  6
CONTINUOUS
 10
5.351280
 20
4.968480
  0
VERTEX
  8
0
  6
CONTINUOUS
 10
5.933400
 20
5.482400
  0
VERTEX
  8
0
  6
CONTINUOUS
 10
5.772360
 20
5.651800
  0
VERTEX
  8
0
  6
CONTINUOUS
 10
5.459520
 20
5.386480
  0
SEQEND
  8
0
  0
SOLID
  8
0
 62
    15
 10
6.079040
 20
3.984200
 11
6.727600
 21
3.611520
 12
5.961560
 22
3.976280
 13
6.610120
 23
3.603600
  0
POLYLINE
  8
0
  6
CONTINUOUS
 66
     1
 40
0.000000
 41
0.000000
  0
VERTEX
  8
0
  6
CONTINUOUS
 10
6.079040
 20
3.984200
  0
VERTEX
  8
0
  6
CONTINUOUS
 10
6.727600
 20
3.611520
  0
VERTEX
  8
0
  6
CONTINUOUS
 10
6.610120
 20
3.603600
  0
VERTEX
  8
0
  6
CONTINUOUS
 10
5.961560
 20
3.976280
  0
VERTEX
  8
0
  6
CONTINUOUS
 10
6.079040
 20
3.984200
  0
SEQEND
  8
0
  0
SOLID
  8
0
 62
    15
 10
6.606160
 20
5.083760
 11
7.254720
 21
4.710640
 12
6.586800
 22
4.830320
 13
7.235360
 23
4.457200
  0
POLYLINE
  8
0
  6
CONTINUOUS
 66
     1
 40
0.000000
 41
0.000000
  0
VERTEX
  8
0
  6
CONTINUOUS
 10
6.606160
 20
5.083760
  0
VERTEX
  8
0
  6
CONTINUOUS
 10
7.254720
 20
4.710640
  0
VERTEX
  8
0
  6
CONTINUOUS
 10
7.235360
 20
4.457200
  0
VERTEX
  8
0
  6
CONTINUOUS
 10
6.586800
 20
4.830320
  0
VERTEX
  8
0
  6
CONTINUOUS
 10
6.606160
 20
5.083760
  0
SEQEND
  8
0
  0
SOLID
  8
0
 62
    15
 10
6.586800
 20
4.830320
 11
7.235360
 21
4.457200
 12
6.519480
 22
4.838680
 13
7.168040
 23
4.465560
  0
POLYLINE
  8
0
  6
CONTINUOUS
 66
     1
 40
0.000000
 41
0.000000
  0
VERTEX
  8
0
  6
CONTINUOUS
 10
6.586800
 20
4.830320
  0
VERTEX
  8
0
  6
CONTINUOUS
 10
7.235360
 20
4.457200
  0
VERTEX
  8
0
  6
CONTINUOUS
 10
7.168040
 20
4.465560
  0
VERTEX
  8
0
  6
CONTINUOUS
 10
6.519480
 20
4.838680
  0
VERTEX
  8
0
  6
CONTINUOUS
 10
6.586800
 20
4.830320
  0
SEQEND
  8
0
  0
SOLID
  8
0
 62
    15
 10
6.519480
 20
4.838680
 11
7.168040
 21
4.465560
 12
6.449520
 22
4.833840
 13
7.098080
 23
4.460720
  0
POLYLINE
  8
0
  6
CONTINUOUS
 66
     1
 40
0.000000
 41
0.000000
  0
VERTEX
  8
0
  6
CONTINUOUS
 10
6.519480
 20
4.838680
  0
VERTEX
  8
0
  6
CONTINUOUS
 10
7.168040
 20
4.465560
  0
VERTEX
  8
0
  6
CONTINUOUS
 10
7.098080
 20
4.460720
  0
VERTEX
  8
0
  6
CONTINUOUS
 10
6.449520
 20
4.833840
  0
VERTEX
  8
0
  6
CONTINUOUS
 10
6.519480
 20
4.838680
  0
SEQEND
  8
0
  0
SOLID
  8
0
 62
    15
 10
6.449520
 20
4.833840
 11
7.098080
 21
4.460720
 12
6.312240
 22
4.793360
 13
6.960800
 23
4.420240
  0
POLYLINE
  8
0
  6
CONTINUOUS
 66
     1
 40
0.000000
 41
0.000000
  0
VERTEX
  8
0
  6
CONTINUOUS
 10
6.449520
 20
4.833840
  0
VERTEX
  8
0
  6
CONTINUOUS
 10
7.098080
 20
4.460720
  0
VERTEX
  8
0
  6
CONTINUOUS
 10
6.960800
 20
4.420240
  0
VERTEX
  8
0
  6
CONTINUOUS
 10
6.312240
 20
4.793360
  0
VERTEX
  8
0
  6
CONTINUOUS
 10
6.449520
 20
4.833840
  0
SEQEND
  8
0
  0
SOLID
  8
0
 62
    15
 10
6.312240
 20
4.793360
 11
6.960800
 21
4.420240
 12
6.192120
 22
4.727360
 13
6.840680
 23
4.354240
  0
POLYLINE
  8
0
  6
CONTINUOUS
 66
     1
 40
0.000000
 41
0.000000
  0
VERTEX
  8
0
  6
CONTINUOUS
 10
6.312240
 20
4.793360
  0
VERTEX
  8
0
  6
CONTINUOUS
 10
6.960800
 20
4.420240
  0
VERTEX
  8
0
  6
CONTINUOUS
 10
6.840680
 20
4.354240
  0
VERTEX
  8
0
  6
CONTINUOUS
 10
6.192120
 20
4.727360
  0
VERTEX
  8
0
  6
CONTINUOUS
 10
6.312240
 20
4.793360
  0
SEQEND
  8
0
  0
SOLID
  8
0
 62
    15
 10
6.192120
 20
4.727360
 11
6.840680
 21
4.354240
 12
6.107200
 22
4.654320
 13
6.755760
 23
4.281200
  0
POLYLINE
  8
0
  6
CONTINUOUS
 66
     1
 40
0.000000
 41
0.000000
  0
VERTEX
  8
0
  6
CONTINUOUS
 10
6.192120
 20
4.727360
  0
VERTEX
  8
0
  6
CONTINUOUS
 10
6.840680
 20
4.354240
  0
VERTEX
  8
0
  6
CONTINUOUS
 10
6.755760
 20
4.281200
  0
VERTEX
  8
0
  6
CONTINUOUS
 10
6.107200
 20
4.654320
  0
VERTEX
  8
0
  6
CONTINUOUS
 10
6.192120
 20
4.727360
  0
SEQEND
  8
0
  0
SOLID
  8
0
 62
    15
 10
6.107200
 20
4.654320
 11
6.755760
 21
4.281200
 12
6.204440
 22
4.556640
 13
6.853000
 23
4.183520
  0
POLYLINE
  8
0
  6
CONTINUOUS
 66
     1
 40
0.000000
 41
0.000000
  0
VERTEX
  8
0
  6
CONTINUOUS
 10
6.107200
 20
4.654320
  0
VERTEX
  8
0
  6
CONTINUOUS
 10
6.755760
 20
4.281200
  0
VERTEX
  8
0
  6
CONTINUOUS
 10
6.853000
 20
4.183520
  0
VERTEX
  8
0
  6
CONTINUOUS
 10
6.204440
 20
4.556640
  0
VERTEX
  8
0
  6
CONTINUOUS
 10
6.107200
 20
4.654320
  0
SEQEND
  8
0
  0
SOLID
  8
0
 62
    15
 10
6.204440
 20
4.556640
 11
6.853000
 21
4.183520
 12
6.272640
 22
4.455440
 13
6.921200
 23
4.082320
  0
POLYLINE
  8
0
  6
CONTINUOUS
 66
     1
 40
0.000000
 41
0.000000
  0
VERTEX
  8
0
  6
CONTINUOUS
 10
6.204440
 20
4.556640
  0
VERTEX
  8
0
  6
CONTINUOUS
 10
6.853000
 20
4.183520
  0
VERTEX
  8
0
  6
CONTINUOUS
 10
6.921200
 20
4.082320
  0
VERTEX
  8
0
  6
CONTINUOUS
 10
6.272640
 20
4.455440
  0
VERTEX
  8
0
  6
CONTINUOUS
 10
6.204440
 20
4.556640
  0
SEQEND
  8
0
  0
SOLID
  8
0
 62
    15
 10
6.272640
 20
4.455440
 11
6.921200
 21
4.082320
 12
6.315760
 22
4.354240
 13
6.964320
 23
3.981120
  0
POLYLINE
  8
0
  6
CONTINUOUS
 66
     1
 40
0.000000
 41
0.000000
  0
VERTEX
  8
0
  6
CONTINUOUS
 10
6.272640
 20
4.455440
  0
VERTEX
  8
0
  6
CONTINUOUS
 10
6.921200
 20
4.082320
  0
VERTEX
  8
0
  6
CONTINUOUS
 10
6.964320
 20
3.981120
  0
VERTEX
  8
0
  6
CONTINUOUS
 10
6.315760
 20
4.354240
  0
VERTEX
  8
0
  6
CONTINUOUS
 10
6.272640
 20
4.455440
  0
SEQEND
  8
0
  0
SOLID
  8
0
 62
    15
 10
6.315760
 20
4.354240
 11
6.964320
 21
3.981120
 12
6.337320
 22
4.256560
 13
6.985880
 23
3.883440
  0
POLYLINE
  8
0
  6
CONTINUOUS
 66
     1
 40
0.000000
 41
0.000000
  0
VERTEX
  8
0
  6
CONTINUOUS
 10
6.315760
 20
4.354240
  0
VERTEX
  8
0
  6
CONTINUOUS
 10
6.964320
 20
3.981120
  0
VERTEX
  8
0
  6
CONTINUOUS
 10
6.985880
 20
3.883440
  0
VERTEX
  8
0
  6
CONTINUOUS
 10
6.337320
 20
4.256560
  0
VERTEX
  8
0
  6
CONTINUOUS
 10
6.315760
 20
4.354240
  0
SEQEND
  8
0
  0
SOLID
  8
0
 62
    15
 10
6.337320
 20
4.256560
 11
6.985880
 21
3.883440
 12
6.340840
 22
4.165480
 13
6.989400
 23
3.792360
  0
POLYLINE
  8
0
  6
CONTINUOUS
 66
     1
 40
0.000000
 41
0.000000
  0
VERTEX
  8
0
  6
CONTINUOUS
 10
6.337320
 20
4.256560
  0
VERTEX
  8
0
  6
CONTINUOUS
 10
6.985880
 20
3.883440
  0
VERTEX
  8
0
  6
CONTINUOUS
 10
6.989400
 20
3.792360
  0
VERTEX
  8
0
  6
CONTINUOUS
 10
6.340840
 20
4.165480
  0
VERTEX
  8
0
  6
CONTINUOUS
 10
6.337320
 20
4.256560
  0
SEQEND
  8
0
  0
SOLID
  8
0
 62
    15
 10
6.340840
 20
4.165480
 11
6.989400
 21
3.792360
 12
6.330280
 22
4.084960
 13
6.978840
 23
3.711840
  0
POLYLINE
  8
0
  6
CONTINUOUS
 66
     1
 40
0.000000
 41
0.000000
  0
VERTEX
  8
0
  6
CONTINUOUS
 10
6.340840
 20
4.165480
  0
VERTEX
  8
0
  6
CONTINUOUS
 10
6.989400
 20
3.792360
  0
VERTEX
  8
0
  6
CONTINUOUS
 10
6.978840
 20
3.711840
  0
VERTEX
  8
0
  6
CONTINUOUS
 10
6.330280
 20
4.084960
  0
VERTEX
  8
0
  6
CONTINUOUS
 10
6.340840
 20
4.165480
  0
SEQEND
  8
0
  0
SOLID
  8
0
 62
    15
 10
6.330280
 20
4.084960
 11
6.978840
 21
3.711840
 12
6.308720
 22
4.017640
 13
6.957280
 23
3.644520
  0
POLYLINE
  8
0
  6
CONTINUOUS
 66
     1
 40
0.000000
 41
0.000000
  0
VERTEX
  8
0
  6
CONTINUOUS
 10
6.330280
 20
4.084960
  0
VERTEX
  8
0
  6
CONTINUOUS
 10
6.978840
 20
3.711840
  0
VERTEX
  8
0
  6
CONTINUOUS
 10
6.957280
 20
3.644520
  0
VERTEX
  8
0
  6
CONTINUOUS
 10
6.308720
 20
4.017640
  0
VERTEX
  8
0
  6
CONTINUOUS
 10
6.330280
 20
4.084960
  0
SEQEND
  8
0
  0
SOLID
  8
0
 62
    15
 10
6.308720
 20
4.017640
 11
6.957280
 21
3.644520
 12
6.280560
 22
3.967480
 13
6.929120
 23
3.594360
  0
POLYLINE
  8
0
  6
CONTINUOUS
 66
     1
 40
0.000000
 41
0.000000
  0
VERTEX
  8
0
  6
CONTINUOUS
 10
6.308720
 20
4.017640
  0
VERTEX
  8
0
  6
CONTINUOUS
 10
6.957280
 20
3.644520
  0
VERTEX
  8
0
  6
CONTINUOUS
 10
6.929120
 20
3.594360
  0
VERTEX
  8
0
  6
CONTINUOUS
 10
6.280560
 20
3.967480
  0
VERTEX
  8
0
  6
CONTINUOUS
 10
6.308720
 20
4.017640
  0
SEQEND
  8
0
  0
SOLID
  8
0
 62
    15
 10
6.280560
 20
3.967480
 11
6.929120
 21
3.594360
 12
6.258120
 22
3.970120
 13
6.906680
 23
3.597000
  0
POLYLINE
  8
0
  6
CONTINUOUS
 66
     1
 40
0.000000
 41
0.000000
  0
VERTEX
  8
0
  6
CONTINUOUS
 10
6.280560
 20
3.967480
  0
VERTEX
  8
0
  6
CONTINUOUS
 10
6.929120
 20
3.594360
  0
VERTEX
  8
0
  6
CONTINUOUS
 10
6.906680
 20
3.597000
  0
VERTEX
  8
0
  6
CONTINUOUS
 10
6.258120
 20
3.970120
  0
VERTEX
  8
0
  6
CONTINUOUS
 10
6.280560
 20
3.967480
  0
SEQEND
  8
0
  0
SOLID
  8
0
 62
    15
 10
6.258120
 20
3.970120
 11
6.906680
 21
3.597000
 12
6.235240
 22
3.972760
 13
6.883800
 23
3.599640
  0
POLYLINE
  8
0
  6
CONTINUOUS
 66
     1
 40
0.000000
 41
0.000000
  0
VERTEX
  8
0
  6
CONTINUOUS
 10
6.258120
 20
3.970120
  0
VERTEX
  8
0
  6
CONTINUOUS
 10
6.906680
 20
3.597000
  0
VERTEX
  8
0
  6
CONTINUOUS
 10
6.883800
 20
3.599640
  0
VERTEX
  8
0
  6
CONTINUOUS
 10
6.235240
 20
3.972760
  0
VERTEX
  8
0
  6
CONTINUOUS
 10
6.258120
 20
3.970120
  0
SEQEND
  8
0
  0
SOLID
  8
0
 62
    15
 10
6.235240
 20
3.972760
 11
6.883800
 21
3.599640
 12
6.185960
 22
3.978040
 13
6.834960
 23
3.604920
  0
POLYLINE
  8
0
  6
CONTINUOUS
 66
     1
 40
0.000000
 41
0.000000
  0
VERTEX
  8
0
  6
CONTINUOUS
 10
6.235240
 20
3.972760
  0
VERTEX
  8
0
  6
CONTINUOUS
 10
6.883800
 20
3.599640
  0
VERTEX
  8
0
  6
CONTINUOUS
 10
6.834960
 20
3.604920
  0
VERTEX
  8
0
  6
CONTINUOUS
 10
6.185960
 20
3.978040
  0
VERTEX
  8
0
  6
CONTINUOUS
 10
6.235240
 20
3.972760
  0
SEQEND
  8
0
  0
SOLID
  8
0
 62
    15
 10
6.185960
 20
3.978040
 11
6.834960
 21
3.604920
 12
6.079040
 22
3.984200
 13
6.727600
 23
3.611520
  0
POLYLINE
  8
0
  6
CONTINUOUS
 66
     1
 40
0.000000
 41
0.000000
  0
VERTEX
  8
0
  6
CONTINUOUS
 10
6.185960
 20
3.978040
  0
VERTEX
  8
0
  6
CONTINUOUS
 10
6.834960
 20
3.604920
  0
VERTEX
  8
0
  6
CONTINUOUS
 10
6.727600
 20
3.611520
  0
VERTEX
  8
0
  6
CONTINUOUS
 10
6.079040
 20
3.984200
  0
VERTEX
  8
0
  6
CONTINUOUS
 10
6.185960
 20
3.978040
  0
SEQEND
  8
0
  0
SOLID
  8
0
 62
    15
 10
4.170320
 20
1.854160
 11
4.818880
 21
1.481040
 12
3.937120
 22
1.845360
 13
4.585680
 23
1.472240
  0
POLYLINE
  8
0
  6
CONTINUOUS
 66
     1
 40
0.000000
 41
0.000000
  0
VERTEX
  8
0
  6
CONTINUOUS
 10
4.170320
 20
1.854160
  0
VERTEX
  8
0
  6
CONTINUOUS
 10
4.818880
 20
1.481040
  0
VERTEX
  8
0
  6
CONTINUOUS
 10
4.585680
 20
1.472240
  0
VERTEX
  8
0
  6
CONTINUOUS
 10
3.937120
 20
1.845360
  0
VERTEX
  8
0
  6
CONTINUOUS
 10
4.170320
 20
1.854160
  0
SEQEND
  8
0
  0
SOLID
  8
0
 62
    15
 10
5.961560
 20
3.976280
 11
6.610120
 21
3.603600
 12
5.836160
 22
3.944600
 13
6.485160
 23
3.571480
  0
POLYLINE
  8
0
  6
CONTINUOUS
 66
     1
 40
0.000000
 41
0.000000
  0
VERTEX
  8
0
  6
CONTINUOUS
 10
5.961560
 20
3.976280
  0
VERTEX
  8
0
  6
CONTINUOUS
 10
6.610120
 20
3.603600
  0
VERTEX
  8
0
  6
CONTINUOUS
 10
6.485160
 20
3.571480
  0
VERTEX
  8
0
  6
CONTINUOUS
 10
5.836160
 20
3.944600
  0
VERTEX
  8
0
  6
CONTINUOUS
 10
5.961560
 20
3.976280
  0
SEQEND
  8
0
  0
SOLID
  8
0
 62
    15
 10
5.836160
 20
3.944600
 11
6.485160
 21
3.571480
 12
5.705920
 22
3.878600
 13
6.354480
 23
3.505920
  0
POLYLINE
  8
0
  6
CONTINUOUS
 66
     1
 40
0.000000
 41
0.000000
  0
VERTEX
  8
0
  6
CONTINUOUS
 10
5.836160
 20
3.944600
  0
VERTEX
  8
0
  6
CONTINUOUS
 10
6.485160
 20
3.571480
  0
VERTEX
  8
0
  6
CONTINUOUS
 10
6.354480
 20
3.505920
  0
VERTEX
  8
0
  6
CONTINUOUS
 10
5.705920
 20
3.878600
  0
VERTEX
  8
0
  6
CONTINUOUS
 10
5.836160
 20
3.944600
  0
SEQEND
  8
0
  0
SOLID
  8
0
 62
    15
 10
5.705920
 20
3.878600
 11
6.354480
 21
3.505920
 12
5.572600
 22
3.769480
 13
6.221160
 23
3.396360
  0
POLYLINE
  8
0
  6
CONTINUOUS
 66
     1
 40
0.000000
 41
0.000000
  0
VERTEX
  8
0
  6
CONTINUOUS
 10
5.705920
 20
3.878600
  0
VERTEX
  8
0
  6
CONTINUOUS
 10
6.354480
 20
3.505920
  0
VERTEX
  8
0
  6
CONTINUOUS
 10
6.221160
 20
3.396360
  0
VERTEX
  8
0
  6
CONTINUOUS
 10
5.572600
 20
3.769480
  0
VERTEX
  8
0
  6
CONTINUOUS
 10
5.705920
 20
3.878600
  0
SEQEND
  8
0
  0
SOLID
  8
0
 62
    15
 10
5.572600
 20
3.769480
 11
6.221160
 21
3.396360
 12
5.505720
 22
3.695120
 13
6.154280
 23
3.322440
  0
POLYLINE
  8
0
  6
CONTINUOUS
 66
     1
 40
0.000000
 41
0.000000
  0
VERTEX
  8
0
  6
CONTINUOUS
 10
5.572600
 20
3.769480
  0
VERTEX
  8
0
  6
CONTINUOUS
 10
6.221160
 20
3.396360
  0
VERTEX
  8
0
  6
CONTINUOUS
 10
6.154280
 20
3.322440
  0
VERTEX
  8
0
  6
CONTINUOUS
 10
5.505720
 20
3.695120
  0
VERTEX
  8
0
  6
CONTINUOUS
 10
5.572600
 20
3.769480
  0
SEQEND
  8
0
  0
SOLID
  8
0
 62
    15
 10
5.505720
 20
3.695120
 11
6.154280
 21
3.322440
 12
5.438840
 22
3.606680
 13
6.087400
 23
3.233560
  0
POLYLINE
  8
0
  6
CONTINUOUS
 66
     1
 40
0.000000
 41
0.000000
  0
VERTEX
  8
0
  6
CONTINUOUS
 10
5.505720
 20
3.695120
  0
VERTEX
  8
0
  6
CONTINUOUS
 10
6.154280
 20
3.322440
  0
VERTEX
  8
0
  6
CONTINUOUS
 10
6.087400
 20
3.233560
  0
VERTEX
  8
0
  6
CONTINUOUS
 10
5.438840
 20
3.606680
  0
VERTEX
  8
0
  6
CONTINUOUS
 10
5.505720
 20
3.695120
  0
SEQEND
  8
0
  0
SOLID
  8
0
 62
    15
 10
5.438840
 20
3.606680
 11
6.087400
 21
3.233560
 12
5.372840
 22
3.501960
 13
6.021400
 23
3.129280
  0
POLYLINE
  8
0
  6
CONTINUOUS
 66
     1
 40
0.000000
 41
0.000000
  0
VERTEX
  8
0
  6
CONTINUOUS
 10
5.438840
 20
3.606680
  0
VERTEX
  8
0
  6
CONTINUOUS
 10
6.087400
 20
3.233560
  0
VERTEX
  8
0
  6
CONTINUOUS
 10
6.021400
 20
3.129280
  0
VERTEX
  8
0
  6
CONTINUOUS
 10
5.372840
 20
3.501960
  0
VERTEX
  8
0
  6
CONTINUOUS
 10
5.438840
 20
3.606680
  0
SEQEND
  8
0
  0
SOLID
  8
0
 62
    15
 10
5.372840
 20
3.501960
 11
6.021400
 21
3.129280
 12
5.307280
 22
3.380520
 13
5.955840
 23
3.007400
  0
POLYLINE
  8
0
  6
CONTINUOUS
 66
     1
 40
0.000000
 41
0.000000
  0
VERTEX
  8
0
  6
CONTINUOUS
 10
5.372840
 20
3.501960
  0
VERTEX
  8
0
  6
CONTINUOUS
 10
6.021400
 20
3.129280
  0
VERTEX
  8
0
  6
CONTINUOUS
 10
5.955840
 20
3.007400
  0
VERTEX
  8
0
  6
CONTINUOUS
 10
5.307280
 20
3.380520
  0
VERTEX
  8
0
  6
CONTINUOUS
 10
5.372840
 20
3.501960
  0
SEQEND
  8
0
  0
SOLID
  8
0
 62
    15
 10
5.307280
 20
3.380520
 11
5.955840
 21
3.007400
 12
5.275160
 22
3.316280
 13
5.924160
 23
2.943160
  0
POLYLINE
  8
0
  6
CONTINUOUS
 66
     1
 40
0.000000
 41
0.000000
  0
VERTEX
  8
0
  6
CONTINUOUS
 10
5.307280
 20
3.380520
  0
VERTEX
  8
0
  6
CONTINUOUS
 10
5.955840
 20
3.007400
  0
VERTEX
  8
0
  6
CONTINUOUS
 10
5.924160
 20
2.943160
  0
VERTEX
  8
0
  6
CONTINUOUS
 10
5.275160
 20
3.316280
  0
VERTEX
  8
0
  6
CONTINUOUS
 10
5.307280
 20
3.380520
  0
SEQEND
  8
0
  0
SOLID
  8
0
 62
    15
 10
5.275160
 20
3.316280
 11
5.924160
 21
2.943160
 12
5.243920
 22
3.252920
 13
5.892480
 23
2.880240
  0
POLYLINE
  8
0
  6
CONTINUOUS
 66
     1
 40
0.000000
 41
0.000000
  0
VERTEX
  8
0
  6
CONTINUOUS
 10
5.275160
 20
3.316280
  0
VERTEX
  8
0
  6
CONTINUOUS
 10
5.924160
 20
2.943160
  0
VERTEX
  8
0
  6
CONTINUOUS
 10
5.892480
 20
2.880240
  0
VERTEX
  8
0
  6
CONTINUOUS
 10
5.243920
 20
3.252920
  0
VERTEX
  8
0
  6
CONTINUOUS
 10
5.275160
 20
3.316280
  0
SEQEND
  8
0
  0
SOLID
  8
0
 62
    15
 10
5.243920
 20
3.252920
 11
5.892480
 21
2.880240
 12
5.183200
 22
3.131920
 13
5.831760
 23
2.758800
  0
POLYLINE
  8
0
  6
CONTINUOUS
 66
     1
 40
0.000000
 41
0.000000
  0
VERTEX
  8
0
  6
CONTINUOUS
 10
5.243920
 20
3.252920
  0
VERTEX
  8
0
  6
CONTINUOUS
 10
5.892480
 20
2.880240
  0
VERTEX
  8
0
  6
CONTINUOUS
 10
5.831760
 20
2.758800
  0
VERTEX
  8
0
  6
CONTINUOUS
 10
5.183200
 20
3.131920
  0
VERTEX
  8
0
  6
CONTINUOUS
 10
5.243920
 20
3.252920
  0
SEQEND
  8
0
  0
SOLID
  8
0
 62
    15
 10
5.183200
 20
3.131920
 11
5.831760
 21
2.758800
 12
5.065280
 22
2.909280
 13
5.713840
 23
2.536160
  0
POLYLINE
  8
0
  6
CONTINUOUS
 66
     1
 40
0.000000
 41
0.000000
  0
VERTEX
  8
0
  6
CONTINUOUS
 10
5.183200
 20
3.131920
  0
VERTEX
  8
0
  6
CONTINUOUS
 10
5.831760
 20
2.758800
  0
VERTEX
  8
0
  6
CONTINUOUS
 10
5.713840
 20
2.536160
  0
VERTEX
  8
0
  6
CONTINUOUS
 10
5.065280
 20
2.909280
  0
VERTEX
  8
0
  6
CONTINUOUS
 10
5.183200
 20
3.131920
  0
SEQEND
  8
0
  0
SOLID
  8
0
 62
    15
 10
5.065280
 20
2.909280
 11
5.713840
 21
2.536160
 12
4.948240
 22
2.715240
 13
5.596800
 23
2.342560
  0
POLYLINE
  8
0
  6
CONTINUOUS
 66
     1
 40
0.000000
 41
0.000000
  0
VERTEX
  8
0
  6
CONTINUOUS
 10
5.065280
 20
2.909280
  0
VERTEX
  8
0
  6
CONTINUOUS
 10
5.713840
 20
2.536160
  0
VERTEX
  8
0
  6
CONTINUOUS
 10
5.596800
 20
2.342560
  0
VERTEX
  8
0
  6
CONTINUOUS
 10
4.948240
 20
2.715240
  0
VERTEX
  8
0
  6
CONTINUOUS
 10
5.065280
 20
2.909280
  0
SEQEND
  8
0
  0
SOLID
  8
0
 62
    15
 10
4.948240
 20
2.715240
 11
5.596800
 21
2.342560
 12
4.826800
 22
2.552880
 13
5.475360
 23
2.179760
  0
POLYLINE
  8
0
  6
CONTINUOUS
 66
     1
 40
0.000000
 41
0.000000
  0
VERTEX
  8
0
  6
CONTINUOUS
 10
4.948240
 20
2.715240
  0
VERTEX
  8
0
  6
CONTINUOUS
 10
5.596800
 20
2.342560
  0
VERTEX
  8
0
  6
CONTINUOUS
 10
5.475360
 20
2.179760
  0
VERTEX
  8
0
  6
CONTINUOUS
 10
4.826800
 20
2.552880
  0
VERTEX
  8
0
  6
CONTINUOUS
 10
4.948240
 20
2.715240
  0
SEQEND
  8
0
  0
SOLID
  8
0
 62
    15
 10
4.826800
 20
2.552880
 11
5.475360
 21
2.179760
 12
4.694360
 22
2.423520
 13
5.342920
 23
2.050840
  0
POLYLINE
  8
0
  6
CONTINUOUS
 66
     1
 40
0.000000
 41
0.000000
  0
VERTEX
  8
0
  6
CONTINUOUS
 10
4.826800
 20
2.552880
  0
VERTEX
  8
0
  6
CONTINUOUS
 10
5.475360
 20
2.179760
  0
VERTEX
  8
0
  6
CONTINUOUS
 10
5.342920
 20
2.050840
  0
VERTEX
  8
0
  6
CONTINUOUS
 10
4.694360
 20
2.423520
  0
VERTEX
  8
0
  6
CONTINUOUS
 10
4.826800
 20
2.552880
  0
SEQEND
  8
0
  0
SOLID
  8
0
 62
    15
 10
4.694360
 20
2.423520
 11
5.342920
 21
2.050840
 12
4.546080
 22
2.330680
 13
5.194640
 23
1.958000
  0
POLYLINE
  8
0
  6
CONTINUOUS
 66
     1
 40
0.000000
 41
0.000000
  0
VERTEX
  8
0
  6
CONTINUOUS
 10
4.694360
 20
2.423520
  0
VERTEX
  8
0
  6
CONTINUOUS
 10
5.342920
 20
2.050840
  0
VERTEX
  8
0
  6
CONTINUOUS
 10
5.194640
 20
1.958000
  0
VERTEX
  8
0
  6
CONTINUOUS
 10
4.546080
 20
2.330680
  0
VERTEX
  8
0
  6
CONTINUOUS
 10
4.694360
 20
2.423520
  0
SEQEND
  8
0
  0
SOLID
  8
0
 62
    15
 10
4.546080
 20
2.330680
 11
5.194640
 21
1.958000
 12
4.376240
 22
2.277000
 13
5.024800
 23
1.903880
  0
POLYLINE
  8
0
  6
CONTINUOUS
 66
     1
 40
0.000000
 41
0.000000
  0
VERTEX
  8
0
  6
CONTINUOUS
 10
4.546080
 20
2.330680
  0
VERTEX
  8
0
  6
CONTINUOUS
 10
5.194640
 20
1.958000
  0
VERTEX
  8
0
  6
CONTINUOUS
 10
5.024800
 20
1.903880
  0
VERTEX
  8
0
  6
CONTINUOUS
 10
4.376240
 20
2.277000
  0
VERTEX
  8
0
  6
CONTINUOUS
 10
4.546080
 20
2.330680
  0
SEQEND
  8
0
  0
SOLID
  8
0
 62
    15
 10
4.376240
 20
2.277000
 11
5.024800
 21
1.903880
 12
4.281200
 22
2.265120
 13
4.929760
 23
1.892000
  0
POLYLINE
  8
0
  6
CONTINUOUS
 66
     1
 40
0.000000
 41
0.000000
  0
VERTEX
  8
0
  6
CONTINUOUS
 10
4.376240
 20
2.277000
  0
VERTEX
  8
0
  6
CONTINUOUS
 10
5.024800
 20
1.903880
  0
VERTEX
  8
0
  6
CONTINUOUS
 10
4.929760
 20
1.892000
  0
VERTEX
  8
0
  6
CONTINUOUS
 10
4.281200
 20
2.265120
  0
VERTEX
  8
0
  6
CONTINUOUS
 10
4.376240
 20
2.277000
  0
SEQEND
  8
0
  0
SOLID
  8
0
 62
    15
 10
4.281200
 20
2.265120
 11
4.929760
 21
1.892000
 12
4.178680
 22
2.264240
 13
4.827240
 23
1.891120
  0
POLYLINE
  8
0
  6
CONTINUOUS
 66
     1
 40
0.000000
 41
0.000000
  0
VERTEX
  8
0
  6
CONTINUOUS
 10
4.281200
 20
2.265120
  0
VERTEX
  8
0
  6
CONTINUOUS
 10
4.929760
 20
1.892000
  0
VERTEX
  8
0
  6
CONTINUOUS
 10
4.827240
 20
1.891120
  0
VERTEX
  8
0
  6
CONTINUOUS
 10
4.178680
 20
2.264240
  0
VERTEX
  8
0
  6
CONTINUOUS
 10
4.281200
 20
2.265120
  0
SEQEND
  8
0
  0
SOLID
  8
0
 62
    15
 10
4.178680
 20
2.264240
 11
4.827240
 21
1.891120
 12
4.170320
 22
1.854160
 13
4.818880
 23
1.481040
  0
POLYLINE
  8
0
  6
CONTINUOUS
 66
     1
 40
0.000000
 41
0.000000
  0
VERTEX
  8
0
  6
CONTINUOUS
 10
4.178680
 20
2.264240
  0
VERTEX
  8
0
  6
CONTINUOUS
 10
4.827240
 20
1.891120
  0
VERTEX
  8
0
  6
CONTINUOUS
 10
4.818880
 20
1.481040
  0
VERTEX
  8
0
  6
CONTINUOUS
 10
4.170320
 20
1.854160
  0
VERTEX
  8
0
  6
CONTINUOUS
 10
4.178680
 20
2.264240
  0
SEQEND
  8
0
  0
POLYLINE
  8
0
  6
CONTINUOUS
 66
     1
 40
0.000000
 41
0.000000
  0
VERTEX
  8
0
  6
CONTINUOUS
 10
4.170320
 20
1.854160
  0
VERTEX
  8
0
  6
CONTINUOUS
 10
3.937120
 20
1.845360
  0
VERTEX
  8
0
  6
CONTINUOUS
 10
3.936680
 20
2.621960
  0
VERTEX
  8
0
  6
CONTINUOUS
 10
6.116880
 20
5.094760
  0
VERTEX
  8
0
  6
CONTINUOUS
 10
6.606160
 20
5.083760
  0
VERTEX
  8
0
  6
CONTINUOUS
 10
6.586800
 20
4.830320
  0
VERTEX
  8
0
  6
CONTINUOUS
 10
6.519480
 20
4.838680
  0
VERTEX
  8
0
  6
CONTINUOUS
 10
6.449520
 20
4.833840
  0
VERTEX
  8
0
  6
CONTINUOUS
 10
6.312240
 20
4.793360
  0
VERTEX
  8
0
  6
CONTINUOUS
 10
6.192120
 20
4.727360
  0
VERTEX
  8
0
  6
CONTINUOUS
 10
6.107200
 20
4.654320
  0
VERTEX
  8
0
  6
CONTINUOUS
 10
6.204440
 20
4.556640
  0
VERTEX
  8
0
  6
CONTINUOUS
 10
6.272640
 20
4.455440
  0
VERTEX
  8
0
  6
CONTINUOUS
 10
6.315760
 20
4.354240
  0
VERTEX
  8
0
  6
CONTINUOUS
 10
6.337320
 20
4.256560
  0
VERTEX
  8
0
  6
CONTINUOUS
 10
6.340840
 20
4.165480
  0
VERTEX
  8
0
  6
CONTINUOUS
 10
6.330280
 20
4.084960
  0
VERTEX
  8
0
  6
CONTINUOUS
 10
6.308720
 20
4.017640
  0
VERTEX
  8
0
  6
CONTINUOUS
 10
6.280560
 20
3.967480
  0
VERTEX
  8
0
  6
CONTINUOUS
 10
6.258120
 20
3.970120
  0
VERTEX
  8
0
  6
CONTINUOUS
 10
6.235240
 20
3.972760
  0
VERTEX
  8
0
  6
CONTINUOUS
 10
6.185960
 20
3.978040
  0
VERTEX
  8
0
  6
CONTINUOUS
 10
6.079040
 20
3.984200
  0
VERTEX
  8
0
  6
CONTINUOUS
 10
5.961560
 20
3.976280
  0
VERTEX
  8
0
  6
CONTINUOUS
 10
5.836160
 20
3.944600
  0
VERTEX
  8
0
  6
CONTINUOUS
 10
5.705920
 20
3.878600
  0
VERTEX
  8
0
  6
CONTINUOUS
 10
5.572600
 20
3.769480
  0
VERTEX
  8
0
  6
CONTINUOUS
 10
5.505720
 20
3.695120
  0
VERTEX
  8
0
  6
CONTINUOUS
 10
5.438840
 20
3.606680
  0
VERTEX
  8
0
  6
CONTINUOUS
 10
5.372840
 20
3.501960
  0
VERTEX
  8
0
  6
CONTINUOUS
 10
5.307280
 20
3.380520
  0
VERTEX
  8
0
  6
CONTINUOUS
 10
5.275160
 20
3.316280
  0
VERTEX
  8
0
  6
CONTINUOUS
 10
5.243920
 20
3.252920
  0
VERTEX
  8
0
  6
CONTINUOUS
 10
5.183200
 20
3.131920
  0
VERTEX
  8
0
  6
CONTINUOUS
 10
5.065280
 20
2.909280
  0
VERTEX
  8
0
  6
CONTINUOUS
 10
4.948240
 20
2.715240
  0
VERTEX
  8
0
  6
CONTINUOUS
 10
4.826800
 20
2.552880
  0
VERTEX
  8
0
  6
CONTINUOUS
 10
4.694360
 20
2.423520
  0
VERTEX
  8
0
  6
CONTINUOUS
 10
4.546080
 20
2.330680
  0
VERTEX
  8
0
  6
CONTINUOUS
 10
4.376240
 20
2.277000
  0
VERTEX
  8
0
  6
CONTINUOUS
 10
4.281200
 20
2.265120
  0
VERTEX
  8
0
  6
CONTINUOUS
 10
4.178680
 20
2.264240
  0
VERTEX
  8
0
  6
CONTINUOUS
 10
4.170320
 20
1.854160
  0
SEQEND
  8
0
  0
TEXT
  8
0
 10
5.567760
 20
1.676400
 40
0.138061
  1
BA  469
 41
1.000000
  7
SN0
 71
     0
 72
     5
 11
6.158303
 21
1.676400
  0
TEXT
  8
0
 10
5.365800
 20
1.484560
 40
0.138061
  1
7/8" x 4-3/16"
 41
1.000000
  7
SN0
 71
     0
 72
     5
 11
6.358973
 21
1.484560
  0
ENDSEC
  0
EOF
