  0
SECTION
  2
HEADER
  9
$ACADVER
  1
AC1006
  9
$EXTMIN
 10
3.703480
 20
0.610720
  9
$EXTMAX
 10
7.340960
 20
3.775200
  9
$LTSCALE
 40
0.044000
  9
$PDMODE
 70
    35
  9
$PDSIZE
 40
0.035200
  0
ENDSEC
  0
SECTION
  2
TABLES
  0
TABLE
  2
LTYPE
 70
     9
  0
LTYPE
  2
CONTINUOUS
 70
    64
  3
Solid line
 72
    65
 73
     0
 40
0.000000
  0
LTYPE
  2
DASHED
 70
    64
  3
__ __ __ __ __ __ __ __ __ __ __ __ __ __ __
 72
    65
 73
     2
 40
0.000330
 49
0.000220
 49
-0.000110
  0
LTYPE
  2
HIDDEN
 70
    64
  3
 _ _ _ _ _ _ _ _ _ _ _ _ _ _ _ _ _ _ _ _ _ _
 72
    65
 73
     2
 40
0.000165
 49
0.000110
 49
-0.000055
  0
LTYPE
  2
CENTER
 70
    64
  3
____ _ ____ _ ____ _ ____ _ ____ _ ____ _ ____
 72
    65
 73
     4
 40
0.000880
 49
0.000550
 49
-0.000110
 49
0.000110
 49
-0.000110
  0
LTYPE
  2
PHANTOM
 70
    64
  3
_____ _ _ _____ _ _ _____ _ _ _____ _ _ ____
 72
    65
 73
     6
 40
0.001100
 49
0.000550
 49
-0.000110
 49
0.000110
 49
-0.000110
 49
0.000110
 49
-0.000110
  0
LTYPE
  2
DOT
 70
    64
  3
...............................................
 72
    65
 73
     2
 40
0.000110
 49
0.000000
 49
-0.000110
  0
LTYPE
  2
DASHDOT
 70
    64
  3
__ . __ . __ . __ . __ . __ . __ . __ . __ . __
 72
    65
 73
     4
 40
0.000440
 49
0.000220
 49
-0.000110
 49
0.000000
 49
-0.000110
  0
LTYPE
  2
BORDER
 70
    64
  3
__ __ . __ __ . __ __ . __ __ . __ __ . __ __
 72
    65
 73
     6
 40
0.000770
 49
0.000220
 49
-0.000110
 49
0.000220
 49
-0.000110
 49
0.000000
 49
-0.000110
  0
LTYPE
  2
DIVIDE
 70
    64
  3
__ . . __ . . __ . . __ . . __ . . __ . . __
 72
    65
 73
     6
 40
0.000550
 49
0.000220
 49
-0.000110
 49
0.000000
 49
-0.000110
 49
0.000000
 49
-0.000110
  0
LTYPE
  2
DOTDOT
 70
    64
  3
 . .  . .  . .  . .  . .  . . 
 72
    65
 73
     5
 40
0.000242
 49
-0.000110
 49
0.000000
 49
-0.000110
 49
0.000000
 49
-0.000110
  0
ENDTAB
  0
TABLE
  2
STYLE
 70
     2
  0
STYLE
 70
     0
  2
SN0
 40
0.000000
 41
0.000440
 50
0.000000
 71
     0
 42
0.000000
  3
ROMAND
  0
STYLE
 70
    68
  2
SV0
 40
0.000000
 41
0.000440
 50
0.000000
 71
     0
 42
0.000000
  3
ROMAND
  0
ENDTAB
  0
TABLE
  2
LAYER
 70
     3
  0
LAYER
  2
FOREGROUND
 70
    64
 62
     7
  6
CONTINUOUS
  0
LAYER
  2
BACKGROUND
 70
    65
 62
    -7
  6
CONTINUOUS
  0
LAYER
  2
0
 70
    64
 62
     7
  6
CONTINUOUS
  0
ENDTAB
  0
ENDSEC
  0
SECTION
  2
ENTITIES
  0
POLYLINE
  8
FOREGROUND
  6
CONTINUOUS
 66
     1
 40
0.000000
 41
0.000000
  0
VERTEX
  8
FOREGROUND
  6
CONTINUOUS
 10
0.000000
 20
4.385920
  0
VERTEX
  8
FOREGROUND
  6
CONTINUOUS
 10
8.499920
 20
4.385920
  0
VERTEX
  8
FOREGROUND
  6
CONTINUOUS
 10
8.499920
 20
-6.614080
  0
VERTEX
  8
FOREGROUND
  6
CONTINUOUS
 10
0.000000
 20
-6.614080
  0
VERTEX
  8
FOREGROUND
  6
CONTINUOUS
 10
0.000000
 20
4.385920
  0
SEQEND
  8
0
  0
POLYLINE
  8
FOREGROUND
  6
CONTINUOUS
 66
     1
 40
0.000000
 41
0.000000
  0
VERTEX
  8
FOREGROUND
  6
CONTINUOUS
 10
0.000000
 20
4.385920
  0
VERTEX
  8
FOREGROUND
  6
CONTINUOUS
 10
8.499920
 20
4.385920
  0
VERTEX
  8
FOREGROUND
  6
CONTINUOUS
 10
8.499920
 20
-6.614080
  0
VERTEX
  8
FOREGROUND
  6
CONTINUOUS
 10
0.000000
 20
-6.614080
  0
VERTEX
  8
FOREGROUND
  6
CONTINUOUS
 10
0.000000
 20
4.385920
  0
SEQEND
  8
0
  0
POLYLINE
  8
0
  6
CONTINUOUS
 66
     1
 40
0.014080
 41
0.014080
  0
VERTEX
  8
0
  6
CONTINUOUS
 10
6.778200
 20
3.767720
  0
VERTEX
  8
0
  6
CONTINUOUS
 10
7.238440
 20
3.767720
  0
VERTEX
  8
0
  6
CONTINUOUS
 10
7.238440
 20
3.014880
  0
VERTEX
  8
0
  6
CONTINUOUS
 10
3.711400
 20
3.014880
  0
VERTEX
  8
0
  6
CONTINUOUS
 10
3.711400
 20
3.765520
  0
VERTEX
  8
0
  6
CONTINUOUS
 10
4.174720
 20
3.765520
  0
VERTEX
  8
0
  6
CONTINUOUS
 10
4.176040
 20
3.738240
  0
VERTEX
  8
0
  6
CONTINUOUS
 10
4.180440
 20
3.717120
  0
VERTEX
  8
0
  6
CONTINUOUS
 10
4.189240
 20
3.697320
  0
VERTEX
  8
0
  6
CONTINUOUS
 10
4.201120
 20
3.684560
  0
VERTEX
  8
0
  6
CONTINUOUS
 10
4.215200
 20
3.676200
  0
VERTEX
  8
0
  6
CONTINUOUS
 10
4.253040
 20
3.660800
  0
VERTEX
  8
0
  6
CONTINUOUS
 10
4.270640
 20
3.646720
  0
VERTEX
  8
0
  6
CONTINUOUS
 10
4.295720
 20
3.616800
  0
VERTEX
  8
0
  6
CONTINUOUS
 10
4.306720
 20
3.595680
  0
VERTEX
  8
0
  6
CONTINUOUS
 10
4.319480
 20
3.552560
  0
VERTEX
  8
0
  6
CONTINUOUS
 10
4.333120
 20
3.524840
  0
VERTEX
  8
0
  6
CONTINUOUS
 10
4.350280
 20
3.501960
  0
VERTEX
  8
0
  6
CONTINUOUS
 10
4.370520
 20
3.483920
  0
VERTEX
  8
0
  6
CONTINUOUS
 10
4.392960
 20
3.471600
  0
VERTEX
  8
0
  6
CONTINUOUS
 10
4.408800
 20
3.467200
  0
VERTEX
  8
0
  6
CONTINUOUS
 10
4.425080
 20
3.465880
  0
VERTEX
  8
0
  6
CONTINUOUS
 10
4.441800
 20
3.467640
  0
VERTEX
  8
0
  6
CONTINUOUS
 10
4.458080
 20
3.472920
  0
VERTEX
  8
0
  6
CONTINUOUS
 10
4.482280
 20
3.487440
  0
VERTEX
  8
0
  6
CONTINUOUS
 10
4.504720
 20
3.511200
  0
VERTEX
  8
0
  6
CONTINUOUS
 10
4.518800
 20
3.531880
  0
VERTEX
  8
0
  6
CONTINUOUS
 10
4.525400
 20
3.544200
  0
VERTEX
  8
0
  6
CONTINUOUS
 10
4.598000
 20
3.544200
  0
VERTEX
  8
0
  6
CONTINUOUS
 10
4.599760
 20
3.575880
  0
VERTEX
  8
0
  6
CONTINUOUS
 10
4.601520
 20
3.590400
  0
VERTEX
  8
0
  6
CONTINUOUS
 10
4.612080
 20
3.627360
  0
VERTEX
  8
0
  6
CONTINUOUS
 10
4.627920
 20
3.655080
  0
VERTEX
  8
0
  6
CONTINUOUS
 10
4.640240
 20
3.668720
  0
VERTEX
  8
0
  6
CONTINUOUS
 10
4.654320
 20
3.678840
  0
VERTEX
  8
0
  6
CONTINUOUS
 10
4.669720
 20
3.684560
  0
VERTEX
  8
0
  6
CONTINUOUS
 10
4.685120
 20
3.686760
  0
VERTEX
  8
0
  6
CONTINUOUS
 10
4.700960
 20
3.685000
  0
VERTEX
  8
0
  6
CONTINUOUS
 10
4.724720
 20
3.675760
  0
VERTEX
  8
0
  6
CONTINUOUS
 10
4.746280
 20
3.657720
  0
VERTEX
  8
0
  6
CONTINUOUS
 10
4.764760
 20
3.631320
  0
VERTEX
  8
0
  6
CONTINUOUS
 10
4.779280
 20
3.597000
  0
VERTEX
  8
0
  6
CONTINUOUS
 10
4.782800
 20
3.583800
  0
VERTEX
  8
0
  6
CONTINUOUS
 10
4.936800
 20
3.639240
  0
VERTEX
  8
0
  6
CONTINUOUS
 10
5.033160
 20
3.669600
  0
VERTEX
  8
0
  6
CONTINUOUS
 10
5.125560
 20
3.694240
  0
VERTEX
  8
0
  6
CONTINUOUS
 10
5.213560
 20
3.713600
  0
VERTEX
  8
0
  6
CONTINUOUS
 10
5.298920
 20
3.728120
  0
VERTEX
  8
0
  6
CONTINUOUS
 10
5.381640
 20
3.736920
  0
VERTEX
  8
0
  6
CONTINUOUS
 10
5.462600
 20
3.741320
  0
VERTEX
  8
0
  6
CONTINUOUS
 10
5.542240
 20
3.740440
  0
VERTEX
  8
0
  6
CONTINUOUS
 10
5.621440
 20
3.734720
  0
VERTEX
  8
0
  6
CONTINUOUS
 10
5.700640
 20
3.724160
  0
VERTEX
  8
0
  6
CONTINUOUS
 10
5.780280
 20
3.708760
  0
VERTEX
  8
0
  6
CONTINUOUS
 10
5.861240
 20
3.688960
  0
VERTEX
  8
0
  6
CONTINUOUS
 10
5.944400
 20
3.664760
  0
VERTEX
  8
0
  6
CONTINUOUS
 10
6.029760
 20
3.636160
  0
VERTEX
  8
0
  6
CONTINUOUS
 10
6.164400
 20
3.584680
  0
VERTEX
  8
0
  6
CONTINUOUS
 10
6.171000
 20
3.610640
  0
VERTEX
  8
0
  6
CONTINUOUS
 10
6.185960
 20
3.642760
  0
VERTEX
  8
0
  6
CONTINUOUS
 10
6.205320
 20
3.666080
  0
VERTEX
  8
0
  6
CONTINUOUS
 10
6.219840
 20
3.677520
  0
VERTEX
  8
0
  6
CONTINUOUS
 10
6.235240
 20
3.684560
  0
VERTEX
  8
0
  6
CONTINUOUS
 10
6.251520
 20
3.688080
  0
VERTEX
  8
0
  6
CONTINUOUS
 10
6.267360
 20
3.688080
  0
VERTEX
  8
0
  6
CONTINUOUS
 10
6.283200
 20
3.683680
  0
VERTEX
  8
0
  6
CONTINUOUS
 10
6.298160
 20
3.675760
  0
VERTEX
  8
0
  6
CONTINUOUS
 10
6.312240
 20
3.663880
  0
VERTEX
  8
0
  6
CONTINUOUS
 10
6.324560
 20
3.648040
  0
VERTEX
  8
0
  6
CONTINUOUS
 10
6.334680
 20
3.628240
  0
VERTEX
  8
0
  6
CONTINUOUS
 10
6.342600
 20
3.604480
  0
VERTEX
  8
0
  6
CONTINUOUS
 10
6.347440
 20
3.576760
  0
VERTEX
  8
0
  6
CONTINUOUS
 10
6.349200
 20
3.545080
  0
VERTEX
  8
0
  6
CONTINUOUS
 10
6.421800
 20
3.545080
  0
VERTEX
  8
0
  6
CONTINUOUS
 10
6.435440
 20
3.521760
  0
VERTEX
  8
0
  6
CONTINUOUS
 10
6.457440
 20
3.495360
  0
VERTEX
  8
0
  6
CONTINUOUS
 10
6.472840
 20
3.482600
  0
VERTEX
  8
0
  6
CONTINUOUS
 10
6.497480
 20
3.470720
  0
VERTEX
  8
0
  6
CONTINUOUS
 10
6.513760
 20
3.467200
  0
VERTEX
  8
0
  6
CONTINUOUS
 10
6.530040
 20
3.467200
  0
VERTEX
  8
0
  6
CONTINUOUS
 10
6.554240
 20
3.472920
  0
VERTEX
  8
0
  6
CONTINUOUS
 10
6.576680
 20
3.484800
  0
VERTEX
  8
0
  6
CONTINUOUS
 10
6.596920
 20
3.502840
  0
VERTEX
  8
0
  6
CONTINUOUS
 10
6.614080
 20
3.526160
  0
VERTEX
  8
0
  6
CONTINUOUS
 10
6.627720
 20
3.553880
  0
VERTEX
  8
0
  6
CONTINUOUS
 10
6.640480
 20
3.596560
  0
VERTEX
  8
0
  6
CONTINUOUS
 10
6.651480
 20
3.618120
  0
VERTEX
  8
0
  6
CONTINUOUS
 10
6.676560
 20
3.648040
  0
VERTEX
  8
0
  6
CONTINUOUS
 10
6.694160
 20
3.662120
  0
VERTEX
  8
0
  6
CONTINUOUS
 10
6.739480
 20
3.681040
  0
VERTEX
  8
0
  6
CONTINUOUS
 10
6.752240
 20
3.691160
  0
VERTEX
  8
0
  6
CONTINUOUS
 10
6.757960
 20
3.698200
  0
VERTEX
  8
0
  6
CONTINUOUS
 10
6.766760
 20
3.718440
  0
VERTEX
  8
0
  6
CONTINUOUS
 10
6.772040
 20
3.747480
  0
VERTEX
  8
0
  6
CONTINUOUS
 10
6.772480
 20
3.766400
  0
VERTEX
  8
0
  6
CONTINUOUS
 10
6.778200
 20
3.767720
  0
SEQEND
  8
0
  0
SOLID
  8
0
 62
    15
 10
5.524640
 20
1.793880
 11
5.523320
 21
2.541880
 12
5.604720
 22
1.795640
 13
5.603840
 23
2.543640
  0
POLYLINE
  8
0
  6
CONTINUOUS
 66
     1
 40
0.000000
 41
0.000000
  0
VERTEX
  8
0
  6
CONTINUOUS
 10
5.524640
 20
1.793880
  0
VERTEX
  8
0
  6
CONTINUOUS
 10
5.523320
 20
2.541880
  0
VERTEX
  8
0
  6
CONTINUOUS
 10
5.603840
 20
2.543640
  0
VERTEX
  8
0
  6
CONTINUOUS
 10
5.604720
 20
1.795640
  0
VERTEX
  8
0
  6
CONTINUOUS
 10
5.524640
 20
1.793880
  0
SEQEND
  8
0
  0
SOLID
  8
0
 62
    15
 10
3.813480
 20
1.069200
 11
3.812600
 21
1.816760
 12
3.813480
 22
1.819400
 13
3.812600
 23
2.567400
  0
POLYLINE
  8
0
  6
CONTINUOUS
 66
     1
 40
0.000000
 41
0.000000
  0
VERTEX
  8
0
  6
CONTINUOUS
 10
3.813480
 20
1.069200
  0
VERTEX
  8
0
  6
CONTINUOUS
 10
3.812600
 20
1.816760
  0
VERTEX
  8
0
  6
CONTINUOUS
 10
3.812600
 20
2.567400
  0
VERTEX
  8
0
  6
CONTINUOUS
 10
3.813480
 20
1.819400
  0
VERTEX
  8
0
  6
CONTINUOUS
 10
3.813480
 20
1.069200
  0
SEQEND
  8
0
  0
SOLID
  8
0
 62
    15
 10
3.813480
 20
1.819400
 11
3.812600
 21
2.567400
 12
4.277240
 22
1.819400
 13
4.275920
 23
2.567400
  0
POLYLINE
  8
0
  6
CONTINUOUS
 66
     1
 40
0.000000
 41
0.000000
  0
VERTEX
  8
0
  6
CONTINUOUS
 10
3.813480
 20
1.819400
  0
VERTEX
  8
0
  6
CONTINUOUS
 10
3.812600
 20
2.567400
  0
VERTEX
  8
0
  6
CONTINUOUS
 10
4.275920
 20
2.567400
  0
VERTEX
  8
0
  6
CONTINUOUS
 10
4.277240
 20
1.819400
  0
VERTEX
  8
0
  6
CONTINUOUS
 10
3.813480
 20
1.819400
  0
SEQEND
  8
0
  0
SOLID
  8
0
 62
    15
 10
4.277240
 20
1.819400
 11
4.275920
 21
2.567400
 12
4.279440
 22
1.784640
 13
4.278560
 23
2.532640
  0
POLYLINE
  8
0
  6
CONTINUOUS
 66
     1
 40
0.000000
 41
0.000000
  0
VERTEX
  8
0
  6
CONTINUOUS
 10
4.277240
 20
1.819400
  0
VERTEX
  8
0
  6
CONTINUOUS
 10
4.275920
 20
2.567400
  0
VERTEX
  8
0
  6
CONTINUOUS
 10
4.278560
 20
2.532640
  0
VERTEX
  8
0
  6
CONTINUOUS
 10
4.279440
 20
1.784640
  0
VERTEX
  8
0
  6
CONTINUOUS
 10
4.277240
 20
1.819400
  0
SEQEND
  8
0
  0
SOLID
  8
0
 62
    15
 10
4.279440
 20
1.784640
 11
4.278560
 21
2.532640
 12
4.286480
 22
1.760440
 13
4.285600
 23
2.508440
  0
POLYLINE
  8
0
  6
CONTINUOUS
 66
     1
 40
0.000000
 41
0.000000
  0
VERTEX
  8
0
  6
CONTINUOUS
 10
4.279440
 20
1.784640
  0
VERTEX
  8
0
  6
CONTINUOUS
 10
4.278560
 20
2.532640
  0
VERTEX
  8
0
  6
CONTINUOUS
 10
4.285600
 20
2.508440
  0
VERTEX
  8
0
  6
CONTINUOUS
 10
4.286480
 20
1.760440
  0
VERTEX
  8
0
  6
CONTINUOUS
 10
4.279440
 20
1.784640
  0
SEQEND
  8
0
  0
SOLID
  8
0
 62
    15
 10
4.286480
 20
1.760440
 11
4.285600
 21
2.508440
 12
4.297040
 22
1.744160
 13
4.296160
 23
2.492160
  0
POLYLINE
  8
0
  6
CONTINUOUS
 66
     1
 40
0.000000
 41
0.000000
  0
VERTEX
  8
0
  6
CONTINUOUS
 10
4.286480
 20
1.760440
  0
VERTEX
  8
0
  6
CONTINUOUS
 10
4.285600
 20
2.508440
  0
VERTEX
  8
0
  6
CONTINUOUS
 10
4.296160
 20
2.492160
  0
VERTEX
  8
0
  6
CONTINUOUS
 10
4.297040
 20
1.744160
  0
VERTEX
  8
0
  6
CONTINUOUS
 10
4.286480
 20
1.760440
  0
SEQEND
  8
0
  0
SOLID
  8
0
 62
    15
 10
4.297040
 20
1.744160
 11
4.296160
 21
2.492160
 12
4.310240
 22
1.734040
 13
4.309360
 23
2.482040
  0
POLYLINE
  8
0
  6
CONTINUOUS
 66
     1
 40
0.000000
 41
0.000000
  0
VERTEX
  8
0
  6
CONTINUOUS
 10
4.297040
 20
1.744160
  0
VERTEX
  8
0
  6
CONTINUOUS
 10
4.296160
 20
2.492160
  0
VERTEX
  8
0
  6
CONTINUOUS
 10
4.309360
 20
2.482040
  0
VERTEX
  8
0
  6
CONTINUOUS
 10
4.310240
 20
1.734040
  0
VERTEX
  8
0
  6
CONTINUOUS
 10
4.297040
 20
1.744160
  0
SEQEND
  8
0
  0
SOLID
  8
0
 62
    15
 10
4.310240
 20
1.734040
 11
4.309360
 21
2.482040
 12
4.340600
 22
1.721720
 13
4.339280
 23
2.469720
  0
POLYLINE
  8
0
  6
CONTINUOUS
 66
     1
 40
0.000000
 41
0.000000
  0
VERTEX
  8
0
  6
CONTINUOUS
 10
4.310240
 20
1.734040
  0
VERTEX
  8
0
  6
CONTINUOUS
 10
4.309360
 20
2.482040
  0
VERTEX
  8
0
  6
CONTINUOUS
 10
4.339280
 20
2.469720
  0
VERTEX
  8
0
  6
CONTINUOUS
 10
4.340600
 20
1.721720
  0
VERTEX
  8
0
  6
CONTINUOUS
 10
4.310240
 20
1.734040
  0
SEQEND
  8
0
  0
SOLID
  8
0
 62
    15
 10
4.340600
 20
1.721720
 11
4.339280
 21
2.469720
 12
4.355560
 22
1.715120
 13
4.354240
 23
2.463120
  0
POLYLINE
  8
0
  6
CONTINUOUS
 66
     1
 40
0.000000
 41
0.000000
  0
VERTEX
  8
0
  6
CONTINUOUS
 10
4.340600
 20
1.721720
  0
VERTEX
  8
0
  6
CONTINUOUS
 10
4.339280
 20
2.469720
  0
VERTEX
  8
0
  6
CONTINUOUS
 10
4.354240
 20
2.463120
  0
VERTEX
  8
0
  6
CONTINUOUS
 10
4.355560
 20
1.715120
  0
VERTEX
  8
0
  6
CONTINUOUS
 10
4.340600
 20
1.721720
  0
SEQEND
  8
0
  0
SOLID
  8
0
 62
    15
 10
4.355560
 20
1.715120
 11
4.354240
 21
2.463120
 12
4.369200
 22
1.704560
 13
4.368320
 23
2.452560
  0
POLYLINE
  8
0
  6
CONTINUOUS
 66
     1
 40
0.000000
 41
0.000000
  0
VERTEX
  8
0
  6
CONTINUOUS
 10
4.355560
 20
1.715120
  0
VERTEX
  8
0
  6
CONTINUOUS
 10
4.354240
 20
2.463120
  0
VERTEX
  8
0
  6
CONTINUOUS
 10
4.368320
 20
2.452560
  0
VERTEX
  8
0
  6
CONTINUOUS
 10
4.369200
 20
1.704560
  0
VERTEX
  8
0
  6
CONTINUOUS
 10
4.355560
 20
1.715120
  0
SEQEND
  8
0
  0
SOLID
  8
0
 62
    15
 10
4.369200
 20
1.704560
 11
4.368320
 21
2.452560
 12
4.373160
 22
1.701040
 13
4.371840
 23
2.449040
  0
POLYLINE
  8
0
  6
CONTINUOUS
 66
     1
 40
0.000000
 41
0.000000
  0
VERTEX
  8
0
  6
CONTINUOUS
 10
4.369200
 20
1.704560
  0
VERTEX
  8
0
  6
CONTINUOUS
 10
4.368320
 20
2.452560
  0
VERTEX
  8
0
  6
CONTINUOUS
 10
4.371840
 20
2.449040
  0
VERTEX
  8
0
  6
CONTINUOUS
 10
4.373160
 20
1.701040
  0
VERTEX
  8
0
  6
CONTINUOUS
 10
4.369200
 20
1.704560
  0
SEQEND
  8
0
  0
SOLID
  8
0
 62
    15
 10
4.373160
 20
1.701040
 11
4.371840
 21
2.449040
 12
4.378440
 22
1.695760
 13
4.377120
 23
2.443320
  0
POLYLINE
  8
0
  6
CONTINUOUS
 66
     1
 40
0.000000
 41
0.000000
  0
VERTEX
  8
0
  6
CONTINUOUS
 10
4.373160
 20
1.701040
  0
VERTEX
  8
0
  6
CONTINUOUS
 10
4.371840
 20
2.449040
  0
VERTEX
  8
0
  6
CONTINUOUS
 10
4.377120
 20
2.443320
  0
VERTEX
  8
0
  6
CONTINUOUS
 10
4.378440
 20
1.695760
  0
VERTEX
  8
0
  6
CONTINUOUS
 10
4.373160
 20
1.701040
  0
SEQEND
  8
0
  0
SOLID
  8
0
 62
    15
 10
4.378440
 20
1.695760
 11
4.377120
 21
2.443320
 12
4.391200
 22
1.680360
 13
4.390320
 23
2.428360
  0
POLYLINE
  8
0
  6
CONTINUOUS
 66
     1
 40
0.000000
 41
0.000000
  0
VERTEX
  8
0
  6
CONTINUOUS
 10
4.378440
 20
1.695760
  0
VERTEX
  8
0
  6
CONTINUOUS
 10
4.377120
 20
2.443320
  0
VERTEX
  8
0
  6
CONTINUOUS
 10
4.390320
 20
2.428360
  0
VERTEX
  8
0
  6
CONTINUOUS
 10
4.391200
 20
1.680360
  0
VERTEX
  8
0
  6
CONTINUOUS
 10
4.378440
 20
1.695760
  0
SEQEND
  8
0
  0
SOLID
  8
0
 62
    15
 10
4.391200
 20
1.680360
 11
4.390320
 21
2.428360
 12
4.404400
 22
1.660560
 13
4.403080
 23
2.408560
  0
POLYLINE
  8
0
  6
CONTINUOUS
 66
     1
 40
0.000000
 41
0.000000
  0
VERTEX
  8
0
  6
CONTINUOUS
 10
4.391200
 20
1.680360
  0
VERTEX
  8
0
  6
CONTINUOUS
 10
4.390320
 20
2.428360
  0
VERTEX
  8
0
  6
CONTINUOUS
 10
4.403080
 20
2.408560
  0
VERTEX
  8
0
  6
CONTINUOUS
 10
4.404400
 20
1.660560
  0
VERTEX
  8
0
  6
CONTINUOUS
 10
4.391200
 20
1.680360
  0
SEQEND
  8
0
  0
SOLID
  8
0
 62
    15
 10
4.404400
 20
1.660560
 11
4.403080
 21
2.408560
 12
4.412760
 22
1.638120
 13
4.411440
 23
2.386120
  0
POLYLINE
  8
0
  6
CONTINUOUS
 66
     1
 40
0.000000
 41
0.000000
  0
VERTEX
  8
0
  6
CONTINUOUS
 10
4.404400
 20
1.660560
  0
VERTEX
  8
0
  6
CONTINUOUS
 10
4.403080
 20
2.408560
  0
VERTEX
  8
0
  6
CONTINUOUS
 10
4.411440
 20
2.386120
  0
VERTEX
  8
0
  6
CONTINUOUS
 10
4.412760
 20
1.638120
  0
VERTEX
  8
0
  6
CONTINUOUS
 10
4.404400
 20
1.660560
  0
SEQEND
  8
0
  0
SOLID
  8
0
 62
    15
 10
4.412760
 20
1.638120
 11
4.411440
 21
2.386120
 12
4.425960
 22
1.597200
 13
4.424640
 23
2.344760
  0
POLYLINE
  8
0
  6
CONTINUOUS
 66
     1
 40
0.000000
 41
0.000000
  0
VERTEX
  8
0
  6
CONTINUOUS
 10
4.412760
 20
1.638120
  0
VERTEX
  8
0
  6
CONTINUOUS
 10
4.411440
 20
2.386120
  0
VERTEX
  8
0
  6
CONTINUOUS
 10
4.424640
 20
2.344760
  0
VERTEX
  8
0
  6
CONTINUOUS
 10
4.425960
 20
1.597200
  0
VERTEX
  8
0
  6
CONTINUOUS
 10
4.412760
 20
1.638120
  0
SEQEND
  8
0
  0
SOLID
  8
0
 62
    15
 10
4.425960
 20
1.597200
 11
4.424640
 21
2.344760
 12
4.446640
 22
1.563320
 13
4.445320
 23
2.310880
  0
POLYLINE
  8
0
  6
CONTINUOUS
 66
     1
 40
0.000000
 41
0.000000
  0
VERTEX
  8
0
  6
CONTINUOUS
 10
4.425960
 20
1.597200
  0
VERTEX
  8
0
  6
CONTINUOUS
 10
4.424640
 20
2.344760
  0
VERTEX
  8
0
  6
CONTINUOUS
 10
4.445320
 20
2.310880
  0
VERTEX
  8
0
  6
CONTINUOUS
 10
4.446640
 20
1.563320
  0
VERTEX
  8
0
  6
CONTINUOUS
 10
4.425960
 20
1.597200
  0
SEQEND
  8
0
  0
SOLID
  8
0
 62
    15
 10
4.446640
 20
1.563320
 11
4.445320
 21
2.310880
 12
4.473040
 22
1.538240
 13
4.471720
 23
2.285800
  0
POLYLINE
  8
0
  6
CONTINUOUS
 66
     1
 40
0.000000
 41
0.000000
  0
VERTEX
  8
0
  6
CONTINUOUS
 10
4.446640
 20
1.563320
  0
VERTEX
  8
0
  6
CONTINUOUS
 10
4.445320
 20
2.310880
  0
VERTEX
  8
0
  6
CONTINUOUS
 10
4.471720
 20
2.285800
  0
VERTEX
  8
0
  6
CONTINUOUS
 10
4.473040
 20
1.538240
  0
VERTEX
  8
0
  6
CONTINUOUS
 10
4.446640
 20
1.563320
  0
SEQEND
  8
0
  0
SOLID
  8
0
 62
    15
 10
4.473040
 20
1.538240
 11
4.471720
 21
2.285800
 12
4.503400
 22
1.523280
 13
4.502080
 23
2.271280
  0
POLYLINE
  8
0
  6
CONTINUOUS
 66
     1
 40
0.000000
 41
0.000000
  0
VERTEX
  8
0
  6
CONTINUOUS
 10
4.473040
 20
1.538240
  0
VERTEX
  8
0
  6
CONTINUOUS
 10
4.471720
 20
2.285800
  0
VERTEX
  8
0
  6
CONTINUOUS
 10
4.502080
 20
2.271280
  0
VERTEX
  8
0
  6
CONTINUOUS
 10
4.503400
 20
1.523280
  0
VERTEX
  8
0
  6
CONTINUOUS
 10
4.473040
 20
1.538240
  0
SEQEND
  8
0
  0
SOLID
  8
0
 62
    15
 10
4.503400
 20
1.523280
 11
4.502080
 21
2.271280
 12
4.535520
 22
1.520200
 13
4.534640
 23
2.268200
  0
POLYLINE
  8
0
  6
CONTINUOUS
 66
     1
 40
0.000000
 41
0.000000
  0
VERTEX
  8
0
  6
CONTINUOUS
 10
4.503400
 20
1.523280
  0
VERTEX
  8
0
  6
CONTINUOUS
 10
4.502080
 20
2.271280
  0
VERTEX
  8
0
  6
CONTINUOUS
 10
4.534640
 20
2.268200
  0
VERTEX
  8
0
  6
CONTINUOUS
 10
4.535520
 20
1.520200
  0
VERTEX
  8
0
  6
CONTINUOUS
 10
4.503400
 20
1.523280
  0
SEQEND
  8
0
  0
SOLID
  8
0
 62
    15
 10
4.535520
 20
1.520200
 11
4.534640
 21
2.268200
 12
4.568520
 22
1.530760
 13
4.567200
 23
2.278760
  0
POLYLINE
  8
0
  6
CONTINUOUS
 66
     1
 40
0.000000
 41
0.000000
  0
VERTEX
  8
0
  6
CONTINUOUS
 10
4.535520
 20
1.520200
  0
VERTEX
  8
0
  6
CONTINUOUS
 10
4.534640
 20
2.268200
  0
VERTEX
  8
0
  6
CONTINUOUS
 10
4.567200
 20
2.278760
  0
VERTEX
  8
0
  6
CONTINUOUS
 10
4.568520
 20
1.530760
  0
VERTEX
  8
0
  6
CONTINUOUS
 10
4.535520
 20
1.520200
  0
SEQEND
  8
0
  0
SOLID
  8
0
 62
    15
 10
4.568520
 20
1.530760
 11
4.567200
 21
2.278760
 12
4.584360
 22
1.541760
 13
4.583480
 23
2.289760
  0
POLYLINE
  8
0
  6
CONTINUOUS
 66
     1
 40
0.000000
 41
0.000000
  0
VERTEX
  8
0
  6
CONTINUOUS
 10
4.568520
 20
1.530760
  0
VERTEX
  8
0
  6
CONTINUOUS
 10
4.567200
 20
2.278760
  0
VERTEX
  8
0
  6
CONTINUOUS
 10
4.583480
 20
2.289760
  0
VERTEX
  8
0
  6
CONTINUOUS
 10
4.584360
 20
1.541760
  0
VERTEX
  8
0
  6
CONTINUOUS
 10
4.568520
 20
1.530760
  0
SEQEND
  8
0
  0
SOLID
  8
0
 62
    15
 10
4.584360
 20
1.541760
 11
4.583480
 21
2.289760
 12
4.599760
 22
1.556280
 13
4.598440
 23
2.304280
  0
POLYLINE
  8
0
  6
CONTINUOUS
 66
     1
 40
0.000000
 41
0.000000
  0
VERTEX
  8
0
  6
CONTINUOUS
 10
4.584360
 20
1.541760
  0
VERTEX
  8
0
  6
CONTINUOUS
 10
4.583480
 20
2.289760
  0
VERTEX
  8
0
  6
CONTINUOUS
 10
4.598440
 20
2.304280
  0
VERTEX
  8
0
  6
CONTINUOUS
 10
4.599760
 20
1.556280
  0
VERTEX
  8
0
  6
CONTINUOUS
 10
4.584360
 20
1.541760
  0
SEQEND
  8
0
  0
SOLID
  8
0
 62
    15
 10
4.599760
 20
1.556280
 11
4.598440
 21
2.304280
 12
4.614280
 22
1.575200
 13
4.612960
 23
2.323200
  0
POLYLINE
  8
0
  6
CONTINUOUS
 66
     1
 40
0.000000
 41
0.000000
  0
VERTEX
  8
0
  6
CONTINUOUS
 10
4.599760
 20
1.556280
  0
VERTEX
  8
0
  6
CONTINUOUS
 10
4.598440
 20
2.304280
  0
VERTEX
  8
0
  6
CONTINUOUS
 10
4.612960
 20
2.323200
  0
VERTEX
  8
0
  6
CONTINUOUS
 10
4.614280
 20
1.575200
  0
VERTEX
  8
0
  6
CONTINUOUS
 10
4.599760
 20
1.556280
  0
SEQEND
  8
0
  0
SOLID
  8
0
 62
    15
 10
4.614280
 20
1.575200
 11
4.612960
 21
2.323200
 12
4.627920
 22
1.598080
 13
4.626600
 23
2.346080
  0
POLYLINE
  8
0
  6
CONTINUOUS
 66
     1
 40
0.000000
 41
0.000000
  0
VERTEX
  8
0
  6
CONTINUOUS
 10
4.614280
 20
1.575200
  0
VERTEX
  8
0
  6
CONTINUOUS
 10
4.612960
 20
2.323200
  0
VERTEX
  8
0
  6
CONTINUOUS
 10
4.626600
 20
2.346080
  0
VERTEX
  8
0
  6
CONTINUOUS
 10
4.627920
 20
1.598080
  0
VERTEX
  8
0
  6
CONTINUOUS
 10
4.614280
 20
1.575200
  0
SEQEND
  8
0
  0
SOLID
  8
0
 62
    15
 10
4.627920
 20
1.598080
 11
4.626600
 21
2.346080
 12
4.700520
 22
1.598080
 13
4.699200
 23
2.346080
  0
POLYLINE
  8
0
  6
CONTINUOUS
 66
     1
 40
0.000000
 41
0.000000
  0
VERTEX
  8
0
  6
CONTINUOUS
 10
4.627920
 20
1.598080
  0
VERTEX
  8
0
  6
CONTINUOUS
 10
4.626600
 20
2.346080
  0
VERTEX
  8
0
  6
CONTINUOUS
 10
4.699200
 20
2.346080
  0
VERTEX
  8
0
  6
CONTINUOUS
 10
4.700520
 20
1.598080
  0
VERTEX
  8
0
  6
CONTINUOUS
 10
4.627920
 20
1.598080
  0
SEQEND
  8
0
  0
SOLID
  8
0
 62
    15
 10
4.700520
 20
1.598080
 11
4.699200
 21
2.346080
 12
4.702280
 22
1.629760
 13
4.700960
 23
2.377760
  0
POLYLINE
  8
0
  6
CONTINUOUS
 66
     1
 40
0.000000
 41
0.000000
  0
VERTEX
  8
0
  6
CONTINUOUS
 10
4.700520
 20
1.598080
  0
VERTEX
  8
0
  6
CONTINUOUS
 10
4.699200
 20
2.346080
  0
VERTEX
  8
0
  6
CONTINUOUS
 10
4.700960
 20
2.377760
  0
VERTEX
  8
0
  6
CONTINUOUS
 10
4.702280
 20
1.629760
  0
VERTEX
  8
0
  6
CONTINUOUS
 10
4.700520
 20
1.598080
  0
SEQEND
  8
0
  0
SOLID
  8
0
 62
    15
 10
4.702280
 20
1.629760
 11
4.700960
 21
2.377760
 12
4.707120
 22
1.657480
 13
4.705800
 23
2.405480
  0
POLYLINE
  8
0
  6
CONTINUOUS
 66
     1
 40
0.000000
 41
0.000000
  0
VERTEX
  8
0
  6
CONTINUOUS
 10
4.702280
 20
1.629760
  0
VERTEX
  8
0
  6
CONTINUOUS
 10
4.700960
 20
2.377760
  0
VERTEX
  8
0
  6
CONTINUOUS
 10
4.705800
 20
2.405480
  0
VERTEX
  8
0
  6
CONTINUOUS
 10
4.707120
 20
1.657480
  0
VERTEX
  8
0
  6
CONTINUOUS
 10
4.702280
 20
1.629760
  0
SEQEND
  8
0
  0
SOLID
  8
0
 62
    15
 10
4.707120
 20
1.657480
 11
4.705800
 21
2.405480
 12
4.714600
 22
1.681240
 13
4.713280
 23
2.429240
  0
POLYLINE
  8
0
  6
CONTINUOUS
 66
     1
 40
0.000000
 41
0.000000
  0
VERTEX
  8
0
  6
CONTINUOUS
 10
4.707120
 20
1.657480
  0
VERTEX
  8
0
  6
CONTINUOUS
 10
4.705800
 20
2.405480
  0
VERTEX
  8
0
  6
CONTINUOUS
 10
4.713280
 20
2.429240
  0
VERTEX
  8
0
  6
CONTINUOUS
 10
4.714600
 20
1.681240
  0
VERTEX
  8
0
  6
CONTINUOUS
 10
4.707120
 20
1.657480
  0
SEQEND
  8
0
  0
SOLID
  8
0
 62
    15
 10
4.714600
 20
1.681240
 11
4.713280
 21
2.429240
 12
4.724280
 22
1.701040
 13
4.723400
 23
2.449040
  0
POLYLINE
  8
0
  6
CONTINUOUS
 66
     1
 40
0.000000
 41
0.000000
  0
VERTEX
  8
0
  6
CONTINUOUS
 10
4.714600
 20
1.681240
  0
VERTEX
  8
0
  6
CONTINUOUS
 10
4.713280
 20
2.429240
  0
VERTEX
  8
0
  6
CONTINUOUS
 10
4.723400
 20
2.449040
  0
VERTEX
  8
0
  6
CONTINUOUS
 10
4.724280
 20
1.701040
  0
VERTEX
  8
0
  6
CONTINUOUS
 10
4.714600
 20
1.681240
  0
SEQEND
  8
0
  0
SOLID
  8
0
 62
    15
 10
4.724280
 20
1.701040
 11
4.723400
 21
2.449040
 12
4.736160
 22
1.716880
 13
4.735280
 23
2.464440
  0
POLYLINE
  8
0
  6
CONTINUOUS
 66
     1
 40
0.000000
 41
0.000000
  0
VERTEX
  8
0
  6
CONTINUOUS
 10
4.724280
 20
1.701040
  0
VERTEX
  8
0
  6
CONTINUOUS
 10
4.723400
 20
2.449040
  0
VERTEX
  8
0
  6
CONTINUOUS
 10
4.735280
 20
2.464440
  0
VERTEX
  8
0
  6
CONTINUOUS
 10
4.736160
 20
1.716880
  0
VERTEX
  8
0
  6
CONTINUOUS
 10
4.724280
 20
1.701040
  0
SEQEND
  8
0
  0
SOLID
  8
0
 62
    15
 10
4.736160
 20
1.716880
 11
4.735280
 21
2.464440
 12
4.749800
 22
1.728320
 13
4.748480
 23
2.476320
  0
POLYLINE
  8
0
  6
CONTINUOUS
 66
     1
 40
0.000000
 41
0.000000
  0
VERTEX
  8
0
  6
CONTINUOUS
 10
4.736160
 20
1.716880
  0
VERTEX
  8
0
  6
CONTINUOUS
 10
4.735280
 20
2.464440
  0
VERTEX
  8
0
  6
CONTINUOUS
 10
4.748480
 20
2.476320
  0
VERTEX
  8
0
  6
CONTINUOUS
 10
4.749800
 20
1.728320
  0
VERTEX
  8
0
  6
CONTINUOUS
 10
4.736160
 20
1.716880
  0
SEQEND
  8
0
  0
SOLID
  8
0
 62
    15
 10
4.749800
 20
1.728320
 11
4.748480
 21
2.476320
 12
4.764320
 22
1.736240
 13
4.763000
 23
2.484240
  0
POLYLINE
  8
0
  6
CONTINUOUS
 66
     1
 40
0.000000
 41
0.000000
  0
VERTEX
  8
0
  6
CONTINUOUS
 10
4.749800
 20
1.728320
  0
VERTEX
  8
0
  6
CONTINUOUS
 10
4.748480
 20
2.476320
  0
VERTEX
  8
0
  6
CONTINUOUS
 10
4.763000
 20
2.484240
  0
VERTEX
  8
0
  6
CONTINUOUS
 10
4.764320
 20
1.736240
  0
VERTEX
  8
0
  6
CONTINUOUS
 10
4.749800
 20
1.728320
  0
SEQEND
  8
0
  0
SOLID
  8
0
 62
    15
 10
4.764320
 20
1.736240
 11
4.763000
 21
2.484240
 12
4.779720
 22
1.740640
 13
4.778840
 23
2.488200
  0
POLYLINE
  8
0
  6
CONTINUOUS
 66
     1
 40
0.000000
 41
0.000000
  0
VERTEX
  8
0
  6
CONTINUOUS
 10
4.764320
 20
1.736240
  0
VERTEX
  8
0
  6
CONTINUOUS
 10
4.763000
 20
2.484240
  0
VERTEX
  8
0
  6
CONTINUOUS
 10
4.778840
 20
2.488200
  0
VERTEX
  8
0
  6
CONTINUOUS
 10
4.779720
 20
1.740640
  0
VERTEX
  8
0
  6
CONTINUOUS
 10
4.764320
 20
1.736240
  0
SEQEND
  8
0
  0
SOLID
  8
0
 62
    15
 10
4.779720
 20
1.740640
 11
4.778840
 21
2.488200
 12
4.795560
 22
1.740640
 13
4.794240
 23
2.488640
  0
POLYLINE
  8
0
  6
CONTINUOUS
 66
     1
 40
0.000000
 41
0.000000
  0
VERTEX
  8
0
  6
CONTINUOUS
 10
4.779720
 20
1.740640
  0
VERTEX
  8
0
  6
CONTINUOUS
 10
4.778840
 20
2.488200
  0
VERTEX
  8
0
  6
CONTINUOUS
 10
4.794240
 20
2.488640
  0
VERTEX
  8
0
  6
CONTINUOUS
 10
4.795560
 20
1.740640
  0
VERTEX
  8
0
  6
CONTINUOUS
 10
4.779720
 20
1.740640
  0
SEQEND
  8
0
  0
SOLID
  8
0
 62
    15
 10
4.795560
 20
1.740640
 11
4.794240
 21
2.488640
 12
4.811400
 22
1.737120
 13
4.810080
 23
2.485120
  0
POLYLINE
  8
0
  6
CONTINUOUS
 66
     1
 40
0.000000
 41
0.000000
  0
VERTEX
  8
0
  6
CONTINUOUS
 10
4.795560
 20
1.740640
  0
VERTEX
  8
0
  6
CONTINUOUS
 10
4.794240
 20
2.488640
  0
VERTEX
  8
0
  6
CONTINUOUS
 10
4.810080
 20
2.485120
  0
VERTEX
  8
0
  6
CONTINUOUS
 10
4.811400
 20
1.737120
  0
VERTEX
  8
0
  6
CONTINUOUS
 10
4.795560
 20
1.740640
  0
SEQEND
  8
0
  0
SOLID
  8
0
 62
    15
 10
4.811400
 20
1.737120
 11
4.810080
 21
2.485120
 12
4.826800
 22
1.729640
 13
4.825920
 23
2.477640
  0
POLYLINE
  8
0
  6
CONTINUOUS
 66
     1
 40
0.000000
 41
0.000000
  0
VERTEX
  8
0
  6
CONTINUOUS
 10
4.811400
 20
1.737120
  0
VERTEX
  8
0
  6
CONTINUOUS
 10
4.810080
 20
2.485120
  0
VERTEX
  8
0
  6
CONTINUOUS
 10
4.825920
 20
2.477640
  0
VERTEX
  8
0
  6
CONTINUOUS
 10
4.826800
 20
1.729640
  0
VERTEX
  8
0
  6
CONTINUOUS
 10
4.811400
 20
1.737120
  0
SEQEND
  8
0
  0
SOLID
  8
0
 62
    15
 10
4.826800
 20
1.729640
 11
4.825920
 21
2.477640
 12
4.841320
 22
1.718640
 13
4.840440
 23
2.466640
  0
POLYLINE
  8
0
  6
CONTINUOUS
 66
     1
 40
0.000000
 41
0.000000
  0
VERTEX
  8
0
  6
CONTINUOUS
 10
4.826800
 20
1.729640
  0
VERTEX
  8
0
  6
CONTINUOUS
 10
4.825920
 20
2.477640
  0
VERTEX
  8
0
  6
CONTINUOUS
 10
4.840440
 20
2.466640
  0
VERTEX
  8
0
  6
CONTINUOUS
 10
4.841320
 20
1.718640
  0
VERTEX
  8
0
  6
CONTINUOUS
 10
4.826800
 20
1.729640
  0
SEQEND
  8
0
  0
SOLID
  8
0
 62
    15
 10
4.841320
 20
1.718640
 11
4.840440
 21
2.466640
 12
4.854960
 22
1.704120
 13
4.854080
 23
2.452120
  0
POLYLINE
  8
0
  6
CONTINUOUS
 66
     1
 40
0.000000
 41
0.000000
  0
VERTEX
  8
0
  6
CONTINUOUS
 10
4.841320
 20
1.718640
  0
VERTEX
  8
0
  6
CONTINUOUS
 10
4.840440
 20
2.466640
  0
VERTEX
  8
0
  6
CONTINUOUS
 10
4.854080
 20
2.452120
  0
VERTEX
  8
0
  6
CONTINUOUS
 10
4.854960
 20
1.704120
  0
VERTEX
  8
0
  6
CONTINUOUS
 10
4.841320
 20
1.718640
  0
SEQEND
  8
0
  0
SOLID
  8
0
 62
    15
 10
4.854960
 20
1.704120
 11
4.854080
 21
2.452120
 12
4.867280
 22
1.685640
 13
4.865960
 23
2.433640
  0
POLYLINE
  8
0
  6
CONTINUOUS
 66
     1
 40
0.000000
 41
0.000000
  0
VERTEX
  8
0
  6
CONTINUOUS
 10
4.854960
 20
1.704120
  0
VERTEX
  8
0
  6
CONTINUOUS
 10
4.854080
 20
2.452120
  0
VERTEX
  8
0
  6
CONTINUOUS
 10
4.865960
 20
2.433640
  0
VERTEX
  8
0
  6
CONTINUOUS
 10
4.867280
 20
1.685640
  0
VERTEX
  8
0
  6
CONTINUOUS
 10
4.854960
 20
1.704120
  0
SEQEND
  8
0
  0
SOLID
  8
0
 62
    15
 10
4.867280
 20
1.685640
 11
4.865960
 21
2.433640
 12
4.876960
 22
1.663640
 13
4.876080
 23
2.411640
  0
POLYLINE
  8
0
  6
CONTINUOUS
 66
     1
 40
0.000000
 41
0.000000
  0
VERTEX
  8
0
  6
CONTINUOUS
 10
4.867280
 20
1.685640
  0
VERTEX
  8
0
  6
CONTINUOUS
 10
4.865960
 20
2.433640
  0
VERTEX
  8
0
  6
CONTINUOUS
 10
4.876080
 20
2.411640
  0
VERTEX
  8
0
  6
CONTINUOUS
 10
4.876960
 20
1.663640
  0
VERTEX
  8
0
  6
CONTINUOUS
 10
4.867280
 20
1.685640
  0
SEQEND
  8
0
  0
SOLID
  8
0
 62
    15
 10
4.876960
 20
1.663640
 11
4.876080
 21
2.411640
 12
4.884880
 22
1.637680
 13
4.884000
 23
2.385680
  0
POLYLINE
  8
0
  6
CONTINUOUS
 66
     1
 40
0.000000
 41
0.000000
  0
VERTEX
  8
0
  6
CONTINUOUS
 10
4.876960
 20
1.663640
  0
VERTEX
  8
0
  6
CONTINUOUS
 10
4.876080
 20
2.411640
  0
VERTEX
  8
0
  6
CONTINUOUS
 10
4.884000
 20
2.385680
  0
VERTEX
  8
0
  6
CONTINUOUS
 10
4.884880
 20
1.637680
  0
VERTEX
  8
0
  6
CONTINUOUS
 10
4.876960
 20
1.663640
  0
SEQEND
  8
0
  0
SOLID
  8
0
 62
    15
 10
4.884880
 20
1.637680
 11
4.884000
 21
2.385680
 12
4.989160
 22
1.676400
 13
4.987840
 23
2.424400
  0
POLYLINE
  8
0
  6
CONTINUOUS
 66
     1
 40
0.000000
 41
0.000000
  0
VERTEX
  8
0
  6
CONTINUOUS
 10
4.884880
 20
1.637680
  0
VERTEX
  8
0
  6
CONTINUOUS
 10
4.884000
 20
2.385680
  0
VERTEX
  8
0
  6
CONTINUOUS
 10
4.987840
 20
2.424400
  0
VERTEX
  8
0
  6
CONTINUOUS
 10
4.989160
 20
1.676400
  0
VERTEX
  8
0
  6
CONTINUOUS
 10
4.884880
 20
1.637680
  0
SEQEND
  8
0
  0
SOLID
  8
0
 62
    15
 10
4.989160
 20
1.676400
 11
4.987840
 21
2.424400
 12
5.087720
 22
1.709400
 13
5.086840
 23
2.456960
  0
POLYLINE
  8
0
  6
CONTINUOUS
 66
     1
 40
0.000000
 41
0.000000
  0
VERTEX
  8
0
  6
CONTINUOUS
 10
4.989160
 20
1.676400
  0
VERTEX
  8
0
  6
CONTINUOUS
 10
4.987840
 20
2.424400
  0
VERTEX
  8
0
  6
CONTINUOUS
 10
5.086840
 20
2.456960
  0
VERTEX
  8
0
  6
CONTINUOUS
 10
5.087720
 20
1.709400
  0
VERTEX
  8
0
  6
CONTINUOUS
 10
4.989160
 20
1.676400
  0
SEQEND
  8
0
  0
SOLID
  8
0
 62
    15
 10
5.087720
 20
1.709400
 11
5.086840
 21
2.456960
 12
5.181880
 22
1.736680
 13
5.181000
 23
2.484680
  0
POLYLINE
  8
0
  6
CONTINUOUS
 66
     1
 40
0.000000
 41
0.000000
  0
VERTEX
  8
0
  6
CONTINUOUS
 10
5.087720
 20
1.709400
  0
VERTEX
  8
0
  6
CONTINUOUS
 10
5.086840
 20
2.456960
  0
VERTEX
  8
0
  6
CONTINUOUS
 10
5.181000
 20
2.484680
  0
VERTEX
  8
0
  6
CONTINUOUS
 10
5.181880
 20
1.736680
  0
VERTEX
  8
0
  6
CONTINUOUS
 10
5.087720
 20
1.709400
  0
SEQEND
  8
0
  0
SOLID
  8
0
 62
    15
 10
5.181880
 20
1.736680
 11
5.181000
 21
2.484680
 12
5.272080
 22
1.758680
 13
5.270760
 23
2.506680
  0
POLYLINE
  8
0
  6
CONTINUOUS
 66
     1
 40
0.000000
 41
0.000000
  0
VERTEX
  8
0
  6
CONTINUOUS
 10
5.181880
 20
1.736680
  0
VERTEX
  8
0
  6
CONTINUOUS
 10
5.181000
 20
2.484680
  0
VERTEX
  8
0
  6
CONTINUOUS
 10
5.270760
 20
2.506680
  0
VERTEX
  8
0
  6
CONTINUOUS
 10
5.272080
 20
1.758680
  0
VERTEX
  8
0
  6
CONTINUOUS
 10
5.181880
 20
1.736680
  0
SEQEND
  8
0
  0
SOLID
  8
0
 62
    15
 10
5.272080
 20
1.758680
 11
5.270760
 21
2.506680
 12
5.358760
 22
1.775400
 13
5.357880
 23
2.523400
  0
POLYLINE
  8
0
  6
CONTINUOUS
 66
     1
 40
0.000000
 41
0.000000
  0
VERTEX
  8
0
  6
CONTINUOUS
 10
5.272080
 20
1.758680
  0
VERTEX
  8
0
  6
CONTINUOUS
 10
5.270760
 20
2.506680
  0
VERTEX
  8
0
  6
CONTINUOUS
 10
5.357880
 20
2.523400
  0
VERTEX
  8
0
  6
CONTINUOUS
 10
5.358760
 20
1.775400
  0
VERTEX
  8
0
  6
CONTINUOUS
 10
5.272080
 20
1.758680
  0
SEQEND
  8
0
  0
SOLID
  8
0
 62
    15
 10
5.358760
 20
1.775400
 11
5.357880
 21
2.523400
 12
5.442800
 22
1.787280
 13
5.441480
 23
2.535280
  0
POLYLINE
  8
0
  6
CONTINUOUS
 66
     1
 40
0.000000
 41
0.000000
  0
VERTEX
  8
0
  6
CONTINUOUS
 10
5.358760
 20
1.775400
  0
VERTEX
  8
0
  6
CONTINUOUS
 10
5.357880
 20
2.523400
  0
VERTEX
  8
0
  6
CONTINUOUS
 10
5.441480
 20
2.535280
  0
VERTEX
  8
0
  6
CONTINUOUS
 10
5.442800
 20
1.787280
  0
VERTEX
  8
0
  6
CONTINUOUS
 10
5.358760
 20
1.775400
  0
SEQEND
  8
0
  0
SOLID
  8
0
 62
    15
 10
5.442800
 20
1.787280
 11
5.441480
 21
2.535280
 12
5.524640
 22
1.793880
 13
5.523320
 23
2.541880
  0
POLYLINE
  8
0
  6
CONTINUOUS
 66
     1
 40
0.000000
 41
0.000000
  0
VERTEX
  8
0
  6
CONTINUOUS
 10
5.442800
 20
1.787280
  0
VERTEX
  8
0
  6
CONTINUOUS
 10
5.441480
 20
2.535280
  0
VERTEX
  8
0
  6
CONTINUOUS
 10
5.523320
 20
2.541880
  0
VERTEX
  8
0
  6
CONTINUOUS
 10
5.524640
 20
1.793880
  0
VERTEX
  8
0
  6
CONTINUOUS
 10
5.442800
 20
1.787280
  0
SEQEND
  8
0
  0
SOLID
  8
0
 62
    15
 10
6.880720
 20
1.822040
 11
6.879400
 21
2.569600
 12
7.340520
 22
1.822040
 13
7.339640
 23
2.569600
  0
POLYLINE
  8
0
  6
CONTINUOUS
 66
     1
 40
0.000000
 41
0.000000
  0
VERTEX
  8
0
  6
CONTINUOUS
 10
6.880720
 20
1.822040
  0
VERTEX
  8
0
  6
CONTINUOUS
 10
6.879400
 20
2.569600
  0
VERTEX
  8
0
  6
CONTINUOUS
 10
7.339640
 20
2.569600
  0
VERTEX
  8
0
  6
CONTINUOUS
 10
7.340520
 20
1.822040
  0
VERTEX
  8
0
  6
CONTINUOUS
 10
6.880720
 20
1.822040
  0
SEQEND
  8
0
  0
SOLID
  8
0
 62
    15
 10
5.604720
 20
1.795640
 11
5.603840
 21
2.543640
 12
5.683920
 22
1.792120
 13
5.683040
 23
2.540120
  0
POLYLINE
  8
0
  6
CONTINUOUS
 66
     1
 40
0.000000
 41
0.000000
  0
VERTEX
  8
0
  6
CONTINUOUS
 10
5.604720
 20
1.795640
  0
VERTEX
  8
0
  6
CONTINUOUS
 10
5.603840
 20
2.543640
  0
VERTEX
  8
0
  6
CONTINUOUS
 10
5.683040
 20
2.540120
  0
VERTEX
  8
0
  6
CONTINUOUS
 10
5.683920
 20
1.792120
  0
VERTEX
  8
0
  6
CONTINUOUS
 10
5.604720
 20
1.795640
  0
SEQEND
  8
0
  0
SOLID
  8
0
 62
    15
 10
5.683920
 20
1.792120
 11
5.683040
 21
2.540120
 12
5.763120
 22
1.784200
 13
5.761800
 23
2.532200
  0
POLYLINE
  8
0
  6
CONTINUOUS
 66
     1
 40
0.000000
 41
0.000000
  0
VERTEX
  8
0
  6
CONTINUOUS
 10
5.683920
 20
1.792120
  0
VERTEX
  8
0
  6
CONTINUOUS
 10
5.683040
 20
2.540120
  0
VERTEX
  8
0
  6
CONTINUOUS
 10
5.761800
 20
2.532200
  0
VERTEX
  8
0
  6
CONTINUOUS
 10
5.763120
 20
1.784200
  0
VERTEX
  8
0
  6
CONTINUOUS
 10
5.683920
 20
1.792120
  0
SEQEND
  8
0
  0
SOLID
  8
0
 62
    15
 10
5.763120
 20
1.784200
 11
5.761800
 21
2.532200
 12
5.842320
 22
1.771440
 13
5.841440
 23
2.519000
  0
POLYLINE
  8
0
  6
CONTINUOUS
 66
     1
 40
0.000000
 41
0.000000
  0
VERTEX
  8
0
  6
CONTINUOUS
 10
5.763120
 20
1.784200
  0
VERTEX
  8
0
  6
CONTINUOUS
 10
5.761800
 20
2.532200
  0
VERTEX
  8
0
  6
CONTINUOUS
 10
5.841440
 20
2.519000
  0
VERTEX
  8
0
  6
CONTINUOUS
 10
5.842320
 20
1.771440
  0
VERTEX
  8
0
  6
CONTINUOUS
 10
5.763120
 20
1.784200
  0
SEQEND
  8
0
  0
SOLID
  8
0
 62
    15
 10
5.842320
 20
1.771440
 11
5.841440
 21
2.519000
 12
5.922840
 22
1.753840
 13
5.921520
 23
2.501840
  0
POLYLINE
  8
0
  6
CONTINUOUS
 66
     1
 40
0.000000
 41
0.000000
  0
VERTEX
  8
0
  6
CONTINUOUS
 10
5.842320
 20
1.771440
  0
VERTEX
  8
0
  6
CONTINUOUS
 10
5.841440
 20
2.519000
  0
VERTEX
  8
0
  6
CONTINUOUS
 10
5.921520
 20
2.501840
  0
VERTEX
  8
0
  6
CONTINUOUS
 10
5.922840
 20
1.753840
  0
VERTEX
  8
0
  6
CONTINUOUS
 10
5.842320
 20
1.771440
  0
SEQEND
  8
0
  0
SOLID
  8
0
 62
    15
 10
5.922840
 20
1.753840
 11
5.921520
 21
2.501840
 12
6.004680
 22
1.731840
 13
6.003800
 23
2.479400
  0
POLYLINE
  8
0
  6
CONTINUOUS
 66
     1
 40
0.000000
 41
0.000000
  0
VERTEX
  8
0
  6
CONTINUOUS
 10
5.922840
 20
1.753840
  0
VERTEX
  8
0
  6
CONTINUOUS
 10
5.921520
 20
2.501840
  0
VERTEX
  8
0
  6
CONTINUOUS
 10
6.003800
 20
2.479400
  0
VERTEX
  8
0
  6
CONTINUOUS
 10
6.004680
 20
1.731840
  0
VERTEX
  8
0
  6
CONTINUOUS
 10
5.922840
 20
1.753840
  0
SEQEND
  8
0
  0
SOLID
  8
0
 62
    15
 10
6.004680
 20
1.731840
 11
6.003800
 21
2.479400
 12
6.088720
 22
1.705000
 13
6.087840
 23
2.453000
  0
POLYLINE
  8
0
  6
CONTINUOUS
 66
     1
 40
0.000000
 41
0.000000
  0
VERTEX
  8
0
  6
CONTINUOUS
 10
6.004680
 20
1.731840
  0
VERTEX
  8
0
  6
CONTINUOUS
 10
6.003800
 20
2.479400
  0
VERTEX
  8
0
  6
CONTINUOUS
 10
6.087840
 20
2.453000
  0
VERTEX
  8
0
  6
CONTINUOUS
 10
6.088720
 20
1.705000
  0
VERTEX
  8
0
  6
CONTINUOUS
 10
6.004680
 20
1.731840
  0
SEQEND
  8
0
  0
SOLID
  8
0
 62
    15
 10
6.088720
 20
1.705000
 11
6.087840
 21
2.453000
 12
6.175840
 22
1.674200
 13
6.174960
 23
2.422200
  0
POLYLINE
  8
0
  6
CONTINUOUS
 66
     1
 40
0.000000
 41
0.000000
  0
VERTEX
  8
0
  6
CONTINUOUS
 10
6.088720
 20
1.705000
  0
VERTEX
  8
0
  6
CONTINUOUS
 10
6.087840
 20
2.453000
  0
VERTEX
  8
0
  6
CONTINUOUS
 10
6.174960
 20
2.422200
  0
VERTEX
  8
0
  6
CONTINUOUS
 10
6.175840
 20
1.674200
  0
VERTEX
  8
0
  6
CONTINUOUS
 10
6.088720
 20
1.705000
  0
SEQEND
  8
0
  0
SOLID
  8
0
 62
    15
 10
6.175840
 20
1.674200
 11
6.174960
 21
2.422200
 12
6.266040
 22
1.639000
 13
6.265160
 23
2.387000
  0
POLYLINE
  8
0
  6
CONTINUOUS
 66
     1
 40
0.000000
 41
0.000000
  0
VERTEX
  8
0
  6
CONTINUOUS
 10
6.175840
 20
1.674200
  0
VERTEX
  8
0
  6
CONTINUOUS
 10
6.174960
 20
2.422200
  0
VERTEX
  8
0
  6
CONTINUOUS
 10
6.265160
 20
2.387000
  0
VERTEX
  8
0
  6
CONTINUOUS
 10
6.266040
 20
1.639000
  0
VERTEX
  8
0
  6
CONTINUOUS
 10
6.175840
 20
1.674200
  0
SEQEND
  8
0
  0
SOLID
  8
0
 62
    15
 10
6.266040
 20
1.639000
 11
6.265160
 21
2.387000
 12
6.266920
 22
1.639000
 13
6.265600
 23
2.387000
  0
POLYLINE
  8
0
  6
CONTINUOUS
 66
     1
 40
0.000000
 41
0.000000
  0
VERTEX
  8
0
  6
CONTINUOUS
 10
6.266040
 20
1.639000
  0
VERTEX
  8
0
  6
CONTINUOUS
 10
6.265160
 20
2.387000
  0
VERTEX
  8
0
  6
CONTINUOUS
 10
6.265600
 20
2.387000
  0
VERTEX
  8
0
  6
CONTINUOUS
 10
6.266920
 20
1.639000
  0
VERTEX
  8
0
  6
CONTINUOUS
 10
6.266040
 20
1.639000
  0
SEQEND
  8
0
  0
SOLID
  8
0
 62
    15
 10
6.266920
 20
1.639000
 11
6.265600
 21
2.387000
 12
6.273520
 22
1.664960
 13
6.272640
 23
2.412960
  0
POLYLINE
  8
0
  6
CONTINUOUS
 66
     1
 40
0.000000
 41
0.000000
  0
VERTEX
  8
0
  6
CONTINUOUS
 10
6.266920
 20
1.639000
  0
VERTEX
  8
0
  6
CONTINUOUS
 10
6.265600
 20
2.387000
  0
VERTEX
  8
0
  6
CONTINUOUS
 10
6.272640
 20
2.412960
  0
VERTEX
  8
0
  6
CONTINUOUS
 10
6.273520
 20
1.664960
  0
VERTEX
  8
0
  6
CONTINUOUS
 10
6.266920
 20
1.639000
  0
SEQEND
  8
0
  0
SOLID
  8
0
 62
    15
 10
6.273520
 20
1.664960
 11
6.272640
 21
2.412960
 12
6.282760
 22
1.686960
 13
6.281880
 23
2.434960
  0
POLYLINE
  8
0
  6
CONTINUOUS
 66
     1
 40
0.000000
 41
0.000000
  0
VERTEX
  8
0
  6
CONTINUOUS
 10
6.273520
 20
1.664960
  0
VERTEX
  8
0
  6
CONTINUOUS
 10
6.272640
 20
2.412960
  0
VERTEX
  8
0
  6
CONTINUOUS
 10
6.281880
 20
2.434960
  0
VERTEX
  8
0
  6
CONTINUOUS
 10
6.282760
 20
1.686960
  0
VERTEX
  8
0
  6
CONTINUOUS
 10
6.273520
 20
1.664960
  0
SEQEND
  8
0
  0
SOLID
  8
0
 62
    15
 10
6.282760
 20
1.686960
 11
6.281880
 21
2.434960
 12
6.294200
 22
1.705440
 13
6.293320
 23
2.453440
  0
POLYLINE
  8
0
  6
CONTINUOUS
 66
     1
 40
0.000000
 41
0.000000
  0
VERTEX
  8
0
  6
CONTINUOUS
 10
6.282760
 20
1.686960
  0
VERTEX
  8
0
  6
CONTINUOUS
 10
6.281880
 20
2.434960
  0
VERTEX
  8
0
  6
CONTINUOUS
 10
6.293320
 20
2.453440
  0
VERTEX
  8
0
  6
CONTINUOUS
 10
6.294200
 20
1.705440
  0
VERTEX
  8
0
  6
CONTINUOUS
 10
6.282760
 20
1.686960
  0
SEQEND
  8
0
  0
SOLID
  8
0
 62
    15
 10
6.294200
 20
1.705440
 11
6.293320
 21
2.453440
 12
6.307840
 22
1.720400
 13
6.306520
 23
2.468400
  0
POLYLINE
  8
0
  6
CONTINUOUS
 66
     1
 40
0.000000
 41
0.000000
  0
VERTEX
  8
0
  6
CONTINUOUS
 10
6.294200
 20
1.705440
  0
VERTEX
  8
0
  6
CONTINUOUS
 10
6.293320
 20
2.453440
  0
VERTEX
  8
0
  6
CONTINUOUS
 10
6.306520
 20
2.468400
  0
VERTEX
  8
0
  6
CONTINUOUS
 10
6.307840
 20
1.720400
  0
VERTEX
  8
0
  6
CONTINUOUS
 10
6.294200
 20
1.705440
  0
SEQEND
  8
0
  0
SOLID
  8
0
 62
    15
 10
6.307840
 20
1.720400
 11
6.306520
 21
2.468400
 12
6.322360
 22
1.731400
 13
6.321040
 23
2.479400
  0
POLYLINE
  8
0
  6
CONTINUOUS
 66
     1
 40
0.000000
 41
0.000000
  0
VERTEX
  8
0
  6
CONTINUOUS
 10
6.307840
 20
1.720400
  0
VERTEX
  8
0
  6
CONTINUOUS
 10
6.306520
 20
2.468400
  0
VERTEX
  8
0
  6
CONTINUOUS
 10
6.321040
 20
2.479400
  0
VERTEX
  8
0
  6
CONTINUOUS
 10
6.322360
 20
1.731400
  0
VERTEX
  8
0
  6
CONTINUOUS
 10
6.307840
 20
1.720400
  0
SEQEND
  8
0
  0
SOLID
  8
0
 62
    15
 10
6.322360
 20
1.731400
 11
6.321040
 21
2.479400
 12
6.337760
 22
1.738880
 13
6.336440
 23
2.486880
  0
POLYLINE
  8
0
  6
CONTINUOUS
 66
     1
 40
0.000000
 41
0.000000
  0
VERTEX
  8
0
  6
CONTINUOUS
 10
6.322360
 20
1.731400
  0
VERTEX
  8
0
  6
CONTINUOUS
 10
6.321040
 20
2.479400
  0
VERTEX
  8
0
  6
CONTINUOUS
 10
6.336440
 20
2.486880
  0
VERTEX
  8
0
  6
CONTINUOUS
 10
6.337760
 20
1.738880
  0
VERTEX
  8
0
  6
CONTINUOUS
 10
6.322360
 20
1.731400
  0
SEQEND
  8
0
  0
SOLID
  8
0
 62
    15
 10
6.337760
 20
1.738880
 11
6.336440
 21
2.486880
 12
6.353600
 22
1.742400
 13
6.352720
 23
2.490400
  0
POLYLINE
  8
0
  6
CONTINUOUS
 66
     1
 40
0.000000
 41
0.000000
  0
VERTEX
  8
0
  6
CONTINUOUS
 10
6.337760
 20
1.738880
  0
VERTEX
  8
0
  6
CONTINUOUS
 10
6.336440
 20
2.486880
  0
VERTEX
  8
0
  6
CONTINUOUS
 10
6.352720
 20
2.490400
  0
VERTEX
  8
0
  6
CONTINUOUS
 10
6.353600
 20
1.742400
  0
VERTEX
  8
0
  6
CONTINUOUS
 10
6.337760
 20
1.738880
  0
SEQEND
  8
0
  0
SOLID
  8
0
 62
    15
 10
6.353600
 20
1.742400
 11
6.352720
 21
2.490400
 12
6.369880
 22
1.741960
 13
6.368560
 23
2.489960
  0
POLYLINE
  8
0
  6
CONTINUOUS
 66
     1
 40
0.000000
 41
0.000000
  0
VERTEX
  8
0
  6
CONTINUOUS
 10
6.353600
 20
1.742400
  0
VERTEX
  8
0
  6
CONTINUOUS
 10
6.352720
 20
2.490400
  0
VERTEX
  8
0
  6
CONTINUOUS
 10
6.368560
 20
2.489960
  0
VERTEX
  8
0
  6
CONTINUOUS
 10
6.369880
 20
1.741960
  0
VERTEX
  8
0
  6
CONTINUOUS
 10
6.353600
 20
1.742400
  0
SEQEND
  8
0
  0
SOLID
  8
0
 62
    15
 10
6.369880
 20
1.741960
 11
6.368560
 21
2.489960
 12
6.385280
 22
1.738000
 13
6.384400
 23
2.486000
  0
POLYLINE
  8
0
  6
CONTINUOUS
 66
     1
 40
0.000000
 41
0.000000
  0
VERTEX
  8
0
  6
CONTINUOUS
 10
6.369880
 20
1.741960
  0
VERTEX
  8
0
  6
CONTINUOUS
 10
6.368560
 20
2.489960
  0
VERTEX
  8
0
  6
CONTINUOUS
 10
6.384400
 20
2.486000
  0
VERTEX
  8
0
  6
CONTINUOUS
 10
6.385280
 20
1.738000
  0
VERTEX
  8
0
  6
CONTINUOUS
 10
6.369880
 20
1.741960
  0
SEQEND
  8
0
  0
SOLID
  8
0
 62
    15
 10
6.385280
 20
1.738000
 11
6.384400
 21
2.486000
 12
6.400240
 22
1.730080
 13
6.399360
 23
2.478080
  0
POLYLINE
  8
0
  6
CONTINUOUS
 66
     1
 40
0.000000
 41
0.000000
  0
VERTEX
  8
0
  6
CONTINUOUS
 10
6.385280
 20
1.738000
  0
VERTEX
  8
0
  6
CONTINUOUS
 10
6.384400
 20
2.486000
  0
VERTEX
  8
0
  6
CONTINUOUS
 10
6.399360
 20
2.478080
  0
VERTEX
  8
0
  6
CONTINUOUS
 10
6.400240
 20
1.730080
  0
VERTEX
  8
0
  6
CONTINUOUS
 10
6.385280
 20
1.738000
  0
SEQEND
  8
0
  0
SOLID
  8
0
 62
    15
 10
6.400240
 20
1.730080
 11
6.399360
 21
2.478080
 12
6.414320
 22
1.718200
 13
6.413000
 23
2.466200
  0
POLYLINE
  8
0
  6
CONTINUOUS
 66
     1
 40
0.000000
 41
0.000000
  0
VERTEX
  8
0
  6
CONTINUOUS
 10
6.400240
 20
1.730080
  0
VERTEX
  8
0
  6
CONTINUOUS
 10
6.399360
 20
2.478080
  0
VERTEX
  8
0
  6
CONTINUOUS
 10
6.413000
 20
2.466200
  0
VERTEX
  8
0
  6
CONTINUOUS
 10
6.414320
 20
1.718200
  0
VERTEX
  8
0
  6
CONTINUOUS
 10
6.400240
 20
1.730080
  0
SEQEND
  8
0
  0
SOLID
  8
0
 62
    15
 10
6.414320
 20
1.718200
 11
6.413000
 21
2.466200
 12
6.426640
 22
1.702360
 13
6.425320
 23
2.450360
  0
POLYLINE
  8
0
  6
CONTINUOUS
 66
     1
 40
0.000000
 41
0.000000
  0
VERTEX
  8
0
  6
CONTINUOUS
 10
6.414320
 20
1.718200
  0
VERTEX
  8
0
  6
CONTINUOUS
 10
6.413000
 20
2.466200
  0
VERTEX
  8
0
  6
CONTINUOUS
 10
6.425320
 20
2.450360
  0
VERTEX
  8
0
  6
CONTINUOUS
 10
6.426640
 20
1.702360
  0
VERTEX
  8
0
  6
CONTINUOUS
 10
6.414320
 20
1.718200
  0
SEQEND
  8
0
  0
SOLID
  8
0
 62
    15
 10
6.426640
 20
1.702360
 11
6.425320
 21
2.450360
 12
6.436760
 22
1.682560
 13
6.435440
 23
2.430560
  0
POLYLINE
  8
0
  6
CONTINUOUS
 66
     1
 40
0.000000
 41
0.000000
  0
VERTEX
  8
0
  6
CONTINUOUS
 10
6.426640
 20
1.702360
  0
VERTEX
  8
0
  6
CONTINUOUS
 10
6.425320
 20
2.450360
  0
VERTEX
  8
0
  6
CONTINUOUS
 10
6.435440
 20
2.430560
  0
VERTEX
  8
0
  6
CONTINUOUS
 10
6.436760
 20
1.682560
  0
VERTEX
  8
0
  6
CONTINUOUS
 10
6.426640
 20
1.702360
  0
SEQEND
  8
0
  0
SOLID
  8
0
 62
    15
 10
6.436760
 20
1.682560
 11
6.435440
 21
2.430560
 12
6.444680
 22
1.658800
 13
6.443360
 23
2.406800
  0
POLYLINE
  8
0
  6
CONTINUOUS
 66
     1
 40
0.000000
 41
0.000000
  0
VERTEX
  8
0
  6
CONTINUOUS
 10
6.436760
 20
1.682560
  0
VERTEX
  8
0
  6
CONTINUOUS
 10
6.435440
 20
2.430560
  0
VERTEX
  8
0
  6
CONTINUOUS
 10
6.443360
 20
2.406800
  0
VERTEX
  8
0
  6
CONTINUOUS
 10
6.444680
 20
1.658800
  0
VERTEX
  8
0
  6
CONTINUOUS
 10
6.436760
 20
1.682560
  0
SEQEND
  8
0
  0
SOLID
  8
0
 62
    15
 10
6.451280
 20
1.599400
 11
6.450400
 21
2.346960
 12
6.523880
 22
1.599400
 13
6.523000
 23
2.346960
  0
POLYLINE
  8
0
  6
CONTINUOUS
 66
     1
 40
0.000000
 41
0.000000
  0
VERTEX
  8
0
  6
CONTINUOUS
 10
6.451280
 20
1.599400
  0
VERTEX
  8
0
  6
CONTINUOUS
 10
6.450400
 20
2.346960
  0
VERTEX
  8
0
  6
CONTINUOUS
 10
6.523000
 20
2.346960
  0
VERTEX
  8
0
  6
CONTINUOUS
 10
6.523880
 20
1.599400
  0
VERTEX
  8
0
  6
CONTINUOUS
 10
6.451280
 20
1.599400
  0
SEQEND
  8
0
  0
SOLID
  8
0
 62
    15
 10
6.449520
 20
1.631080
 11
6.448640
 21
2.379080
 12
6.451280
 22
1.599400
 13
6.450400
 23
2.346960
  0
POLYLINE
  8
0
  6
CONTINUOUS
 66
     1
 40
0.000000
 41
0.000000
  0
VERTEX
  8
0
  6
CONTINUOUS
 10
6.449520
 20
1.631080
  0
VERTEX
  8
0
  6
CONTINUOUS
 10
6.448640
 20
2.379080
  0
VERTEX
  8
0
  6
CONTINUOUS
 10
6.450400
 20
2.346960
  0
VERTEX
  8
0
  6
CONTINUOUS
 10
6.451280
 20
1.599400
  0
VERTEX
  8
0
  6
CONTINUOUS
 10
6.449520
 20
1.631080
  0
SEQEND
  8
0
  0
SOLID
  8
0
 62
    15
 10
6.444680
 20
1.658800
 11
6.443360
 21
2.406800
 12
6.449520
 22
1.631080
 13
6.448640
 23
2.379080
  0
POLYLINE
  8
0
  6
CONTINUOUS
 66
     1
 40
0.000000
 41
0.000000
  0
VERTEX
  8
0
  6
CONTINUOUS
 10
6.444680
 20
1.658800
  0
VERTEX
  8
0
  6
CONTINUOUS
 10
6.443360
 20
2.406800
  0
VERTEX
  8
0
  6
CONTINUOUS
 10
6.448640
 20
2.379080
  0
VERTEX
  8
0
  6
CONTINUOUS
 10
6.449520
 20
1.631080
  0
VERTEX
  8
0
  6
CONTINUOUS
 10
6.444680
 20
1.658800
  0
SEQEND
  8
0
  0
SOLID
  8
0
 62
    15
 10
6.523880
 20
1.599400
 11
6.523000
 21
2.346960
 12
6.537520
 22
1.576080
 13
6.536200
 23
2.324080
  0
POLYLINE
  8
0
  6
CONTINUOUS
 66
     1
 40
0.000000
 41
0.000000
  0
VERTEX
  8
0
  6
CONTINUOUS
 10
6.523880
 20
1.599400
  0
VERTEX
  8
0
  6
CONTINUOUS
 10
6.523000
 20
2.346960
  0
VERTEX
  8
0
  6
CONTINUOUS
 10
6.536200
 20
2.324080
  0
VERTEX
  8
0
  6
CONTINUOUS
 10
6.537520
 20
1.576080
  0
VERTEX
  8
0
  6
CONTINUOUS
 10
6.523880
 20
1.599400
  0
SEQEND
  8
0
  0
SOLID
  8
0
 62
    15
 10
6.537520
 20
1.576080
 11
6.536200
 21
2.324080
 12
6.552040
 22
1.557160
 13
6.551160
 23
2.305160
  0
POLYLINE
  8
0
  6
CONTINUOUS
 66
     1
 40
0.000000
 41
0.000000
  0
VERTEX
  8
0
  6
CONTINUOUS
 10
6.537520
 20
1.576080
  0
VERTEX
  8
0
  6
CONTINUOUS
 10
6.536200
 20
2.324080
  0
VERTEX
  8
0
  6
CONTINUOUS
 10
6.551160
 20
2.305160
  0
VERTEX
  8
0
  6
CONTINUOUS
 10
6.552040
 20
1.557160
  0
VERTEX
  8
0
  6
CONTINUOUS
 10
6.537520
 20
1.576080
  0
SEQEND
  8
0
  0
SOLID
  8
0
 62
    15
 10
6.552040
 20
1.557160
 11
6.551160
 21
2.305160
 12
6.567440
 22
1.542640
 13
6.566120
 23
2.290640
  0
POLYLINE
  8
0
  6
CONTINUOUS
 66
     1
 40
0.000000
 41
0.000000
  0
VERTEX
  8
0
  6
CONTINUOUS
 10
6.552040
 20
1.557160
  0
VERTEX
  8
0
  6
CONTINUOUS
 10
6.551160
 20
2.305160
  0
VERTEX
  8
0
  6
CONTINUOUS
 10
6.566120
 20
2.290640
  0
VERTEX
  8
0
  6
CONTINUOUS
 10
6.567440
 20
1.542640
  0
VERTEX
  8
0
  6
CONTINUOUS
 10
6.552040
 20
1.557160
  0
SEQEND
  8
0
  0
SOLID
  8
0
 62
    15
 10
6.567440
 20
1.542640
 11
6.566120
 21
2.290640
 12
6.583280
 22
1.532080
 13
6.582400
 23
2.280080
  0
POLYLINE
  8
0
  6
CONTINUOUS
 66
     1
 40
0.000000
 41
0.000000
  0
VERTEX
  8
0
  6
CONTINUOUS
 10
6.567440
 20
1.542640
  0
VERTEX
  8
0
  6
CONTINUOUS
 10
6.566120
 20
2.290640
  0
VERTEX
  8
0
  6
CONTINUOUS
 10
6.582400
 20
2.280080
  0
VERTEX
  8
0
  6
CONTINUOUS
 10
6.583280
 20
1.532080
  0
VERTEX
  8
0
  6
CONTINUOUS
 10
6.567440
 20
1.542640
  0
SEQEND
  8
0
  0
SOLID
  8
0
 62
    15
 10
6.583280
 20
1.532080
 11
6.582400
 21
2.280080
 12
6.616280
 22
1.521520
 13
6.614960
 23
2.269520
  0
POLYLINE
  8
0
  6
CONTINUOUS
 66
     1
 40
0.000000
 41
0.000000
  0
VERTEX
  8
0
  6
CONTINUOUS
 10
6.583280
 20
1.532080
  0
VERTEX
  8
0
  6
CONTINUOUS
 10
6.582400
 20
2.280080
  0
VERTEX
  8
0
  6
CONTINUOUS
 10
6.614960
 20
2.269520
  0
VERTEX
  8
0
  6
CONTINUOUS
 10
6.616280
 20
1.521520
  0
VERTEX
  8
0
  6
CONTINUOUS
 10
6.583280
 20
1.532080
  0
SEQEND
  8
0
  0
SOLID
  8
0
 62
    15
 10
6.616280
 20
1.521520
 11
6.614960
 21
2.269520
 12
6.648400
 22
1.524600
 13
6.647520
 23
2.272160
  0
POLYLINE
  8
0
  6
CONTINUOUS
 66
     1
 40
0.000000
 41
0.000000
  0
VERTEX
  8
0
  6
CONTINUOUS
 10
6.616280
 20
1.521520
  0
VERTEX
  8
0
  6
CONTINUOUS
 10
6.614960
 20
2.269520
  0
VERTEX
  8
0
  6
CONTINUOUS
 10
6.647520
 20
2.272160
  0
VERTEX
  8
0
  6
CONTINUOUS
 10
6.648400
 20
1.524600
  0
VERTEX
  8
0
  6
CONTINUOUS
 10
6.616280
 20
1.521520
  0
SEQEND
  8
0
  0
SOLID
  8
0
 62
    15
 10
6.648400
 20
1.524600
 11
6.647520
 21
2.272160
 12
6.678760
 22
1.539120
 13
6.677880
 23
2.287120
  0
POLYLINE
  8
0
  6
CONTINUOUS
 66
     1
 40
0.000000
 41
0.000000
  0
VERTEX
  8
0
  6
CONTINUOUS
 10
6.648400
 20
1.524600
  0
VERTEX
  8
0
  6
CONTINUOUS
 10
6.647520
 20
2.272160
  0
VERTEX
  8
0
  6
CONTINUOUS
 10
6.677880
 20
2.287120
  0
VERTEX
  8
0
  6
CONTINUOUS
 10
6.678760
 20
1.539120
  0
VERTEX
  8
0
  6
CONTINUOUS
 10
6.648400
 20
1.524600
  0
SEQEND
  8
0
  0
SOLID
  8
0
 62
    15
 10
6.678760
 20
1.539120
 11
6.677880
 21
2.287120
 12
6.705160
 22
1.564200
 13
6.704280
 23
2.312200
  0
POLYLINE
  8
0
  6
CONTINUOUS
 66
     1
 40
0.000000
 41
0.000000
  0
VERTEX
  8
0
  6
CONTINUOUS
 10
6.678760
 20
1.539120
  0
VERTEX
  8
0
  6
CONTINUOUS
 10
6.677880
 20
2.287120
  0
VERTEX
  8
0
  6
CONTINUOUS
 10
6.704280
 20
2.312200
  0
VERTEX
  8
0
  6
CONTINUOUS
 10
6.705160
 20
1.564200
  0
VERTEX
  8
0
  6
CONTINUOUS
 10
6.678760
 20
1.539120
  0
SEQEND
  8
0
  0
SOLID
  8
0
 62
    15
 10
6.705160
 20
1.564200
 11
6.704280
 21
2.312200
 12
6.725840
 22
1.598080
 13
6.724960
 23
2.346080
  0
POLYLINE
  8
0
  6
CONTINUOUS
 66
     1
 40
0.000000
 41
0.000000
  0
VERTEX
  8
0
  6
CONTINUOUS
 10
6.705160
 20
1.564200
  0
VERTEX
  8
0
  6
CONTINUOUS
 10
6.704280
 20
2.312200
  0
VERTEX
  8
0
  6
CONTINUOUS
 10
6.724960
 20
2.346080
  0
VERTEX
  8
0
  6
CONTINUOUS
 10
6.725840
 20
1.598080
  0
VERTEX
  8
0
  6
CONTINUOUS
 10
6.705160
 20
1.564200
  0
SEQEND
  8
0
  0
SOLID
  8
0
 62
    15
 10
6.725840
 20
1.598080
 11
6.724960
 21
2.346080
 12
6.739040
 22
1.639440
 13
6.738160
 23
2.387440
  0
POLYLINE
  8
0
  6
CONTINUOUS
 66
     1
 40
0.000000
 41
0.000000
  0
VERTEX
  8
0
  6
CONTINUOUS
 10
6.725840
 20
1.598080
  0
VERTEX
  8
0
  6
CONTINUOUS
 10
6.724960
 20
2.346080
  0
VERTEX
  8
0
  6
CONTINUOUS
 10
6.738160
 20
2.387440
  0
VERTEX
  8
0
  6
CONTINUOUS
 10
6.739040
 20
1.639440
  0
VERTEX
  8
0
  6
CONTINUOUS
 10
6.725840
 20
1.598080
  0
SEQEND
  8
0
  0
SOLID
  8
0
 62
    15
 10
6.739040
 20
1.639440
 11
6.738160
 21
2.387440
 12
6.747400
 22
1.661880
 13
6.746520
 23
2.409880
  0
POLYLINE
  8
0
  6
CONTINUOUS
 66
     1
 40
0.000000
 41
0.000000
  0
VERTEX
  8
0
  6
CONTINUOUS
 10
6.739040
 20
1.639440
  0
VERTEX
  8
0
  6
CONTINUOUS
 10
6.738160
 20
2.387440
  0
VERTEX
  8
0
  6
CONTINUOUS
 10
6.746520
 20
2.409880
  0
VERTEX
  8
0
  6
CONTINUOUS
 10
6.747400
 20
1.661880
  0
VERTEX
  8
0
  6
CONTINUOUS
 10
6.739040
 20
1.639440
  0
SEQEND
  8
0
  0
SOLID
  8
0
 62
    15
 10
6.747400
 20
1.661880
 11
6.746520
 21
2.409880
 12
6.760600
 22
1.681680
 13
6.759280
 23
2.429240
  0
POLYLINE
  8
0
  6
CONTINUOUS
 66
     1
 40
0.000000
 41
0.000000
  0
VERTEX
  8
0
  6
CONTINUOUS
 10
6.747400
 20
1.661880
  0
VERTEX
  8
0
  6
CONTINUOUS
 10
6.746520
 20
2.409880
  0
VERTEX
  8
0
  6
CONTINUOUS
 10
6.759280
 20
2.429240
  0
VERTEX
  8
0
  6
CONTINUOUS
 10
6.760600
 20
1.681680
  0
VERTEX
  8
0
  6
CONTINUOUS
 10
6.747400
 20
1.661880
  0
SEQEND
  8
0
  0
SOLID
  8
0
 62
    15
 10
6.760600
 20
1.681680
 11
6.759280
 21
2.429240
 12
6.773360
 22
1.696640
 13
6.772480
 23
2.444640
  0
POLYLINE
  8
0
  6
CONTINUOUS
 66
     1
 40
0.000000
 41
0.000000
  0
VERTEX
  8
0
  6
CONTINUOUS
 10
6.760600
 20
1.681680
  0
VERTEX
  8
0
  6
CONTINUOUS
 10
6.759280
 20
2.429240
  0
VERTEX
  8
0
  6
CONTINUOUS
 10
6.772480
 20
2.444640
  0
VERTEX
  8
0
  6
CONTINUOUS
 10
6.773360
 20
1.696640
  0
VERTEX
  8
0
  6
CONTINUOUS
 10
6.760600
 20
1.681680
  0
SEQEND
  8
0
  0
SOLID
  8
0
 62
    15
 10
6.773360
 20
1.696640
 11
6.772480
 21
2.444640
 12
6.778640
 22
1.701920
 13
6.777760
 23
2.449920
  0
POLYLINE
  8
0
  6
CONTINUOUS
 66
     1
 40
0.000000
 41
0.000000
  0
VERTEX
  8
0
  6
CONTINUOUS
 10
6.773360
 20
1.696640
  0
VERTEX
  8
0
  6
CONTINUOUS
 10
6.772480
 20
2.444640
  0
VERTEX
  8
0
  6
CONTINUOUS
 10
6.777760
 20
2.449920
  0
VERTEX
  8
0
  6
CONTINUOUS
 10
6.778640
 20
1.701920
  0
VERTEX
  8
0
  6
CONTINUOUS
 10
6.773360
 20
1.696640
  0
SEQEND
  8
0
  0
SOLID
  8
0
 62
    15
 10
6.778640
 20
1.701920
 11
6.777760
 21
2.449920
 12
6.782160
 22
1.705880
 13
6.781280
 23
2.453440
  0
POLYLINE
  8
0
  6
CONTINUOUS
 66
     1
 40
0.000000
 41
0.000000
  0
VERTEX
  8
0
  6
CONTINUOUS
 10
6.778640
 20
1.701920
  0
VERTEX
  8
0
  6
CONTINUOUS
 10
6.777760
 20
2.449920
  0
VERTEX
  8
0
  6
CONTINUOUS
 10
6.781280
 20
2.453440
  0
VERTEX
  8
0
  6
CONTINUOUS
 10
6.782160
 20
1.705880
  0
VERTEX
  8
0
  6
CONTINUOUS
 10
6.778640
 20
1.701920
  0
SEQEND
  8
0
  0
SOLID
  8
0
 62
    15
 10
6.782160
 20
1.705880
 11
6.781280
 21
2.453440
 12
6.796240
 22
1.716000
 13
6.794920
 23
2.464000
  0
POLYLINE
  8
0
  6
CONTINUOUS
 66
     1
 40
0.000000
 41
0.000000
  0
VERTEX
  8
0
  6
CONTINUOUS
 10
6.782160
 20
1.705880
  0
VERTEX
  8
0
  6
CONTINUOUS
 10
6.781280
 20
2.453440
  0
VERTEX
  8
0
  6
CONTINUOUS
 10
6.794920
 20
2.464000
  0
VERTEX
  8
0
  6
CONTINUOUS
 10
6.796240
 20
1.716000
  0
VERTEX
  8
0
  6
CONTINUOUS
 10
6.782160
 20
1.705880
  0
SEQEND
  8
0
  0
SOLID
  8
0
 62
    15
 10
6.796240
 20
1.716000
 11
6.794920
 21
2.464000
 12
6.811200
 22
1.723040
 13
6.810320
 23
2.471040
  0
POLYLINE
  8
0
  6
CONTINUOUS
 66
     1
 40
0.000000
 41
0.000000
  0
VERTEX
  8
0
  6
CONTINUOUS
 10
6.796240
 20
1.716000
  0
VERTEX
  8
0
  6
CONTINUOUS
 10
6.794920
 20
2.464000
  0
VERTEX
  8
0
  6
CONTINUOUS
 10
6.810320
 20
2.471040
  0
VERTEX
  8
0
  6
CONTINUOUS
 10
6.811200
 20
1.723040
  0
VERTEX
  8
0
  6
CONTINUOUS
 10
6.796240
 20
1.716000
  0
SEQEND
  8
0
  0
SOLID
  8
0
 62
    15
 10
6.811200
 20
1.723040
 11
6.810320
 21
2.471040
 12
6.841560
 22
1.735360
 13
6.840240
 23
2.482920
  0
POLYLINE
  8
0
  6
CONTINUOUS
 66
     1
 40
0.000000
 41
0.000000
  0
VERTEX
  8
0
  6
CONTINUOUS
 10
6.811200
 20
1.723040
  0
VERTEX
  8
0
  6
CONTINUOUS
 10
6.810320
 20
2.471040
  0
VERTEX
  8
0
  6
CONTINUOUS
 10
6.840240
 20
2.482920
  0
VERTEX
  8
0
  6
CONTINUOUS
 10
6.841560
 20
1.735360
  0
VERTEX
  8
0
  6
CONTINUOUS
 10
6.811200
 20
1.723040
  0
SEQEND
  8
0
  0
SOLID
  8
0
 62
    15
 10
6.841560
 20
1.735360
 11
6.840240
 21
2.482920
 12
6.854320
 22
1.745480
 13
6.853440
 23
2.493480
  0
POLYLINE
  8
0
  6
CONTINUOUS
 66
     1
 40
0.000000
 41
0.000000
  0
VERTEX
  8
0
  6
CONTINUOUS
 10
6.841560
 20
1.735360
  0
VERTEX
  8
0
  6
CONTINUOUS
 10
6.840240
 20
2.482920
  0
VERTEX
  8
0
  6
CONTINUOUS
 10
6.853440
 20
2.493480
  0
VERTEX
  8
0
  6
CONTINUOUS
 10
6.854320
 20
1.745480
  0
VERTEX
  8
0
  6
CONTINUOUS
 10
6.841560
 20
1.735360
  0
SEQEND
  8
0
  0
SOLID
  8
0
 62
    15
 10
6.854320
 20
1.745480
 11
6.853440
 21
2.493480
 12
6.864880
 22
1.761320
 13
6.864000
 23
2.509320
  0
POLYLINE
  8
0
  6
CONTINUOUS
 66
     1
 40
0.000000
 41
0.000000
  0
VERTEX
  8
0
  6
CONTINUOUS
 10
6.854320
 20
1.745480
  0
VERTEX
  8
0
  6
CONTINUOUS
 10
6.853440
 20
2.493480
  0
VERTEX
  8
0
  6
CONTINUOUS
 10
6.864000
 20
2.509320
  0
VERTEX
  8
0
  6
CONTINUOUS
 10
6.864880
 20
1.761320
  0
VERTEX
  8
0
  6
CONTINUOUS
 10
6.854320
 20
1.745480
  0
SEQEND
  8
0
  0
SOLID
  8
0
 62
    15
 10
6.864880
 20
1.761320
 11
6.864000
 21
2.509320
 12
6.871920
 22
1.785960
 13
6.871040
 23
2.533520
  0
POLYLINE
  8
0
  6
CONTINUOUS
 66
     1
 40
0.000000
 41
0.000000
  0
VERTEX
  8
0
  6
CONTINUOUS
 10
6.864880
 20
1.761320
  0
VERTEX
  8
0
  6
CONTINUOUS
 10
6.864000
 20
2.509320
  0
VERTEX
  8
0
  6
CONTINUOUS
 10
6.871040
 20
2.533520
  0
VERTEX
  8
0
  6
CONTINUOUS
 10
6.871920
 20
1.785960
  0
VERTEX
  8
0
  6
CONTINUOUS
 10
6.864880
 20
1.761320
  0
SEQEND
  8
0
  0
SOLID
  8
0
 62
    15
 10
6.871920
 20
1.785960
 11
6.871040
 21
2.533520
 12
6.874560
 22
1.820720
 13
6.873680
 23
2.568720
  0
POLYLINE
  8
0
  6
CONTINUOUS
 66
     1
 40
0.000000
 41
0.000000
  0
VERTEX
  8
0
  6
CONTINUOUS
 10
6.871920
 20
1.785960
  0
VERTEX
  8
0
  6
CONTINUOUS
 10
6.871040
 20
2.533520
  0
VERTEX
  8
0
  6
CONTINUOUS
 10
6.873680
 20
2.568720
  0
VERTEX
  8
0
  6
CONTINUOUS
 10
6.874560
 20
1.820720
  0
VERTEX
  8
0
  6
CONTINUOUS
 10
6.871920
 20
1.785960
  0
SEQEND
  8
0
  0
SOLID
  8
0
 62
    15
 10
6.874560
 20
1.820720
 11
6.873680
 21
2.568720
 12
6.880720
 22
1.822040
 13
6.879400
 23
2.569600
  0
POLYLINE
  8
0
  6
CONTINUOUS
 66
     1
 40
0.000000
 41
0.000000
  0
VERTEX
  8
0
  6
CONTINUOUS
 10
6.874560
 20
1.820720
  0
VERTEX
  8
0
  6
CONTINUOUS
 10
6.873680
 20
2.568720
  0
VERTEX
  8
0
  6
CONTINUOUS
 10
6.879400
 20
2.569600
  0
VERTEX
  8
0
  6
CONTINUOUS
 10
6.880720
 20
1.822040
  0
VERTEX
  8
0
  6
CONTINUOUS
 10
6.874560
 20
1.820720
  0
SEQEND
  8
0
  0
POLYLINE
  8
0
  6
CONTINUOUS
 66
     1
 40
0.000000
 41
0.000000
  0
VERTEX
  8
0
  6
CONTINUOUS
 10
6.880720
 20
1.822040
  0
VERTEX
  8
0
  6
CONTINUOUS
 10
7.340520
 20
1.822040
  0
VERTEX
  8
0
  6
CONTINUOUS
 10
7.340520
 20
1.069200
  0
VERTEX
  8
0
  6
CONTINUOUS
 10
3.813480
 20
1.069200
  0
VERTEX
  8
0
  6
CONTINUOUS
 10
3.813480
 20
1.819400
  0
VERTEX
  8
0
  6
CONTINUOUS
 10
4.277240
 20
1.819400
  0
VERTEX
  8
0
  6
CONTINUOUS
 10
4.279440
 20
1.784640
  0
VERTEX
  8
0
  6
CONTINUOUS
 10
4.286480
 20
1.760440
  0
VERTEX
  8
0
  6
CONTINUOUS
 10
4.297040
 20
1.744160
  0
VERTEX
  8
0
  6
CONTINUOUS
 10
4.310240
 20
1.734040
  0
VERTEX
  8
0
  6
CONTINUOUS
 10
4.355560
 20
1.715120
  0
VERTEX
  8
0
  6
CONTINUOUS
 10
4.378440
 20
1.695760
  0
VERTEX
  8
0
  6
CONTINUOUS
 10
4.391200
 20
1.680360
  0
VERTEX
  8
0
  6
CONTINUOUS
 10
4.404400
 20
1.660560
  0
VERTEX
  8
0
  6
CONTINUOUS
 10
4.425960
 20
1.597200
  0
VERTEX
  8
0
  6
CONTINUOUS
 10
4.446640
 20
1.563320
  0
VERTEX
  8
0
  6
CONTINUOUS
 10
4.473040
 20
1.538240
  0
VERTEX
  8
0
  6
CONTINUOUS
 10
4.503400
 20
1.523280
  0
VERTEX
  8
0
  6
CONTINUOUS
 10
4.535520
 20
1.520200
  0
VERTEX
  8
0
  6
CONTINUOUS
 10
4.568520
 20
1.530760
  0
VERTEX
  8
0
  6
CONTINUOUS
 10
4.584360
 20
1.541760
  0
VERTEX
  8
0
  6
CONTINUOUS
 10
4.599760
 20
1.556280
  0
VERTEX
  8
0
  6
CONTINUOUS
 10
4.614280
 20
1.575200
  0
VERTEX
  8
0
  6
CONTINUOUS
 10
4.627920
 20
1.598080
  0
VERTEX
  8
0
  6
CONTINUOUS
 10
4.700520
 20
1.598080
  0
VERTEX
  8
0
  6
CONTINUOUS
 10
4.702280
 20
1.629760
  0
VERTEX
  8
0
  6
CONTINUOUS
 10
4.707120
 20
1.657480
  0
VERTEX
  8
0
  6
CONTINUOUS
 10
4.714600
 20
1.681240
  0
VERTEX
  8
0
  6
CONTINUOUS
 10
4.724280
 20
1.701040
  0
VERTEX
  8
0
  6
CONTINUOUS
 10
4.736160
 20
1.716880
  0
VERTEX
  8
0
  6
CONTINUOUS
 10
4.749800
 20
1.728320
  0
VERTEX
  8
0
  6
CONTINUOUS
 10
4.764320
 20
1.736240
  0
VERTEX
  8
0
  6
CONTINUOUS
 10
4.779720
 20
1.740640
  0
VERTEX
  8
0
  6
CONTINUOUS
 10
4.795560
 20
1.740640
  0
VERTEX
  8
0
  6
CONTINUOUS
 10
4.811400
 20
1.737120
  0
VERTEX
  8
0
  6
CONTINUOUS
 10
4.826800
 20
1.729640
  0
VERTEX
  8
0
  6
CONTINUOUS
 10
4.841320
 20
1.718640
  0
VERTEX
  8
0
  6
CONTINUOUS
 10
4.854960
 20
1.704120
  0
VERTEX
  8
0
  6
CONTINUOUS
 10
4.867280
 20
1.685640
  0
VERTEX
  8
0
  6
CONTINUOUS
 10
4.876960
 20
1.663640
  0
VERTEX
  8
0
  6
CONTINUOUS
 10
4.884880
 20
1.637680
  0
VERTEX
  8
0
  6
CONTINUOUS
 10
4.989160
 20
1.676400
  0
VERTEX
  8
0
  6
CONTINUOUS
 10
5.087720
 20
1.709400
  0
VERTEX
  8
0
  6
CONTINUOUS
 10
5.181880
 20
1.736680
  0
VERTEX
  8
0
  6
CONTINUOUS
 10
5.272080
 20
1.758680
  0
VERTEX
  8
0
  6
CONTINUOUS
 10
5.358760
 20
1.775400
  0
VERTEX
  8
0
  6
CONTINUOUS
 10
5.442800
 20
1.787280
  0
VERTEX
  8
0
  6
CONTINUOUS
 10
5.524640
 20
1.793880
  0
VERTEX
  8
0
  6
CONTINUOUS
 10
5.604720
 20
1.795640
  0
VERTEX
  8
0
  6
CONTINUOUS
 10
5.683920
 20
1.792120
  0
VERTEX
  8
0
  6
CONTINUOUS
 10
5.763120
 20
1.784200
  0
VERTEX
  8
0
  6
CONTINUOUS
 10
5.842320
 20
1.771440
  0
VERTEX
  8
0
  6
CONTINUOUS
 10
5.922840
 20
1.753840
  0
VERTEX
  8
0
  6
CONTINUOUS
 10
6.004680
 20
1.731840
  0
VERTEX
  8
0
  6
CONTINUOUS
 10
6.088720
 20
1.705000
  0
VERTEX
  8
0
  6
CONTINUOUS
 10
6.175840
 20
1.674200
  0
VERTEX
  8
0
  6
CONTINUOUS
 10
6.266920
 20
1.639000
  0
VERTEX
  8
0
  6
CONTINUOUS
 10
6.273520
 20
1.664960
  0
VERTEX
  8
0
  6
CONTINUOUS
 10
6.282760
 20
1.686960
  0
VERTEX
  8
0
  6
CONTINUOUS
 10
6.294200
 20
1.705440
  0
VERTEX
  8
0
  6
CONTINUOUS
 10
6.307840
 20
1.720400
  0
VERTEX
  8
0
  6
CONTINUOUS
 10
6.322360
 20
1.731400
  0
VERTEX
  8
0
  6
CONTINUOUS
 10
6.337760
 20
1.738880
  0
VERTEX
  8
0
  6
CONTINUOUS
 10
6.353600
 20
1.742400
  0
VERTEX
  8
0
  6
CONTINUOUS
 10
6.369880
 20
1.741960
  0
VERTEX
  8
0
  6
CONTINUOUS
 10
6.385280
 20
1.738000
  0
VERTEX
  8
0
  6
CONTINUOUS
 10
6.400240
 20
1.730080
  0
VERTEX
  8
0
  6
CONTINUOUS
 10
6.414320
 20
1.718200
  0
VERTEX
  8
0
  6
CONTINUOUS
 10
6.426640
 20
1.702360
  0
VERTEX
  8
0
  6
CONTINUOUS
 10
6.436760
 20
1.682560
  0
VERTEX
  8
0
  6
CONTINUOUS
 10
6.444680
 20
1.658800
  0
VERTEX
  8
0
  6
CONTINUOUS
 10
6.449520
 20
1.631080
  0
VERTEX
  8
0
  6
CONTINUOUS
 10
6.451280
 20
1.599400
  0
VERTEX
  8
0
  6
CONTINUOUS
 10
6.523880
 20
1.599400
  0
VERTEX
  8
0
  6
CONTINUOUS
 10
6.537520
 20
1.576080
  0
VERTEX
  8
0
  6
CONTINUOUS
 10
6.552040
 20
1.557160
  0
VERTEX
  8
0
  6
CONTINUOUS
 10
6.567440
 20
1.542640
  0
VERTEX
  8
0
  6
CONTINUOUS
 10
6.583280
 20
1.532080
  0
VERTEX
  8
0
  6
CONTINUOUS
 10
6.616280
 20
1.521520
  0
VERTEX
  8
0
  6
CONTINUOUS
 10
6.648400
 20
1.524600
  0
VERTEX
  8
0
  6
CONTINUOUS
 10
6.678760
 20
1.539120
  0
VERTEX
  8
0
  6
CONTINUOUS
 10
6.705160
 20
1.564200
  0
VERTEX
  8
0
  6
CONTINUOUS
 10
6.725840
 20
1.598080
  0
VERTEX
  8
0
  6
CONTINUOUS
 10
6.747400
 20
1.661880
  0
VERTEX
  8
0
  6
CONTINUOUS
 10
6.760600
 20
1.681680
  0
VERTEX
  8
0
  6
CONTINUOUS
 10
6.782160
 20
1.705880
  0
VERTEX
  8
0
  6
CONTINUOUS
 10
6.796240
 20
1.716000
  0
VERTEX
  8
0
  6
CONTINUOUS
 10
6.841560
 20
1.735360
  0
VERTEX
  8
0
  6
CONTINUOUS
 10
6.854320
 20
1.745480
  0
VERTEX
  8
0
  6
CONTINUOUS
 10
6.864880
 20
1.761320
  0
VERTEX
  8
0
  6
CONTINUOUS
 10
6.871920
 20
1.785960
  0
VERTEX
  8
0
  6
CONTINUOUS
 10
6.874560
 20
1.820720
  0
VERTEX
  8
0
  6
CONTINUOUS
 10
6.880720
 20
1.822040
  0
SEQEND
  8
0
  0
TEXT
  8
0
 10
5.281320
 20
0.845680
 40
0.138047
  1
BA  468
 41
1.000000
  7
SN0
 71
     0
 72
     5
 11
5.871137
 21
0.845680
  0
TEXT
  8
0
 10
5.125560
 20
0.654280
 40
0.138047
  1
3/4" x 3-1/2"
 41
1.000000
  7
SN0
 71
     0
 72
     5
 11
6.025836
 21
0.654280
  0
ENDSEC
  0
EOF
