  0
SECTION
  2
HEADER
  9
$ACADVER
  1
AC1006
  9
$EXTMIN
 10
5.333240
 20
0.462000
  9
$EXTMAX
 10
7.687240
 20
2.915880
  9
$LTSCALE
 40
0.044000
  9
$PDMODE
 70
    35
  9
$PDSIZE
 40
0.035200
  0
ENDSEC
  0
SECTION
  2
TABLES
  0
TABLE
  2
LTYPE
 70
     9
  0
LTYPE
  2
CONTINUOUS
 70
    64
  3
Solid line
 72
    65
 73
     0
 40
0.000000
  0
LTYPE
  2
DASHED
 70
    64
  3
__ __ __ __ __ __ __ __ __ __ __ __ __ __ __
 72
    65
 73
     2
 40
0.000330
 49
0.000220
 49
-0.000110
  0
LTYPE
  2
HIDDEN
 70
    64
  3
 _ _ _ _ _ _ _ _ _ _ _ _ _ _ _ _ _ _ _ _ _ _
 72
    65
 73
     2
 40
0.000165
 49
0.000110
 49
-0.000055
  0
LTYPE
  2
CENTER
 70
    64
  3
____ _ ____ _ ____ _ ____ _ ____ _ ____ _ ____
 72
    65
 73
     4
 40
0.000880
 49
0.000550
 49
-0.000110
 49
0.000110
 49
-0.000110
  0
LTYPE
  2
PHANTOM
 70
    64
  3
_____ _ _ _____ _ _ _____ _ _ _____ _ _ ____
 72
    65
 73
     6
 40
0.001100
 49
0.000550
 49
-0.000110
 49
0.000110
 49
-0.000110
 49
0.000110
 49
-0.000110
  0
LTYPE
  2
DOT
 70
    64
  3
...............................................
 72
    65
 73
     2
 40
0.000110
 49
0.000000
 49
-0.000110
  0
LTYPE
  2
DASHDOT
 70
    64
  3
__ . __ . __ . __ . __ . __ . __ . __ . __ . __
 72
    65
 73
     4
 40
0.000440
 49
0.000220
 49
-0.000110
 49
0.000000
 49
-0.000110
  0
LTYPE
  2
BORDER
 70
    64
  3
__ __ . __ __ . __ __ . __ __ . __ __ . __ __
 72
    65
 73
     6
 40
0.000770
 49
0.000220
 49
-0.000110
 49
0.000220
 49
-0.000110
 49
0.000000
 49
-0.000110
  0
LTYPE
  2
DIVIDE
 70
    64
  3
__ . . __ . . __ . . __ . . __ . . __ . . __
 72
    65
 73
     6
 40
0.000550
 49
0.000220
 49
-0.000110
 49
0.000000
 49
-0.000110
 49
0.000000
 49
-0.000110
  0
LTYPE
  2
DOTDOT
 70
    64
  3
 . .  . .  . .  . .  . .  . . 
 72
    65
 73
     5
 40
0.000242
 49
-0.000110
 49
0.000000
 49
-0.000110
 49
0.000000
 49
-0.000110
  0
ENDTAB
  0
TABLE
  2
STYLE
 70
     2
  0
STYLE
 70
     0
  2
SN0
 40
0.000000
 41
0.000440
 50
0.000000
 71
     0
 42
0.000000
  3
ROMAND
  0
STYLE
 70
    68
  2
SV0
 40
0.000000
 41
0.000440
 50
0.000000
 71
     0
 42
0.000000
  3
ROMAND
  0
ENDTAB
  0
TABLE
  2
LAYER
 70
     3
  0
LAYER
  2
FOREGROUND
 70
    64
 62
     7
  6
CONTINUOUS
  0
LAYER
  2
BACKGROUND
 70
    65
 62
    -7
  6
CONTINUOUS
  0
LAYER
  2
0
 70
    64
 62
     7
  6
CONTINUOUS
  0
ENDTAB
  0
ENDSEC
  0
SECTION
  2
ENTITIES
  0
POLYLINE
  8
FOREGROUND
  6
CONTINUOUS
 66
     1
 40
0.000000
 41
0.000000
  0
VERTEX
  8
FOREGROUND
  6
CONTINUOUS
 10
0.000000
 20
3.377880
  0
VERTEX
  8
FOREGROUND
  6
CONTINUOUS
 10
8.499920
 20
3.377880
  0
VERTEX
  8
FOREGROUND
  6
CONTINUOUS
 10
8.499920
 20
-7.622120
  0
VERTEX
  8
FOREGROUND
  6
CONTINUOUS
 10
0.000000
 20
-7.622120
  0
VERTEX
  8
FOREGROUND
  6
CONTINUOUS
 10
0.000000
 20
3.377880
  0
SEQEND
  8
0
  0
POLYLINE
  8
FOREGROUND
  6
CONTINUOUS
 66
     1
 40
0.000000
 41
0.000000
  0
VERTEX
  8
FOREGROUND
  6
CONTINUOUS
 10
0.000000
 20
3.377880
  0
VERTEX
  8
FOREGROUND
  6
CONTINUOUS
 10
8.499920
 20
3.377880
  0
VERTEX
  8
FOREGROUND
  6
CONTINUOUS
 10
8.499920
 20
-7.622120
  0
VERTEX
  8
FOREGROUND
  6
CONTINUOUS
 10
0.000000
 20
-7.622120
  0
VERTEX
  8
FOREGROUND
  6
CONTINUOUS
 10
0.000000
 20
3.377880
  0
SEQEND
  8
0
  0
POLYLINE
  8
0
  6
CONTINUOUS
 66
     1
 40
0.014080
 41
0.014080
  0
VERTEX
  8
0
  6
CONTINUOUS
 10
5.506600
 20
2.687080
  0
VERTEX
  8
0
  6
CONTINUOUS
 10
5.517160
 20
2.718760
  0
VERTEX
  8
0
  6
CONTINUOUS
 10
5.532560
 20
2.749120
  0
VERTEX
  8
0
  6
CONTINUOUS
 10
5.551920
 20
2.777720
  0
VERTEX
  8
0
  6
CONTINUOUS
 10
5.574800
 20
2.804120
  0
VERTEX
  8
0
  6
CONTINUOUS
 10
5.601640
 20
2.828320
  0
VERTEX
  8
0
  6
CONTINUOUS
 10
5.630680
 20
2.850320
  0
VERTEX
  8
0
  6
CONTINUOUS
 10
5.679080
 20
2.877160
  0
VERTEX
  8
0
  6
CONTINUOUS
 10
5.713840
 20
2.890800
  0
VERTEX
  8
0
  6
CONTINUOUS
 10
5.749480
 20
2.900920
  0
VERTEX
  8
0
  6
CONTINUOUS
 10
5.786440
 20
2.907080
  0
VERTEX
  8
0
  6
CONTINUOUS
 10
5.823840
 20
2.908400
  0
VERTEX
  8
0
  6
CONTINUOUS
 10
5.861240
 20
2.905320
  0
VERTEX
  8
0
  6
CONTINUOUS
 10
5.879720
 20
2.902240
  0
VERTEX
  8
0
  6
CONTINUOUS
 10
5.916680
 20
2.891240
  0
VERTEX
  8
0
  6
CONTINUOUS
 10
5.951880
 20
2.874960
  0
VERTEX
  8
0
  6
CONTINUOUS
 10
5.969480
 20
2.864840
  0
VERTEX
  8
0
  6
CONTINUOUS
 10
6.019640
 20
2.829200
  0
VERTEX
  8
0
  6
CONTINUOUS
 10
6.071560
 20
2.799280
  0
VERTEX
  8
0
  6
CONTINUOUS
 10
6.124360
 20
2.775520
  0
VERTEX
  8
0
  6
CONTINUOUS
 10
6.160440
 20
2.762320
  0
VERTEX
  8
0
  6
CONTINUOUS
 10
6.196960
 20
2.750880
  0
VERTEX
  8
0
  6
CONTINUOUS
 10
6.233480
 20
2.741640
  0
VERTEX
  8
0
  6
CONTINUOUS
 10
6.307840
 20
2.728000
  0
VERTEX
  8
0
  6
CONTINUOUS
 10
6.382640
 20
2.718760
  0
VERTEX
  8
0
  6
CONTINUOUS
 10
6.495720
 20
2.709520
  0
VERTEX
  8
0
  6
CONTINUOUS
 10
6.570080
 20
2.704680
  0
VERTEX
  8
0
  6
CONTINUOUS
 10
6.576240
 20
2.650120
  0
VERTEX
  8
0
  6
CONTINUOUS
 10
6.671280
 20
2.650120
  0
VERTEX
  8
0
  6
CONTINUOUS
 10
6.672160
 20
2.667720
  0
VERTEX
  8
0
  6
CONTINUOUS
 10
6.677440
 20
2.698520
  0
VERTEX
  8
0
  6
CONTINUOUS
 10
6.687120
 20
2.724480
  0
VERTEX
  8
0
  6
CONTINUOUS
 10
6.700760
 20
2.745600
  0
VERTEX
  8
0
  6
CONTINUOUS
 10
6.717040
 20
2.762320
  0
VERTEX
  8
0
  6
CONTINUOUS
 10
6.735520
 20
2.773760
  0
VERTEX
  8
0
  6
CONTINUOUS
 10
6.756200
 20
2.781240
  0
VERTEX
  8
0
  6
CONTINUOUS
 10
6.777320
 20
2.783880
  0
VERTEX
  8
0
  6
CONTINUOUS
 10
6.788320
 20
2.783880
  0
VERTEX
  8
0
  6
CONTINUOUS
 10
6.809880
 20
2.780360
  0
VERTEX
  8
0
  6
CONTINUOUS
 10
6.830560
 20
2.772880
  0
VERTEX
  8
0
  6
CONTINUOUS
 10
6.850360
 20
2.761880
  0
VERTEX
  8
0
  6
CONTINUOUS
 10
6.875440
 20
2.737680
  0
VERTEX
  8
0
  6
CONTINUOUS
 10
6.888640
 20
2.717000
  0
VERTEX
  8
0
  6
CONTINUOUS
 10
6.897880
 20
2.692800
  0
VERTEX
  8
0
  6
CONTINUOUS
 10
6.902720
 20
2.665080
  0
VERTEX
  8
0
  6
CONTINUOUS
 10
6.903600
 20
2.650120
  0
VERTEX
  8
0
  6
CONTINUOUS
 10
7.024160
 20
2.650120
  0
VERTEX
  8
0
  6
CONTINUOUS
 10
7.024160
 20
2.533960
  0
VERTEX
  8
0
  6
CONTINUOUS
 10
5.341160
 20
2.533960
  0
VERTEX
  8
0
  6
CONTINUOUS
 10
5.341160
 20
2.686200
  0
VERTEX
  8
0
  6
CONTINUOUS
 10
5.506160
 20
2.686200
  0
VERTEX
  8
0
  6
CONTINUOUS
 10
5.506600
 20
2.687080
  0
SEQEND
  8
0
  0
SOLID
  8
0
 62
    15
 10
7.083560
 20
1.078440
 11
7.075200
 21
1.827760
 12
7.158360
 22
1.073160
 13
7.150440
 23
1.822480
  0
POLYLINE
  8
0
  6
CONTINUOUS
 66
     1
 40
0.000000
 41
0.000000
  0
VERTEX
  8
0
  6
CONTINUOUS
 10
7.083560
 20
1.078440
  0
VERTEX
  8
0
  6
CONTINUOUS
 10
7.075200
 20
1.827760
  0
VERTEX
  8
0
  6
CONTINUOUS
 10
7.150440
 20
1.822480
  0
VERTEX
  8
0
  6
CONTINUOUS
 10
7.158360
 20
1.073160
  0
VERTEX
  8
0
  6
CONTINUOUS
 10
7.083560
 20
1.078440
  0
SEQEND
  8
0
  0
SOLID
  8
0
 62
    15
 10
6.180240
 20
1.081960
 11
6.172320
 21
1.831720
 12
6.195640
 22
1.112320
 13
6.187280
 23
1.861640
  0
POLYLINE
  8
0
  6
CONTINUOUS
 66
     1
 40
0.000000
 41
0.000000
  0
VERTEX
  8
0
  6
CONTINUOUS
 10
6.180240
 20
1.081960
  0
VERTEX
  8
0
  6
CONTINUOUS
 10
6.172320
 20
1.831720
  0
VERTEX
  8
0
  6
CONTINUOUS
 10
6.187280
 20
1.861640
  0
VERTEX
  8
0
  6
CONTINUOUS
 10
6.195640
 20
1.112320
  0
VERTEX
  8
0
  6
CONTINUOUS
 10
6.180240
 20
1.081960
  0
SEQEND
  8
0
  0
SOLID
  8
0
 62
    15
 10
6.195640
 20
1.112320
 11
6.187280
 21
1.861640
 12
6.215000
 22
1.140920
 13
6.206640
 23
1.890240
  0
POLYLINE
  8
0
  6
CONTINUOUS
 66
     1
 40
0.000000
 41
0.000000
  0
VERTEX
  8
0
  6
CONTINUOUS
 10
6.195640
 20
1.112320
  0
VERTEX
  8
0
  6
CONTINUOUS
 10
6.187280
 20
1.861640
  0
VERTEX
  8
0
  6
CONTINUOUS
 10
6.206640
 20
1.890240
  0
VERTEX
  8
0
  6
CONTINUOUS
 10
6.215000
 20
1.140920
  0
VERTEX
  8
0
  6
CONTINUOUS
 10
6.195640
 20
1.112320
  0
SEQEND
  8
0
  0
SOLID
  8
0
 62
    15
 10
6.215000
 20
1.140920
 11
6.206640
 21
1.890240
 12
6.237880
 22
1.167320
 13
6.229960
 23
1.917080
  0
POLYLINE
  8
0
  6
CONTINUOUS
 66
     1
 40
0.000000
 41
0.000000
  0
VERTEX
  8
0
  6
CONTINUOUS
 10
6.215000
 20
1.140920
  0
VERTEX
  8
0
  6
CONTINUOUS
 10
6.206640
 20
1.890240
  0
VERTEX
  8
0
  6
CONTINUOUS
 10
6.229960
 20
1.917080
  0
VERTEX
  8
0
  6
CONTINUOUS
 10
6.237880
 20
1.167320
  0
VERTEX
  8
0
  6
CONTINUOUS
 10
6.215000
 20
1.140920
  0
SEQEND
  8
0
  0
SOLID
  8
0
 62
    15
 10
6.237880
 20
1.167320
 11
6.229960
 21
1.917080
 12
6.264280
 22
1.191960
 13
6.256360
 23
1.941280
  0
POLYLINE
  8
0
  6
CONTINUOUS
 66
     1
 40
0.000000
 41
0.000000
  0
VERTEX
  8
0
  6
CONTINUOUS
 10
6.237880
 20
1.167320
  0
VERTEX
  8
0
  6
CONTINUOUS
 10
6.229960
 20
1.917080
  0
VERTEX
  8
0
  6
CONTINUOUS
 10
6.256360
 20
1.941280
  0
VERTEX
  8
0
  6
CONTINUOUS
 10
6.264280
 20
1.191960
  0
VERTEX
  8
0
  6
CONTINUOUS
 10
6.237880
 20
1.167320
  0
SEQEND
  8
0
  0
SOLID
  8
0
 62
    15
 10
6.264280
 20
1.191960
 11
6.256360
 21
1.941280
 12
6.293760
 22
1.213520
 13
6.285840
 23
1.962840
  0
POLYLINE
  8
0
  6
CONTINUOUS
 66
     1
 40
0.000000
 41
0.000000
  0
VERTEX
  8
0
  6
CONTINUOUS
 10
6.264280
 20
1.191960
  0
VERTEX
  8
0
  6
CONTINUOUS
 10
6.256360
 20
1.941280
  0
VERTEX
  8
0
  6
CONTINUOUS
 10
6.285840
 20
1.962840
  0
VERTEX
  8
0
  6
CONTINUOUS
 10
6.293760
 20
1.213520
  0
VERTEX
  8
0
  6
CONTINUOUS
 10
6.264280
 20
1.191960
  0
SEQEND
  8
0
  0
SOLID
  8
0
 62
    15
 10
6.293760
 20
1.213520
 11
6.285840
 21
1.962840
 12
6.325440
 22
1.232440
 13
6.317520
 23
1.981760
  0
POLYLINE
  8
0
  6
CONTINUOUS
 66
     1
 40
0.000000
 41
0.000000
  0
VERTEX
  8
0
  6
CONTINUOUS
 10
6.293760
 20
1.213520
  0
VERTEX
  8
0
  6
CONTINUOUS
 10
6.285840
 20
1.962840
  0
VERTEX
  8
0
  6
CONTINUOUS
 10
6.317520
 20
1.981760
  0
VERTEX
  8
0
  6
CONTINUOUS
 10
6.325440
 20
1.232440
  0
VERTEX
  8
0
  6
CONTINUOUS
 10
6.293760
 20
1.213520
  0
SEQEND
  8
0
  0
SOLID
  8
0
 62
    15
 10
6.325440
 20
1.232440
 11
6.317520
 21
1.981760
 12
6.359320
 22
1.247840
 13
6.351400
 23
1.997160
  0
POLYLINE
  8
0
  6
CONTINUOUS
 66
     1
 40
0.000000
 41
0.000000
  0
VERTEX
  8
0
  6
CONTINUOUS
 10
6.325440
 20
1.232440
  0
VERTEX
  8
0
  6
CONTINUOUS
 10
6.317520
 20
1.981760
  0
VERTEX
  8
0
  6
CONTINUOUS
 10
6.351400
 20
1.997160
  0
VERTEX
  8
0
  6
CONTINUOUS
 10
6.359320
 20
1.247840
  0
VERTEX
  8
0
  6
CONTINUOUS
 10
6.325440
 20
1.232440
  0
SEQEND
  8
0
  0
SOLID
  8
0
 62
    15
 10
6.359320
 20
1.247840
 11
6.351400
 21
1.997160
 12
6.394520
 22
1.259720
 13
6.386600
 23
2.009040
  0
POLYLINE
  8
0
  6
CONTINUOUS
 66
     1
 40
0.000000
 41
0.000000
  0
VERTEX
  8
0
  6
CONTINUOUS
 10
6.359320
 20
1.247840
  0
VERTEX
  8
0
  6
CONTINUOUS
 10
6.351400
 20
1.997160
  0
VERTEX
  8
0
  6
CONTINUOUS
 10
6.386600
 20
2.009040
  0
VERTEX
  8
0
  6
CONTINUOUS
 10
6.394520
 20
1.259720
  0
VERTEX
  8
0
  6
CONTINUOUS
 10
6.359320
 20
1.247840
  0
SEQEND
  8
0
  0
SOLID
  8
0
 62
    15
 10
6.394520
 20
1.259720
 11
6.386600
 21
2.009040
 12
6.431040
 22
1.267640
 13
6.423120
 23
2.016960
  0
POLYLINE
  8
0
  6
CONTINUOUS
 66
     1
 40
0.000000
 41
0.000000
  0
VERTEX
  8
0
  6
CONTINUOUS
 10
6.394520
 20
1.259720
  0
VERTEX
  8
0
  6
CONTINUOUS
 10
6.386600
 20
2.009040
  0
VERTEX
  8
0
  6
CONTINUOUS
 10
6.423120
 20
2.016960
  0
VERTEX
  8
0
  6
CONTINUOUS
 10
6.431040
 20
1.267640
  0
VERTEX
  8
0
  6
CONTINUOUS
 10
6.394520
 20
1.259720
  0
SEQEND
  8
0
  0
SOLID
  8
0
 62
    15
 10
6.431040
 20
1.267640
 11
6.423120
 21
2.016960
 12
6.468000
 22
1.271600
 13
6.460080
 23
2.020920
  0
POLYLINE
  8
0
  6
CONTINUOUS
 66
     1
 40
0.000000
 41
0.000000
  0
VERTEX
  8
0
  6
CONTINUOUS
 10
6.431040
 20
1.267640
  0
VERTEX
  8
0
  6
CONTINUOUS
 10
6.423120
 20
2.016960
  0
VERTEX
  8
0
  6
CONTINUOUS
 10
6.460080
 20
2.020920
  0
VERTEX
  8
0
  6
CONTINUOUS
 10
6.468000
 20
1.271600
  0
VERTEX
  8
0
  6
CONTINUOUS
 10
6.431040
 20
1.267640
  0
SEQEND
  8
0
  0
SOLID
  8
0
 62
    15
 10
6.468000
 20
1.271600
 11
6.460080
 21
2.020920
 12
6.505400
 22
1.270720
 13
6.497480
 23
2.020040
  0
POLYLINE
  8
0
  6
CONTINUOUS
 66
     1
 40
0.000000
 41
0.000000
  0
VERTEX
  8
0
  6
CONTINUOUS
 10
6.468000
 20
1.271600
  0
VERTEX
  8
0
  6
CONTINUOUS
 10
6.460080
 20
2.020920
  0
VERTEX
  8
0
  6
CONTINUOUS
 10
6.497480
 20
2.020040
  0
VERTEX
  8
0
  6
CONTINUOUS
 10
6.505400
 20
1.270720
  0
VERTEX
  8
0
  6
CONTINUOUS
 10
6.468000
 20
1.271600
  0
SEQEND
  8
0
  0
SOLID
  8
0
 62
    15
 10
6.505400
 20
1.270720
 11
6.497480
 21
2.020040
 12
6.542800
 22
1.265000
 13
6.534880
 23
2.014760
  0
POLYLINE
  8
0
  6
CONTINUOUS
 66
     1
 40
0.000000
 41
0.000000
  0
VERTEX
  8
0
  6
CONTINUOUS
 10
6.505400
 20
1.270720
  0
VERTEX
  8
0
  6
CONTINUOUS
 10
6.497480
 20
2.020040
  0
VERTEX
  8
0
  6
CONTINUOUS
 10
6.534880
 20
2.014760
  0
VERTEX
  8
0
  6
CONTINUOUS
 10
6.542800
 20
1.265000
  0
VERTEX
  8
0
  6
CONTINUOUS
 10
6.505400
 20
1.270720
  0
SEQEND
  8
0
  0
SOLID
  8
0
 62
    15
 10
6.542800
 20
1.265000
 11
6.534880
 21
2.014760
 12
6.579320
 22
1.254440
 13
6.571400
 23
2.003760
  0
POLYLINE
  8
0
  6
CONTINUOUS
 66
     1
 40
0.000000
 41
0.000000
  0
VERTEX
  8
0
  6
CONTINUOUS
 10
6.542800
 20
1.265000
  0
VERTEX
  8
0
  6
CONTINUOUS
 10
6.534880
 20
2.014760
  0
VERTEX
  8
0
  6
CONTINUOUS
 10
6.571400
 20
2.003760
  0
VERTEX
  8
0
  6
CONTINUOUS
 10
6.579320
 20
1.254440
  0
VERTEX
  8
0
  6
CONTINUOUS
 10
6.542800
 20
1.265000
  0
SEQEND
  8
0
  0
SOLID
  8
0
 62
    15
 10
6.579320
 20
1.254440
 11
6.571400
 21
2.003760
 12
6.614960
 22
1.238160
 13
6.607040
 23
1.987480
  0
POLYLINE
  8
0
  6
CONTINUOUS
 66
     1
 40
0.000000
 41
0.000000
  0
VERTEX
  8
0
  6
CONTINUOUS
 10
6.579320
 20
1.254440
  0
VERTEX
  8
0
  6
CONTINUOUS
 10
6.571400
 20
2.003760
  0
VERTEX
  8
0
  6
CONTINUOUS
 10
6.607040
 20
1.987480
  0
VERTEX
  8
0
  6
CONTINUOUS
 10
6.614960
 20
1.238160
  0
VERTEX
  8
0
  6
CONTINUOUS
 10
6.579320
 20
1.254440
  0
SEQEND
  8
0
  0
SOLID
  8
0
 62
    15
 10
6.614960
 20
1.238160
 11
6.607040
 21
1.987480
 12
6.648840
 22
1.216160
 13
6.640920
 23
1.965480
  0
POLYLINE
  8
0
  6
CONTINUOUS
 66
     1
 40
0.000000
 41
0.000000
  0
VERTEX
  8
0
  6
CONTINUOUS
 10
6.614960
 20
1.238160
  0
VERTEX
  8
0
  6
CONTINUOUS
 10
6.607040
 20
1.987480
  0
VERTEX
  8
0
  6
CONTINUOUS
 10
6.640920
 20
1.965480
  0
VERTEX
  8
0
  6
CONTINUOUS
 10
6.648840
 20
1.216160
  0
VERTEX
  8
0
  6
CONTINUOUS
 10
6.614960
 20
1.238160
  0
SEQEND
  8
0
  0
SOLID
  8
0
 62
    15
 10
6.648840
 20
1.216160
 11
6.640920
 21
1.965480
 12
6.682720
 22
1.192400
 13
6.674800
 23
1.942160
  0
POLYLINE
  8
0
  6
CONTINUOUS
 66
     1
 40
0.000000
 41
0.000000
  0
VERTEX
  8
0
  6
CONTINUOUS
 10
6.648840
 20
1.216160
  0
VERTEX
  8
0
  6
CONTINUOUS
 10
6.640920
 20
1.965480
  0
VERTEX
  8
0
  6
CONTINUOUS
 10
6.674800
 20
1.942160
  0
VERTEX
  8
0
  6
CONTINUOUS
 10
6.682720
 20
1.192400
  0
VERTEX
  8
0
  6
CONTINUOUS
 10
6.648840
 20
1.216160
  0
SEQEND
  8
0
  0
SOLID
  8
0
 62
    15
 10
6.682720
 20
1.192400
 11
6.674800
 21
1.942160
 12
6.717040
 22
1.172160
 13
6.708680
 23
1.921480
  0
POLYLINE
  8
0
  6
CONTINUOUS
 66
     1
 40
0.000000
 41
0.000000
  0
VERTEX
  8
0
  6
CONTINUOUS
 10
6.682720
 20
1.192400
  0
VERTEX
  8
0
  6
CONTINUOUS
 10
6.674800
 20
1.942160
  0
VERTEX
  8
0
  6
CONTINUOUS
 10
6.708680
 20
1.921480
  0
VERTEX
  8
0
  6
CONTINUOUS
 10
6.717040
 20
1.172160
  0
VERTEX
  8
0
  6
CONTINUOUS
 10
6.682720
 20
1.192400
  0
SEQEND
  8
0
  0
SOLID
  8
0
 62
    15
 10
6.717040
 20
1.172160
 11
6.708680
 21
1.921480
 12
6.751800
 22
1.154120
 13
6.743880
 23
1.903440
  0
POLYLINE
  8
0
  6
CONTINUOUS
 66
     1
 40
0.000000
 41
0.000000
  0
VERTEX
  8
0
  6
CONTINUOUS
 10
6.717040
 20
1.172160
  0
VERTEX
  8
0
  6
CONTINUOUS
 10
6.708680
 20
1.921480
  0
VERTEX
  8
0
  6
CONTINUOUS
 10
6.743880
 20
1.903440
  0
VERTEX
  8
0
  6
CONTINUOUS
 10
6.751800
 20
1.154120
  0
VERTEX
  8
0
  6
CONTINUOUS
 10
6.717040
 20
1.172160
  0
SEQEND
  8
0
  0
SOLID
  8
0
 62
    15
 10
6.751800
 20
1.154120
 11
6.743880
 21
1.903440
 12
6.787440
 22
1.138720
 13
6.779080
 23
1.888040
  0
POLYLINE
  8
0
  6
CONTINUOUS
 66
     1
 40
0.000000
 41
0.000000
  0
VERTEX
  8
0
  6
CONTINUOUS
 10
6.751800
 20
1.154120
  0
VERTEX
  8
0
  6
CONTINUOUS
 10
6.743880
 20
1.903440
  0
VERTEX
  8
0
  6
CONTINUOUS
 10
6.779080
 20
1.888040
  0
VERTEX
  8
0
  6
CONTINUOUS
 10
6.787440
 20
1.138720
  0
VERTEX
  8
0
  6
CONTINUOUS
 10
6.751800
 20
1.154120
  0
SEQEND
  8
0
  0
SOLID
  8
0
 62
    15
 10
6.787440
 20
1.138720
 11
6.779080
 21
1.888040
 12
6.823080
 22
1.125520
 13
6.815160
 23
1.874840
  0
POLYLINE
  8
0
  6
CONTINUOUS
 66
     1
 40
0.000000
 41
0.000000
  0
VERTEX
  8
0
  6
CONTINUOUS
 10
6.787440
 20
1.138720
  0
VERTEX
  8
0
  6
CONTINUOUS
 10
6.779080
 20
1.888040
  0
VERTEX
  8
0
  6
CONTINUOUS
 10
6.815160
 20
1.874840
  0
VERTEX
  8
0
  6
CONTINUOUS
 10
6.823080
 20
1.125520
  0
VERTEX
  8
0
  6
CONTINUOUS
 10
6.787440
 20
1.138720
  0
SEQEND
  8
0
  0
SOLID
  8
0
 62
    15
 10
6.823080
 20
1.125520
 11
6.815160
 21
1.874840
 12
6.859600
 22
1.114520
 13
6.851680
 23
1.863840
  0
POLYLINE
  8
0
  6
CONTINUOUS
 66
     1
 40
0.000000
 41
0.000000
  0
VERTEX
  8
0
  6
CONTINUOUS
 10
6.823080
 20
1.125520
  0
VERTEX
  8
0
  6
CONTINUOUS
 10
6.815160
 20
1.874840
  0
VERTEX
  8
0
  6
CONTINUOUS
 10
6.851680
 20
1.863840
  0
VERTEX
  8
0
  6
CONTINUOUS
 10
6.859600
 20
1.114520
  0
VERTEX
  8
0
  6
CONTINUOUS
 10
6.823080
 20
1.125520
  0
SEQEND
  8
0
  0
SOLID
  8
0
 62
    15
 10
6.859600
 20
1.114520
 11
6.851680
 21
1.863840
 12
6.933520
 22
1.097360
 13
6.925600
 23
1.846680
  0
POLYLINE
  8
0
  6
CONTINUOUS
 66
     1
 40
0.000000
 41
0.000000
  0
VERTEX
  8
0
  6
CONTINUOUS
 10
6.859600
 20
1.114520
  0
VERTEX
  8
0
  6
CONTINUOUS
 10
6.851680
 20
1.863840
  0
VERTEX
  8
0
  6
CONTINUOUS
 10
6.925600
 20
1.846680
  0
VERTEX
  8
0
  6
CONTINUOUS
 10
6.933520
 20
1.097360
  0
VERTEX
  8
0
  6
CONTINUOUS
 10
6.859600
 20
1.114520
  0
SEQEND
  8
0
  0
SOLID
  8
0
 62
    15
 10
6.933520
 20
1.097360
 11
6.925600
 21
1.846680
 12
7.008320
 22
1.085920
 13
7.000400
 23
1.835680
  0
POLYLINE
  8
0
  6
CONTINUOUS
 66
     1
 40
0.000000
 41
0.000000
  0
VERTEX
  8
0
  6
CONTINUOUS
 10
6.933520
 20
1.097360
  0
VERTEX
  8
0
  6
CONTINUOUS
 10
6.925600
 20
1.846680
  0
VERTEX
  8
0
  6
CONTINUOUS
 10
7.000400
 20
1.835680
  0
VERTEX
  8
0
  6
CONTINUOUS
 10
7.008320
 20
1.085920
  0
VERTEX
  8
0
  6
CONTINUOUS
 10
6.933520
 20
1.097360
  0
SEQEND
  8
0
  0
SOLID
  8
0
 62
    15
 10
7.008320
 20
1.085920
 11
7.000400
 21
1.835680
 12
7.083560
 22
1.078440
 13
7.075200
 23
1.827760
  0
POLYLINE
  8
0
  6
CONTINUOUS
 66
     1
 40
0.000000
 41
0.000000
  0
VERTEX
  8
0
  6
CONTINUOUS
 10
7.008320
 20
1.085920
  0
VERTEX
  8
0
  6
CONTINUOUS
 10
7.000400
 20
1.835680
  0
VERTEX
  8
0
  6
CONTINUOUS
 10
7.075200
 20
1.827760
  0
VERTEX
  8
0
  6
CONTINUOUS
 10
7.083560
 20
1.078440
  0
VERTEX
  8
0
  6
CONTINUOUS
 10
7.008320
 20
1.085920
  0
SEQEND
  8
0
  0
SOLID
  8
0
 62
    15
 10
6.169680
 20
1.050720
 11
6.161760
 21
1.800040
 12
6.180240
 22
1.081960
 13
6.172320
 23
1.831720
  0
POLYLINE
  8
0
  6
CONTINUOUS
 66
     1
 40
0.000000
 41
0.000000
  0
VERTEX
  8
0
  6
CONTINUOUS
 10
6.169680
 20
1.050720
  0
VERTEX
  8
0
  6
CONTINUOUS
 10
6.161760
 20
1.800040
  0
VERTEX
  8
0
  6
CONTINUOUS
 10
6.172320
 20
1.831720
  0
VERTEX
  8
0
  6
CONTINUOUS
 10
6.180240
 20
1.081960
  0
VERTEX
  8
0
  6
CONTINUOUS
 10
6.169680
 20
1.050720
  0
SEQEND
  8
0
  0
SOLID
  8
0
 62
    15
 10
7.158360
 20
1.073160
 11
7.150440
 21
1.822480
 12
7.195760
 22
1.070520
 13
7.187840
 23
1.819840
  0
POLYLINE
  8
0
  6
CONTINUOUS
 66
     1
 40
0.000000
 41
0.000000
  0
VERTEX
  8
0
  6
CONTINUOUS
 10
7.158360
 20
1.073160
  0
VERTEX
  8
0
  6
CONTINUOUS
 10
7.150440
 20
1.822480
  0
VERTEX
  8
0
  6
CONTINUOUS
 10
7.187840
 20
1.819840
  0
VERTEX
  8
0
  6
CONTINUOUS
 10
7.195760
 20
1.070520
  0
VERTEX
  8
0
  6
CONTINUOUS
 10
7.158360
 20
1.073160
  0
SEQEND
  8
0
  0
SOLID
  8
0
 62
    15
 10
7.195760
 20
1.070520
 11
7.187840
 21
1.819840
 12
7.233160
 22
1.067880
 13
7.225240
 23
1.817640
  0
POLYLINE
  8
0
  6
CONTINUOUS
 66
     1
 40
0.000000
 41
0.000000
  0
VERTEX
  8
0
  6
CONTINUOUS
 10
7.195760
 20
1.070520
  0
VERTEX
  8
0
  6
CONTINUOUS
 10
7.187840
 20
1.819840
  0
VERTEX
  8
0
  6
CONTINUOUS
 10
7.225240
 20
1.817640
  0
VERTEX
  8
0
  6
CONTINUOUS
 10
7.233160
 20
1.067880
  0
VERTEX
  8
0
  6
CONTINUOUS
 10
7.195760
 20
1.070520
  0
SEQEND
  8
0
  0
SOLID
  8
0
 62
    15
 10
7.233160
 20
1.067880
 11
7.225240
 21
1.817640
 12
7.238880
 22
1.013320
 13
7.230960
 23
1.763080
  0
POLYLINE
  8
0
  6
CONTINUOUS
 66
     1
 40
0.000000
 41
0.000000
  0
VERTEX
  8
0
  6
CONTINUOUS
 10
7.233160
 20
1.067880
  0
VERTEX
  8
0
  6
CONTINUOUS
 10
7.225240
 20
1.817640
  0
VERTEX
  8
0
  6
CONTINUOUS
 10
7.230960
 20
1.763080
  0
VERTEX
  8
0
  6
CONTINUOUS
 10
7.238880
 20
1.013320
  0
VERTEX
  8
0
  6
CONTINUOUS
 10
7.233160
 20
1.067880
  0
SEQEND
  8
0
  0
SOLID
  8
0
 62
    15
 10
7.238880
 20
1.013320
 11
7.230960
 21
1.763080
 12
7.334360
 22
1.013320
 13
7.326440
 23
1.763080
  0
POLYLINE
  8
0
  6
CONTINUOUS
 66
     1
 40
0.000000
 41
0.000000
  0
VERTEX
  8
0
  6
CONTINUOUS
 10
7.238880
 20
1.013320
  0
VERTEX
  8
0
  6
CONTINUOUS
 10
7.230960
 20
1.763080
  0
VERTEX
  8
0
  6
CONTINUOUS
 10
7.326440
 20
1.763080
  0
VERTEX
  8
0
  6
CONTINUOUS
 10
7.334360
 20
1.013320
  0
VERTEX
  8
0
  6
CONTINUOUS
 10
7.238880
 20
1.013320
  0
SEQEND
  8
0
  0
SOLID
  8
0
 62
    15
 10
7.334360
 20
1.013320
 11
7.326440
 21
1.763080
 12
7.337440
 22
1.047200
 13
7.329080
 23
1.796520
  0
POLYLINE
  8
0
  6
CONTINUOUS
 66
     1
 40
0.000000
 41
0.000000
  0
VERTEX
  8
0
  6
CONTINUOUS
 10
7.334360
 20
1.013320
  0
VERTEX
  8
0
  6
CONTINUOUS
 10
7.326440
 20
1.763080
  0
VERTEX
  8
0
  6
CONTINUOUS
 10
7.329080
 20
1.796520
  0
VERTEX
  8
0
  6
CONTINUOUS
 10
7.337440
 20
1.047200
  0
VERTEX
  8
0
  6
CONTINUOUS
 10
7.334360
 20
1.013320
  0
SEQEND
  8
0
  0
SOLID
  8
0
 62
    15
 10
7.337440
 20
1.047200
 11
7.329080
 21
1.796520
 12
7.344920
 22
1.075360
 13
7.337000
 23
1.825120
  0
POLYLINE
  8
0
  6
CONTINUOUS
 66
     1
 40
0.000000
 41
0.000000
  0
VERTEX
  8
0
  6
CONTINUOUS
 10
7.337440
 20
1.047200
  0
VERTEX
  8
0
  6
CONTINUOUS
 10
7.329080
 20
1.796520
  0
VERTEX
  8
0
  6
CONTINUOUS
 10
7.337000
 20
1.825120
  0
VERTEX
  8
0
  6
CONTINUOUS
 10
7.344920
 20
1.075360
  0
VERTEX
  8
0
  6
CONTINUOUS
 10
7.337440
 20
1.047200
  0
SEQEND
  8
0
  0
SOLID
  8
0
 62
    15
 10
7.344920
 20
1.075360
 11
7.337000
 21
1.825120
 12
7.356800
 22
1.099120
 13
7.348440
 23
1.848440
  0
POLYLINE
  8
0
  6
CONTINUOUS
 66
     1
 40
0.000000
 41
0.000000
  0
VERTEX
  8
0
  6
CONTINUOUS
 10
7.344920
 20
1.075360
  0
VERTEX
  8
0
  6
CONTINUOUS
 10
7.337000
 20
1.825120
  0
VERTEX
  8
0
  6
CONTINUOUS
 10
7.348440
 20
1.848440
  0
VERTEX
  8
0
  6
CONTINUOUS
 10
7.356800
 20
1.099120
  0
VERTEX
  8
0
  6
CONTINUOUS
 10
7.344920
 20
1.075360
  0
SEQEND
  8
0
  0
SOLID
  8
0
 62
    15
 10
7.356800
 20
1.099120
 11
7.348440
 21
1.848440
 12
7.371760
 22
1.118040
 13
7.363400
 23
1.867360
  0
POLYLINE
  8
0
  6
CONTINUOUS
 66
     1
 40
0.000000
 41
0.000000
  0
VERTEX
  8
0
  6
CONTINUOUS
 10
7.356800
 20
1.099120
  0
VERTEX
  8
0
  6
CONTINUOUS
 10
7.348440
 20
1.848440
  0
VERTEX
  8
0
  6
CONTINUOUS
 10
7.363400
 20
1.867360
  0
VERTEX
  8
0
  6
CONTINUOUS
 10
7.371760
 20
1.118040
  0
VERTEX
  8
0
  6
CONTINUOUS
 10
7.356800
 20
1.099120
  0
SEQEND
  8
0
  0
SOLID
  8
0
 62
    15
 10
7.371760
 20
1.118040
 11
7.363400
 21
1.867360
 12
7.389360
 22
1.132120
 13
7.381000
 23
1.881440
  0
POLYLINE
  8
0
  6
CONTINUOUS
 66
     1
 40
0.000000
 41
0.000000
  0
VERTEX
  8
0
  6
CONTINUOUS
 10
7.371760
 20
1.118040
  0
VERTEX
  8
0
  6
CONTINUOUS
 10
7.363400
 20
1.867360
  0
VERTEX
  8
0
  6
CONTINUOUS
 10
7.381000
 20
1.881440
  0
VERTEX
  8
0
  6
CONTINUOUS
 10
7.389360
 20
1.132120
  0
VERTEX
  8
0
  6
CONTINUOUS
 10
7.371760
 20
1.118040
  0
SEQEND
  8
0
  0
SOLID
  8
0
 62
    15
 10
7.389360
 20
1.132120
 11
7.381000
 21
1.881440
 12
7.408720
 22
1.141360
 13
7.400800
 23
1.891120
  0
POLYLINE
  8
0
  6
CONTINUOUS
 66
     1
 40
0.000000
 41
0.000000
  0
VERTEX
  8
0
  6
CONTINUOUS
 10
7.389360
 20
1.132120
  0
VERTEX
  8
0
  6
CONTINUOUS
 10
7.381000
 20
1.881440
  0
VERTEX
  8
0
  6
CONTINUOUS
 10
7.400800
 20
1.891120
  0
VERTEX
  8
0
  6
CONTINUOUS
 10
7.408720
 20
1.141360
  0
VERTEX
  8
0
  6
CONTINUOUS
 10
7.389360
 20
1.132120
  0
SEQEND
  8
0
  0
SOLID
  8
0
 62
    15
 10
7.408720
 20
1.141360
 11
7.400800
 21
1.891120
 12
7.429840
 22
1.146640
 13
7.421480
 23
1.895960
  0
POLYLINE
  8
0
  6
CONTINUOUS
 66
     1
 40
0.000000
 41
0.000000
  0
VERTEX
  8
0
  6
CONTINUOUS
 10
7.408720
 20
1.141360
  0
VERTEX
  8
0
  6
CONTINUOUS
 10
7.400800
 20
1.891120
  0
VERTEX
  8
0
  6
CONTINUOUS
 10
7.421480
 20
1.895960
  0
VERTEX
  8
0
  6
CONTINUOUS
 10
7.429840
 20
1.146640
  0
VERTEX
  8
0
  6
CONTINUOUS
 10
7.408720
 20
1.141360
  0
SEQEND
  8
0
  0
SOLID
  8
0
 62
    15
 10
7.429840
 20
1.146640
 11
7.421480
 21
1.895960
 12
7.451400
 22
1.147520
 13
7.443480
 23
1.896840
  0
POLYLINE
  8
0
  6
CONTINUOUS
 66
     1
 40
0.000000
 41
0.000000
  0
VERTEX
  8
0
  6
CONTINUOUS
 10
7.429840
 20
1.146640
  0
VERTEX
  8
0
  6
CONTINUOUS
 10
7.421480
 20
1.895960
  0
VERTEX
  8
0
  6
CONTINUOUS
 10
7.443480
 20
1.896840
  0
VERTEX
  8
0
  6
CONTINUOUS
 10
7.451400
 20
1.147520
  0
VERTEX
  8
0
  6
CONTINUOUS
 10
7.429840
 20
1.146640
  0
SEQEND
  8
0
  0
SOLID
  8
0
 62
    15
 10
7.451400
 20
1.147520
 11
7.443480
 21
1.896840
 12
7.472960
 22
1.144000
 13
7.464600
 23
1.893320
  0
POLYLINE
  8
0
  6
CONTINUOUS
 66
     1
 40
0.000000
 41
0.000000
  0
VERTEX
  8
0
  6
CONTINUOUS
 10
7.451400
 20
1.147520
  0
VERTEX
  8
0
  6
CONTINUOUS
 10
7.443480
 20
1.896840
  0
VERTEX
  8
0
  6
CONTINUOUS
 10
7.464600
 20
1.893320
  0
VERTEX
  8
0
  6
CONTINUOUS
 10
7.472960
 20
1.144000
  0
VERTEX
  8
0
  6
CONTINUOUS
 10
7.451400
 20
1.147520
  0
SEQEND
  8
0
  0
SOLID
  8
0
 62
    15
 10
7.472960
 20
1.144000
 11
7.464600
 21
1.893320
 12
7.493640
 22
1.136520
 13
7.485720
 23
1.885840
  0
POLYLINE
  8
0
  6
CONTINUOUS
 66
     1
 40
0.000000
 41
0.000000
  0
VERTEX
  8
0
  6
CONTINUOUS
 10
7.472960
 20
1.144000
  0
VERTEX
  8
0
  6
CONTINUOUS
 10
7.464600
 20
1.893320
  0
VERTEX
  8
0
  6
CONTINUOUS
 10
7.485720
 20
1.885840
  0
VERTEX
  8
0
  6
CONTINUOUS
 10
7.493640
 20
1.136520
  0
VERTEX
  8
0
  6
CONTINUOUS
 10
7.472960
 20
1.144000
  0
SEQEND
  8
0
  0
SOLID
  8
0
 62
    15
 10
7.493640
 20
1.136520
 11
7.485720
 21
1.885840
 12
7.513000
 22
1.125080
 13
7.505080
 23
1.874400
  0
POLYLINE
  8
0
  6
CONTINUOUS
 66
     1
 40
0.000000
 41
0.000000
  0
VERTEX
  8
0
  6
CONTINUOUS
 10
7.493640
 20
1.136520
  0
VERTEX
  8
0
  6
CONTINUOUS
 10
7.485720
 20
1.885840
  0
VERTEX
  8
0
  6
CONTINUOUS
 10
7.505080
 20
1.874400
  0
VERTEX
  8
0
  6
CONTINUOUS
 10
7.513000
 20
1.125080
  0
VERTEX
  8
0
  6
CONTINUOUS
 10
7.493640
 20
1.136520
  0
SEQEND
  8
0
  0
SOLID
  8
0
 62
    15
 10
7.513000
 20
1.125080
 11
7.505080
 21
1.874400
 12
7.530600
 22
1.109680
 13
7.522680
 23
1.859440
  0
POLYLINE
  8
0
  6
CONTINUOUS
 66
     1
 40
0.000000
 41
0.000000
  0
VERTEX
  8
0
  6
CONTINUOUS
 10
7.513000
 20
1.125080
  0
VERTEX
  8
0
  6
CONTINUOUS
 10
7.505080
 20
1.874400
  0
VERTEX
  8
0
  6
CONTINUOUS
 10
7.522680
 20
1.859440
  0
VERTEX
  8
0
  6
CONTINUOUS
 10
7.530600
 20
1.109680
  0
VERTEX
  8
0
  6
CONTINUOUS
 10
7.513000
 20
1.125080
  0
SEQEND
  8
0
  0
SOLID
  8
0
 62
    15
 10
7.530600
 20
1.109680
 11
7.522680
 21
1.859440
 12
7.545560
 22
1.091200
 13
7.537200
 23
1.840520
  0
POLYLINE
  8
0
  6
CONTINUOUS
 66
     1
 40
0.000000
 41
0.000000
  0
VERTEX
  8
0
  6
CONTINUOUS
 10
7.530600
 20
1.109680
  0
VERTEX
  8
0
  6
CONTINUOUS
 10
7.522680
 20
1.859440
  0
VERTEX
  8
0
  6
CONTINUOUS
 10
7.537200
 20
1.840520
  0
VERTEX
  8
0
  6
CONTINUOUS
 10
7.545560
 20
1.091200
  0
VERTEX
  8
0
  6
CONTINUOUS
 10
7.530600
 20
1.109680
  0
SEQEND
  8
0
  0
SOLID
  8
0
 62
    15
 10
7.545560
 20
1.091200
 11
7.537200
 21
1.840520
 12
7.556560
 22
1.068760
 13
7.548640
 23
1.818080
  0
POLYLINE
  8
0
  6
CONTINUOUS
 66
     1
 40
0.000000
 41
0.000000
  0
VERTEX
  8
0
  6
CONTINUOUS
 10
7.545560
 20
1.091200
  0
VERTEX
  8
0
  6
CONTINUOUS
 10
7.537200
 20
1.840520
  0
VERTEX
  8
0
  6
CONTINUOUS
 10
7.548640
 20
1.818080
  0
VERTEX
  8
0
  6
CONTINUOUS
 10
7.556560
 20
1.068760
  0
VERTEX
  8
0
  6
CONTINUOUS
 10
7.545560
 20
1.091200
  0
SEQEND
  8
0
  0
SOLID
  8
0
 62
    15
 10
7.556560
 20
1.068760
 11
7.548640
 21
1.818080
 12
7.564040
 22
1.042800
 13
7.556120
 23
1.792120
  0
POLYLINE
  8
0
  6
CONTINUOUS
 66
     1
 40
0.000000
 41
0.000000
  0
VERTEX
  8
0
  6
CONTINUOUS
 10
7.556560
 20
1.068760
  0
VERTEX
  8
0
  6
CONTINUOUS
 10
7.548640
 20
1.818080
  0
VERTEX
  8
0
  6
CONTINUOUS
 10
7.556120
 20
1.792120
  0
VERTEX
  8
0
  6
CONTINUOUS
 10
7.564040
 20
1.042800
  0
VERTEX
  8
0
  6
CONTINUOUS
 10
7.556560
 20
1.068760
  0
SEQEND
  8
0
  0
SOLID
  8
0
 62
    15
 10
7.564040
 20
1.042800
 11
7.556120
 21
1.792120
 12
7.566680
 22
1.013320
 13
7.558760
 23
1.763080
  0
POLYLINE
  8
0
  6
CONTINUOUS
 66
     1
 40
0.000000
 41
0.000000
  0
VERTEX
  8
0
  6
CONTINUOUS
 10
7.564040
 20
1.042800
  0
VERTEX
  8
0
  6
CONTINUOUS
 10
7.556120
 20
1.792120
  0
VERTEX
  8
0
  6
CONTINUOUS
 10
7.558760
 20
1.763080
  0
VERTEX
  8
0
  6
CONTINUOUS
 10
7.566680
 20
1.013320
  0
VERTEX
  8
0
  6
CONTINUOUS
 10
7.564040
 20
1.042800
  0
SEQEND
  8
0
  0
SOLID
  8
0
 62
    15
 10
7.566680
 20
1.013320
 11
7.558760
 21
1.763080
 12
7.687240
 22
1.013320
 13
7.678880
 23
1.763080
  0
POLYLINE
  8
0
  6
CONTINUOUS
 66
     1
 40
0.000000
 41
0.000000
  0
VERTEX
  8
0
  6
CONTINUOUS
 10
7.566680
 20
1.013320
  0
VERTEX
  8
0
  6
CONTINUOUS
 10
7.558760
 20
1.763080
  0
VERTEX
  8
0
  6
CONTINUOUS
 10
7.678880
 20
1.763080
  0
VERTEX
  8
0
  6
CONTINUOUS
 10
7.687240
 20
1.013320
  0
VERTEX
  8
0
  6
CONTINUOUS
 10
7.566680
 20
1.013320
  0
SEQEND
  8
0
  0
SOLID
  8
0
 62
    15
 10
6.003800
 20
0.897160
 11
5.995880
 21
1.646920
 12
6.003800
 22
1.049840
 13
5.995880
 23
1.799160
  0
POLYLINE
  8
0
  6
CONTINUOUS
 66
     1
 40
0.000000
 41
0.000000
  0
VERTEX
  8
0
  6
CONTINUOUS
 10
6.003800
 20
0.897160
  0
VERTEX
  8
0
  6
CONTINUOUS
 10
5.995880
 20
1.646920
  0
VERTEX
  8
0
  6
CONTINUOUS
 10
5.995880
 20
1.799160
  0
VERTEX
  8
0
  6
CONTINUOUS
 10
6.003800
 20
1.049840
  0
VERTEX
  8
0
  6
CONTINUOUS
 10
6.003800
 20
0.897160
  0
SEQEND
  8
0
  0
SOLID
  8
0
 62
    15
 10
6.003800
 20
1.049840
 11
5.995880
 21
1.799160
 12
6.169240
 22
1.049840
 13
6.161320
 23
1.799160
  0
POLYLINE
  8
0
  6
CONTINUOUS
 66
     1
 40
0.000000
 41
0.000000
  0
VERTEX
  8
0
  6
CONTINUOUS
 10
6.003800
 20
1.049840
  0
VERTEX
  8
0
  6
CONTINUOUS
 10
5.995880
 20
1.799160
  0
VERTEX
  8
0
  6
CONTINUOUS
 10
6.161320
 20
1.799160
  0
VERTEX
  8
0
  6
CONTINUOUS
 10
6.169240
 20
1.049840
  0
VERTEX
  8
0
  6
CONTINUOUS
 10
6.003800
 20
1.049840
  0
SEQEND
  8
0
  0
SOLID
  8
0
 62
    15
 10
6.169240
 20
1.049840
 11
6.161320
 21
1.799160
 12
6.169680
 22
1.050720
 13
6.161760
 23
1.800040
  0
POLYLINE
  8
0
  6
CONTINUOUS
 66
     1
 40
0.000000
 41
0.000000
  0
VERTEX
  8
0
  6
CONTINUOUS
 10
6.169240
 20
1.049840
  0
VERTEX
  8
0
  6
CONTINUOUS
 10
6.161320
 20
1.799160
  0
VERTEX
  8
0
  6
CONTINUOUS
 10
6.161760
 20
1.800040
  0
VERTEX
  8
0
  6
CONTINUOUS
 10
6.169680
 20
1.050720
  0
VERTEX
  8
0
  6
CONTINUOUS
 10
6.169240
 20
1.049840
  0
SEQEND
  8
0
  0
POLYLINE
  8
0
  6
CONTINUOUS
 66
     1
 40
0.000000
 41
0.000000
  0
VERTEX
  8
0
  6
CONTINUOUS
 10
6.169680
 20
1.050720
  0
VERTEX
  8
0
  6
CONTINUOUS
 10
6.180240
 20
1.081960
  0
VERTEX
  8
0
  6
CONTINUOUS
 10
6.195640
 20
1.112320
  0
VERTEX
  8
0
  6
CONTINUOUS
 10
6.215000
 20
1.140920
  0
VERTEX
  8
0
  6
CONTINUOUS
 10
6.237880
 20
1.167320
  0
VERTEX
  8
0
  6
CONTINUOUS
 10
6.264280
 20
1.191960
  0
VERTEX
  8
0
  6
CONTINUOUS
 10
6.293760
 20
1.213520
  0
VERTEX
  8
0
  6
CONTINUOUS
 10
6.325440
 20
1.232440
  0
VERTEX
  8
0
  6
CONTINUOUS
 10
6.359320
 20
1.247840
  0
VERTEX
  8
0
  6
CONTINUOUS
 10
6.394520
 20
1.259720
  0
VERTEX
  8
0
  6
CONTINUOUS
 10
6.431040
 20
1.267640
  0
VERTEX
  8
0
  6
CONTINUOUS
 10
6.468000
 20
1.271600
  0
VERTEX
  8
0
  6
CONTINUOUS
 10
6.505400
 20
1.270720
  0
VERTEX
  8
0
  6
CONTINUOUS
 10
6.542800
 20
1.265000
  0
VERTEX
  8
0
  6
CONTINUOUS
 10
6.579320
 20
1.254440
  0
VERTEX
  8
0
  6
CONTINUOUS
 10
6.614960
 20
1.238160
  0
VERTEX
  8
0
  6
CONTINUOUS
 10
6.682720
 20
1.192400
  0
VERTEX
  8
0
  6
CONTINUOUS
 10
6.717040
 20
1.172160
  0
VERTEX
  8
0
  6
CONTINUOUS
 10
6.751800
 20
1.154120
  0
VERTEX
  8
0
  6
CONTINUOUS
 10
6.787440
 20
1.138720
  0
VERTEX
  8
0
  6
CONTINUOUS
 10
6.823080
 20
1.125520
  0
VERTEX
  8
0
  6
CONTINUOUS
 10
6.859600
 20
1.114520
  0
VERTEX
  8
0
  6
CONTINUOUS
 10
6.933520
 20
1.097360
  0
VERTEX
  8
0
  6
CONTINUOUS
 10
7.008320
 20
1.085920
  0
VERTEX
  8
0
  6
CONTINUOUS
 10
7.083560
 20
1.078440
  0
VERTEX
  8
0
  6
CONTINUOUS
 10
7.233160
 20
1.067880
  0
VERTEX
  8
0
  6
CONTINUOUS
 10
7.238880
 20
1.013320
  0
VERTEX
  8
0
  6
CONTINUOUS
 10
7.334360
 20
1.013320
  0
VERTEX
  8
0
  6
CONTINUOUS
 10
7.337440
 20
1.047200
  0
VERTEX
  8
0
  6
CONTINUOUS
 10
7.344920
 20
1.075360
  0
VERTEX
  8
0
  6
CONTINUOUS
 10
7.356800
 20
1.099120
  0
VERTEX
  8
0
  6
CONTINUOUS
 10
7.371760
 20
1.118040
  0
VERTEX
  8
0
  6
CONTINUOUS
 10
7.389360
 20
1.132120
  0
VERTEX
  8
0
  6
CONTINUOUS
 10
7.408720
 20
1.141360
  0
VERTEX
  8
0
  6
CONTINUOUS
 10
7.429840
 20
1.146640
  0
VERTEX
  8
0
  6
CONTINUOUS
 10
7.451400
 20
1.147520
  0
VERTEX
  8
0
  6
CONTINUOUS
 10
7.472960
 20
1.144000
  0
VERTEX
  8
0
  6
CONTINUOUS
 10
7.493640
 20
1.136520
  0
VERTEX
  8
0
  6
CONTINUOUS
 10
7.513000
 20
1.125080
  0
VERTEX
  8
0
  6
CONTINUOUS
 10
7.530600
 20
1.109680
  0
VERTEX
  8
0
  6
CONTINUOUS
 10
7.545560
 20
1.091200
  0
VERTEX
  8
0
  6
CONTINUOUS
 10
7.556560
 20
1.068760
  0
VERTEX
  8
0
  6
CONTINUOUS
 10
7.564040
 20
1.042800
  0
VERTEX
  8
0
  6
CONTINUOUS
 10
7.566680
 20
1.013320
  0
VERTEX
  8
0
  6
CONTINUOUS
 10
7.687240
 20
1.013320
  0
VERTEX
  8
0
  6
CONTINUOUS
 10
7.687240
 20
0.897160
  0
VERTEX
  8
0
  6
CONTINUOUS
 10
6.003800
 20
0.897160
  0
VERTEX
  8
0
  6
CONTINUOUS
 10
6.003800
 20
1.049840
  0
VERTEX
  8
0
  6
CONTINUOUS
 10
6.169240
 20
1.049840
  0
VERTEX
  8
0
  6
CONTINUOUS
 10
6.169680
 20
1.050720
  0
SEQEND
  8
0
  0
TEXT
  8
0
 10
6.546320
 20
0.697840
 40
0.138118
  1
BA  467
 41
1.000000
  7
SN0
 71
     0
 72
     5
 11
7.136601
 21
0.697840
  0
TEXT
  8
0
 10
6.298160
 20
0.506000
 40
0.138118
  1
3/8" x 1-11/16"
 41
1.000000
  7
SN0
 71
     0
 72
     5
 11
7.383511
 21
0.506000
  0
ENDSEC
  0
EOF
