  0
SECTION
  2
HEADER
  9
$ACADVER
  1
AC1006
  9
$EXTMIN
 10
5.388680
 20
0.343640
  9
$EXTMAX
 10
7.925280
 20
2.428360
  9
$LTSCALE
 40
0.044000
  9
$PDMODE
 70
    35
  9
$PDSIZE
 40
0.035200
  0
ENDSEC
  0
SECTION
  2
TABLES
  0
TABLE
  2
LTYPE
 70
     9
  0
LTYPE
  2
CONTINUOUS
 70
    64
  3
Solid line
 72
    65
 73
     0
 40
0.000000
  0
LTYPE
  2
DASHED
 70
    64
  3
__ __ __ __ __ __ __ __ __ __ __ __ __ __ __
 72
    65
 73
     2
 40
0.000330
 49
0.000220
 49
-0.000110
  0
LTYPE
  2
HIDDEN
 70
    64
  3
 _ _ _ _ _ _ _ _ _ _ _ _ _ _ _ _ _ _ _ _ _ _
 72
    65
 73
     2
 40
0.000165
 49
0.000110
 49
-0.000055
  0
LTYPE
  2
CENTER
 70
    64
  3
____ _ ____ _ ____ _ ____ _ ____ _ ____ _ ____
 72
    65
 73
     4
 40
0.000880
 49
0.000550
 49
-0.000110
 49
0.000110
 49
-0.000110
  0
LTYPE
  2
PHANTOM
 70
    64
  3
_____ _ _ _____ _ _ _____ _ _ _____ _ _ ____
 72
    65
 73
     6
 40
0.001100
 49
0.000550
 49
-0.000110
 49
0.000110
 49
-0.000110
 49
0.000110
 49
-0.000110
  0
LTYPE
  2
DOT
 70
    64
  3
...............................................
 72
    65
 73
     2
 40
0.000110
 49
0.000000
 49
-0.000110
  0
LTYPE
  2
DASHDOT
 70
    64
  3
__ . __ . __ . __ . __ . __ . __ . __ . __ . __
 72
    65
 73
     4
 40
0.000440
 49
0.000220
 49
-0.000110
 49
0.000000
 49
-0.000110
  0
LTYPE
  2
BORDER
 70
    64
  3
__ __ . __ __ . __ __ . __ __ . __ __ . __ __
 72
    65
 73
     6
 40
0.000770
 49
0.000220
 49
-0.000110
 49
0.000220
 49
-0.000110
 49
0.000000
 49
-0.000110
  0
LTYPE
  2
DIVIDE
 70
    64
  3
__ . . __ . . __ . . __ . . __ . . __ . . __
 72
    65
 73
     6
 40
0.000550
 49
0.000220
 49
-0.000110
 49
0.000000
 49
-0.000110
 49
0.000000
 49
-0.000110
  0
LTYPE
  2
DOTDOT
 70
    64
  3
 . .  . .  . .  . .  . .  . . 
 72
    65
 73
     5
 40
0.000242
 49
-0.000110
 49
0.000000
 49
-0.000110
 49
0.000000
 49
-0.000110
  0
ENDTAB
  0
TABLE
  2
STYLE
 70
     2
  0
STYLE
 70
     0
  2
SN0
 40
0.000000
 41
0.000440
 50
0.000000
 71
     0
 42
0.000000
  3
ROMAND
  0
STYLE
 70
    68
  2
SV0
 40
0.000000
 41
0.000440
 50
0.000000
 71
     0
 42
0.000000
  3
ROMAND
  0
ENDTAB
  0
TABLE
  2
LAYER
 70
     3
  0
LAYER
  2
FOREGROUND
 70
    64
 62
     7
  6
CONTINUOUS
  0
LAYER
  2
BACKGROUND
 70
    65
 62
    -7
  6
CONTINUOUS
  0
LAYER
  2
0
 70
    64
 62
     7
  6
CONTINUOUS
  0
ENDTAB
  0
ENDSEC
  0
SECTION
  2
ENTITIES
  0
POLYLINE
  8
FOREGROUND
  6
CONTINUOUS
 66
     1
 40
0.000000
 41
0.000000
  0
VERTEX
  8
FOREGROUND
  6
CONTINUOUS
 10
0.000000
 20
2.772000
  0
VERTEX
  8
FOREGROUND
  6
CONTINUOUS
 10
8.499920
 20
2.772000
  0
VERTEX
  8
FOREGROUND
  6
CONTINUOUS
 10
8.499920
 20
-8.228000
  0
VERTEX
  8
FOREGROUND
  6
CONTINUOUS
 10
0.000000
 20
-8.228000
  0
VERTEX
  8
FOREGROUND
  6
CONTINUOUS
 10
0.000000
 20
2.772000
  0
SEQEND
  8
0
  0
POLYLINE
  8
FOREGROUND
  6
CONTINUOUS
 66
     1
 40
0.000000
 41
0.000000
  0
VERTEX
  8
FOREGROUND
  6
CONTINUOUS
 10
0.000000
 20
2.772000
  0
VERTEX
  8
FOREGROUND
  6
CONTINUOUS
 10
8.499920
 20
2.772000
  0
VERTEX
  8
FOREGROUND
  6
CONTINUOUS
 10
8.499920
 20
-8.228000
  0
VERTEX
  8
FOREGROUND
  6
CONTINUOUS
 10
0.000000
 20
-8.228000
  0
VERTEX
  8
FOREGROUND
  6
CONTINUOUS
 10
0.000000
 20
2.772000
  0
SEQEND
  8
0
  0
POLYLINE
  8
0
  6
CONTINUOUS
 66
     1
 40
0.014080
 41
0.014080
  0
VERTEX
  8
0
  6
CONTINUOUS
 10
7.295200
 20
2.366320
  0
VERTEX
  8
0
  6
CONTINUOUS
 10
7.295200
 20
1.111000
  0
VERTEX
  8
0
  6
CONTINUOUS
 10
7.817480
 20
1.111000
  0
VERTEX
  8
0
  6
CONTINUOUS
 10
7.817480
 20
1.227160
  0
VERTEX
  8
0
  6
CONTINUOUS
 10
7.846520
 20
1.239920
  0
VERTEX
  8
0
  6
CONTINUOUS
 10
7.868080
 20
1.253120
  0
VERTEX
  8
0
  6
CONTINUOUS
 10
7.885680
 20
1.269400
  0
VERTEX
  8
0
  6
CONTINUOUS
 10
7.899760
 20
1.287880
  0
VERTEX
  8
0
  6
CONTINUOUS
 10
7.909440
 20
1.309000
  0
VERTEX
  8
0
  6
CONTINUOUS
 10
7.915600
 20
1.332320
  0
VERTEX
  8
0
  6
CONTINUOUS
 10
7.917800
 20
1.357840
  0
VERTEX
  8
0
  6
CONTINUOUS
 10
7.916480
 20
1.385560
  0
VERTEX
  8
0
  6
CONTINUOUS
 10
7.907240
 20
1.430440
  0
VERTEX
  8
0
  6
CONTINUOUS
 10
7.889640
 20
1.479280
  0
VERTEX
  8
0
  6
CONTINUOUS
 10
7.863680
 20
1.531640
  0
VERTEX
  8
0
  6
CONTINUOUS
 10
7.829360
 20
1.587080
  0
VERTEX
  8
0
  6
CONTINUOUS
 10
7.786680
 20
1.645600
  0
VERTEX
  8
0
  6
CONTINUOUS
 10
7.712760
 20
1.739320
  0
VERTEX
  8
0
  6
CONTINUOUS
 10
7.659520
 20
1.815880
  0
VERTEX
  8
0
  6
CONTINUOUS
 10
7.621680
 20
1.880120
  0
VERTEX
  8
0
  6
CONTINUOUS
 10
7.590000
 20
1.948320
  0
VERTEX
  8
0
  6
CONTINUOUS
 10
7.524440
 20
2.117720
  0
VERTEX
  8
0
  6
CONTINUOUS
 10
7.510360
 20
2.168320
  0
VERTEX
  8
0
  6
CONTINUOUS
 10
7.494960
 20
2.235200
  0
VERTEX
  8
0
  6
CONTINUOUS
 10
7.489240
 20
2.254560
  0
VERTEX
  8
0
  6
CONTINUOUS
 10
7.477800
 20
2.281400
  0
VERTEX
  8
0
  6
CONTINUOUS
 10
7.461080
 20
2.305160
  0
VERTEX
  8
0
  6
CONTINUOUS
 10
7.437760
 20
2.325840
  0
VERTEX
  8
0
  6
CONTINUOUS
 10
7.417080
 20
2.337720
  0
VERTEX
  8
0
  6
CONTINUOUS
 10
7.377920
 20
2.352240
  0
VERTEX
  8
0
  6
CONTINUOUS
 10
7.344920
 20
2.360160
  0
VERTEX
  8
0
  6
CONTINUOUS
 10
7.305760
 20
2.366320
  0
VERTEX
  8
0
  6
CONTINUOUS
 10
7.295200
 20
2.366320
  0
SEQEND
  8
0
  0
SOLID
  8
0
 62
     7
 10
5.783360
 20
1.453320
 11
6.429720
 21
1.833040
 12
5.807120
 22
1.420760
 13
6.453040
 23
1.800920
  0
POLYLINE
  8
0
  6
CONTINUOUS
 66
     1
 40
0.000000
 41
0.000000
  0
VERTEX
  8
0
  6
CONTINUOUS
 10
5.783360
 20
1.453320
  0
VERTEX
  8
0
  6
CONTINUOUS
 10
6.429720
 20
1.833040
  0
VERTEX
  8
0
  6
CONTINUOUS
 10
6.453040
 20
1.800920
  0
VERTEX
  8
0
  6
CONTINUOUS
 10
5.807120
 20
1.420760
  0
VERTEX
  8
0
  6
CONTINUOUS
 10
5.783360
 20
1.453320
  0
SEQEND
  8
0
  0
SOLID
  8
0
 62
    15
 10
5.439280
 20
2.042040
 11
6.085200
 21
2.421760
 12
5.472280
 22
2.034120
 13
6.118200
 23
2.413840
  0
POLYLINE
  8
0
  6
CONTINUOUS
 66
     1
 40
0.000000
 41
0.000000
  0
VERTEX
  8
0
  6
CONTINUOUS
 10
5.439280
 20
2.042040
  0
VERTEX
  8
0
  6
CONTINUOUS
 10
6.085200
 20
2.421760
  0
VERTEX
  8
0
  6
CONTINUOUS
 10
6.118200
 20
2.413840
  0
VERTEX
  8
0
  6
CONTINUOUS
 10
5.472280
 20
2.034120
  0
VERTEX
  8
0
  6
CONTINUOUS
 10
5.439280
 20
2.042040
  0
SEQEND
  8
0
  0
SOLID
  8
0
 62
    15
 10
5.472280
 20
2.034120
 11
6.118200
 21
2.413840
 12
5.499560
 22
2.024440
 13
6.145920
 23
2.404160
  0
POLYLINE
  8
0
  6
CONTINUOUS
 66
     1
 40
0.000000
 41
0.000000
  0
VERTEX
  8
0
  6
CONTINUOUS
 10
5.472280
 20
2.034120
  0
VERTEX
  8
0
  6
CONTINUOUS
 10
6.118200
 20
2.413840
  0
VERTEX
  8
0
  6
CONTINUOUS
 10
6.145920
 20
2.404160
  0
VERTEX
  8
0
  6
CONTINUOUS
 10
5.499560
 20
2.024440
  0
VERTEX
  8
0
  6
CONTINUOUS
 10
5.472280
 20
2.034120
  0
SEQEND
  8
0
  0
SOLID
  8
0
 62
    15
 10
5.499560
 20
2.024440
 11
6.145920
 21
2.404160
 12
5.522440
 22
2.013440
 13
6.168360
 23
2.393160
  0
POLYLINE
  8
0
  6
CONTINUOUS
 66
     1
 40
0.000000
 41
0.000000
  0
VERTEX
  8
0
  6
CONTINUOUS
 10
5.499560
 20
2.024440
  0
VERTEX
  8
0
  6
CONTINUOUS
 10
6.145920
 20
2.404160
  0
VERTEX
  8
0
  6
CONTINUOUS
 10
6.168360
 20
2.393160
  0
VERTEX
  8
0
  6
CONTINUOUS
 10
5.522440
 20
2.013440
  0
VERTEX
  8
0
  6
CONTINUOUS
 10
5.499560
 20
2.024440
  0
SEQEND
  8
0
  0
SOLID
  8
0
 62
    15
 10
5.522440
 20
2.013440
 11
6.168360
 21
2.393160
 12
5.540920
 22
2.001120
 13
6.186840
 23
2.380840
  0
POLYLINE
  8
0
  6
CONTINUOUS
 66
     1
 40
0.000000
 41
0.000000
  0
VERTEX
  8
0
  6
CONTINUOUS
 10
5.522440
 20
2.013440
  0
VERTEX
  8
0
  6
CONTINUOUS
 10
6.168360
 20
2.393160
  0
VERTEX
  8
0
  6
CONTINUOUS
 10
6.186840
 20
2.380840
  0
VERTEX
  8
0
  6
CONTINUOUS
 10
5.540920
 20
2.001120
  0
VERTEX
  8
0
  6
CONTINUOUS
 10
5.522440
 20
2.013440
  0
SEQEND
  8
0
  0
SOLID
  8
0
 62
     7
 10
5.540920
 20
2.001120
 11
6.186840
 21
2.380840
 12
5.555440
 22
1.987040
 13
6.201800
 23
2.366760
  0
POLYLINE
  8
0
  6
CONTINUOUS
 66
     1
 40
0.000000
 41
0.000000
  0
VERTEX
  8
0
  6
CONTINUOUS
 10
5.540920
 20
2.001120
  0
VERTEX
  8
0
  6
CONTINUOUS
 10
6.186840
 20
2.380840
  0
VERTEX
  8
0
  6
CONTINUOUS
 10
6.201800
 20
2.366760
  0
VERTEX
  8
0
  6
CONTINUOUS
 10
5.555440
 20
1.987040
  0
VERTEX
  8
0
  6
CONTINUOUS
 10
5.540920
 20
2.001120
  0
SEQEND
  8
0
  0
SOLID
  8
0
 62
     7
 10
5.555440
 20
1.987040
 11
6.201800
 21
2.366760
 12
5.567320
 22
1.971640
 13
6.213240
 23
2.351360
  0
POLYLINE
  8
0
  6
CONTINUOUS
 66
     1
 40
0.000000
 41
0.000000
  0
VERTEX
  8
0
  6
CONTINUOUS
 10
5.555440
 20
1.987040
  0
VERTEX
  8
0
  6
CONTINUOUS
 10
6.201800
 20
2.366760
  0
VERTEX
  8
0
  6
CONTINUOUS
 10
6.213240
 20
2.351360
  0
VERTEX
  8
0
  6
CONTINUOUS
 10
5.567320
 20
1.971640
  0
VERTEX
  8
0
  6
CONTINUOUS
 10
5.555440
 20
1.987040
  0
SEQEND
  8
0
  0
SOLID
  8
0
 62
     7
 10
5.567320
 20
1.971640
 11
6.213240
 21
2.351360
 12
5.576120
 22
1.954480
 13
6.222480
 23
2.334200
  0
POLYLINE
  8
0
  6
CONTINUOUS
 66
     1
 40
0.000000
 41
0.000000
  0
VERTEX
  8
0
  6
CONTINUOUS
 10
5.567320
 20
1.971640
  0
VERTEX
  8
0
  6
CONTINUOUS
 10
6.213240
 20
2.351360
  0
VERTEX
  8
0
  6
CONTINUOUS
 10
6.222480
 20
2.334200
  0
VERTEX
  8
0
  6
CONTINUOUS
 10
5.576120
 20
1.954480
  0
VERTEX
  8
0
  6
CONTINUOUS
 10
5.567320
 20
1.971640
  0
SEQEND
  8
0
  0
SOLID
  8
0
 62
     7
 10
5.576120
 20
1.954480
 11
6.222480
 21
2.334200
 12
5.589320
 22
1.916640
 13
6.235240
 23
2.296360
  0
POLYLINE
  8
0
  6
CONTINUOUS
 66
     1
 40
0.000000
 41
0.000000
  0
VERTEX
  8
0
  6
CONTINUOUS
 10
5.576120
 20
1.954480
  0
VERTEX
  8
0
  6
CONTINUOUS
 10
6.222480
 20
2.334200
  0
VERTEX
  8
0
  6
CONTINUOUS
 10
6.235240
 20
2.296360
  0
VERTEX
  8
0
  6
CONTINUOUS
 10
5.589320
 20
1.916640
  0
VERTEX
  8
0
  6
CONTINUOUS
 10
5.576120
 20
1.954480
  0
SEQEND
  8
0
  0
SOLID
  8
0
 62
     7
 10
5.589320
 20
1.916640
 11
6.235240
 21
2.296360
 12
5.594600
 22
1.895960
 13
6.240520
 23
2.275680
  0
POLYLINE
  8
0
  6
CONTINUOUS
 66
     1
 40
0.000000
 41
0.000000
  0
VERTEX
  8
0
  6
CONTINUOUS
 10
5.589320
 20
1.916640
  0
VERTEX
  8
0
  6
CONTINUOUS
 10
6.235240
 20
2.296360
  0
VERTEX
  8
0
  6
CONTINUOUS
 10
6.240520
 20
2.275680
  0
VERTEX
  8
0
  6
CONTINUOUS
 10
5.594600
 20
1.895960
  0
VERTEX
  8
0
  6
CONTINUOUS
 10
5.589320
 20
1.916640
  0
SEQEND
  8
0
  0
SOLID
  8
0
 62
     7
 10
5.594600
 20
1.895960
 11
6.240520
 21
2.275680
 12
5.599440
 22
1.873520
 13
6.245360
 23
2.253240
  0
POLYLINE
  8
0
  6
CONTINUOUS
 66
     1
 40
0.000000
 41
0.000000
  0
VERTEX
  8
0
  6
CONTINUOUS
 10
5.594600
 20
1.895960
  0
VERTEX
  8
0
  6
CONTINUOUS
 10
6.240520
 20
2.275680
  0
VERTEX
  8
0
  6
CONTINUOUS
 10
6.245360
 20
2.253240
  0
VERTEX
  8
0
  6
CONTINUOUS
 10
5.599440
 20
1.873520
  0
VERTEX
  8
0
  6
CONTINUOUS
 10
5.594600
 20
1.895960
  0
SEQEND
  8
0
  0
SOLID
  8
0
 62
     7
 10
5.599440
 20
1.873520
 11
6.245360
 21
2.253240
 12
5.610880
 22
1.825560
 13
6.257240
 23
2.205280
  0
POLYLINE
  8
0
  6
CONTINUOUS
 66
     1
 40
0.000000
 41
0.000000
  0
VERTEX
  8
0
  6
CONTINUOUS
 10
5.599440
 20
1.873520
  0
VERTEX
  8
0
  6
CONTINUOUS
 10
6.245360
 20
2.253240
  0
VERTEX
  8
0
  6
CONTINUOUS
 10
6.257240
 20
2.205280
  0
VERTEX
  8
0
  6
CONTINUOUS
 10
5.610880
 20
1.825560
  0
VERTEX
  8
0
  6
CONTINUOUS
 10
5.599440
 20
1.873520
  0
SEQEND
  8
0
  0
SOLID
  8
0
 62
     7
 10
5.610880
 20
1.825560
 11
6.257240
 21
2.205280
 12
5.628920
 22
1.772760
 13
6.275280
 23
2.152480
  0
POLYLINE
  8
0
  6
CONTINUOUS
 66
     1
 40
0.000000
 41
0.000000
  0
VERTEX
  8
0
  6
CONTINUOUS
 10
5.610880
 20
1.825560
  0
VERTEX
  8
0
  6
CONTINUOUS
 10
6.257240
 20
2.205280
  0
VERTEX
  8
0
  6
CONTINUOUS
 10
6.275280
 20
2.152480
  0
VERTEX
  8
0
  6
CONTINUOUS
 10
5.628920
 20
1.772760
  0
VERTEX
  8
0
  6
CONTINUOUS
 10
5.610880
 20
1.825560
  0
SEQEND
  8
0
  0
SOLID
  8
0
 62
     7
 10
5.628920
 20
1.772760
 11
6.275280
 21
2.152480
 12
5.649600
 22
1.721280
 13
6.295520
 23
2.101000
  0
POLYLINE
  8
0
  6
CONTINUOUS
 66
     1
 40
0.000000
 41
0.000000
  0
VERTEX
  8
0
  6
CONTINUOUS
 10
5.628920
 20
1.772760
  0
VERTEX
  8
0
  6
CONTINUOUS
 10
6.275280
 20
2.152480
  0
VERTEX
  8
0
  6
CONTINUOUS
 10
6.295520
 20
2.101000
  0
VERTEX
  8
0
  6
CONTINUOUS
 10
5.649600
 20
1.721280
  0
VERTEX
  8
0
  6
CONTINUOUS
 10
5.628920
 20
1.772760
  0
SEQEND
  8
0
  0
SOLID
  8
0
 62
     7
 10
5.649600
 20
1.721280
 11
6.295520
 21
2.101000
 12
5.666760
 22
1.674640
 13
6.313120
 23
2.054360
  0
POLYLINE
  8
0
  6
CONTINUOUS
 66
     1
 40
0.000000
 41
0.000000
  0
VERTEX
  8
0
  6
CONTINUOUS
 10
5.649600
 20
1.721280
  0
VERTEX
  8
0
  6
CONTINUOUS
 10
6.295520
 20
2.101000
  0
VERTEX
  8
0
  6
CONTINUOUS
 10
6.313120
 20
2.054360
  0
VERTEX
  8
0
  6
CONTINUOUS
 10
5.666760
 20
1.674640
  0
VERTEX
  8
0
  6
CONTINUOUS
 10
5.649600
 20
1.721280
  0
SEQEND
  8
0
  0
SOLID
  8
0
 62
     7
 10
5.666760
 20
1.674640
 11
6.313120
 21
2.054360
 12
5.704160
 22
1.585320
 13
6.350080
 23
1.965040
  0
POLYLINE
  8
0
  6
CONTINUOUS
 66
     1
 40
0.000000
 41
0.000000
  0
VERTEX
  8
0
  6
CONTINUOUS
 10
5.666760
 20
1.674640
  0
VERTEX
  8
0
  6
CONTINUOUS
 10
6.313120
 20
2.054360
  0
VERTEX
  8
0
  6
CONTINUOUS
 10
6.350080
 20
1.965040
  0
VERTEX
  8
0
  6
CONTINUOUS
 10
5.704160
 20
1.585320
  0
VERTEX
  8
0
  6
CONTINUOUS
 10
5.666760
 20
1.674640
  0
SEQEND
  8
0
  0
SOLID
  8
0
 62
     7
 10
5.704160
 20
1.585320
 11
6.350080
 21
1.965040
 12
5.729240
 22
1.537360
 13
6.375600
 23
1.917080
  0
POLYLINE
  8
0
  6
CONTINUOUS
 66
     1
 40
0.000000
 41
0.000000
  0
VERTEX
  8
0
  6
CONTINUOUS
 10
5.704160
 20
1.585320
  0
VERTEX
  8
0
  6
CONTINUOUS
 10
6.350080
 20
1.965040
  0
VERTEX
  8
0
  6
CONTINUOUS
 10
6.375600
 20
1.917080
  0
VERTEX
  8
0
  6
CONTINUOUS
 10
5.729240
 20
1.537360
  0
VERTEX
  8
0
  6
CONTINUOUS
 10
5.704160
 20
1.585320
  0
SEQEND
  8
0
  0
SOLID
  8
0
 62
     7
 10
5.729240
 20
1.537360
 11
6.375600
 21
1.917080
 12
5.745080
 22
1.511400
 13
6.391000
 23
1.891120
  0
POLYLINE
  8
0
  6
CONTINUOUS
 66
     1
 40
0.000000
 41
0.000000
  0
VERTEX
  8
0
  6
CONTINUOUS
 10
5.729240
 20
1.537360
  0
VERTEX
  8
0
  6
CONTINUOUS
 10
6.375600
 20
1.917080
  0
VERTEX
  8
0
  6
CONTINUOUS
 10
6.391000
 20
1.891120
  0
VERTEX
  8
0
  6
CONTINUOUS
 10
5.745080
 20
1.511400
  0
VERTEX
  8
0
  6
CONTINUOUS
 10
5.729240
 20
1.537360
  0
SEQEND
  8
0
  0
SOLID
  8
0
 62
     7
 10
5.745080
 20
1.511400
 11
6.391000
 21
1.891120
 12
5.762680
 22
1.483240
 13
6.409040
 23
1.863400
  0
POLYLINE
  8
0
  6
CONTINUOUS
 66
     1
 40
0.000000
 41
0.000000
  0
VERTEX
  8
0
  6
CONTINUOUS
 10
5.745080
 20
1.511400
  0
VERTEX
  8
0
  6
CONTINUOUS
 10
6.391000
 20
1.891120
  0
VERTEX
  8
0
  6
CONTINUOUS
 10
6.409040
 20
1.863400
  0
VERTEX
  8
0
  6
CONTINUOUS
 10
5.762680
 20
1.483240
  0
VERTEX
  8
0
  6
CONTINUOUS
 10
5.745080
 20
1.511400
  0
SEQEND
  8
0
  0
SOLID
  8
0
 62
     7
 10
5.762680
 20
1.483240
 11
6.409040
 21
1.863400
 12
5.783360
 22
1.453320
 13
6.429720
 23
1.833040
  0
POLYLINE
  8
0
  6
CONTINUOUS
 66
     1
 40
0.000000
 41
0.000000
  0
VERTEX
  8
0
  6
CONTINUOUS
 10
5.762680
 20
1.483240
  0
VERTEX
  8
0
  6
CONTINUOUS
 10
6.409040
 20
1.863400
  0
VERTEX
  8
0
  6
CONTINUOUS
 10
6.429720
 20
1.833040
  0
VERTEX
  8
0
  6
CONTINUOUS
 10
5.783360
 20
1.453320
  0
VERTEX
  8
0
  6
CONTINUOUS
 10
5.762680
 20
1.483240
  0
SEQEND
  8
0
  0
SOLID
  8
0
 62
    15
 10
5.400120
 20
2.048200
 11
6.046040
 21
2.427920
 12
5.439280
 22
2.042040
 13
6.085200
 23
2.421760
  0
POLYLINE
  8
0
  6
CONTINUOUS
 66
     1
 40
0.000000
 41
0.000000
  0
VERTEX
  8
0
  6
CONTINUOUS
 10
5.400120
 20
2.048200
  0
VERTEX
  8
0
  6
CONTINUOUS
 10
6.046040
 20
2.427920
  0
VERTEX
  8
0
  6
CONTINUOUS
 10
6.085200
 20
2.421760
  0
VERTEX
  8
0
  6
CONTINUOUS
 10
5.439280
 20
2.042040
  0
VERTEX
  8
0
  6
CONTINUOUS
 10
5.400120
 20
2.048200
  0
SEQEND
  8
0
  0
SOLID
  8
0
 62
     7
 10
5.807120
 20
1.420760
 11
6.453040
 21
1.800920
 12
5.834400
 22
1.385560
 13
6.480320
 23
1.765280
  0
POLYLINE
  8
0
  6
CONTINUOUS
 66
     1
 40
0.000000
 41
0.000000
  0
VERTEX
  8
0
  6
CONTINUOUS
 10
5.807120
 20
1.420760
  0
VERTEX
  8
0
  6
CONTINUOUS
 10
6.453040
 20
1.800920
  0
VERTEX
  8
0
  6
CONTINUOUS
 10
6.480320
 20
1.765280
  0
VERTEX
  8
0
  6
CONTINUOUS
 10
5.834400
 20
1.385560
  0
VERTEX
  8
0
  6
CONTINUOUS
 10
5.807120
 20
1.420760
  0
SEQEND
  8
0
  0
SOLID
  8
0
 62
     7
 10
5.834400
 20
1.385560
 11
6.480320
 21
1.765280
 12
5.865200
 22
1.346840
 13
6.511120
 23
1.727000
  0
POLYLINE
  8
0
  6
CONTINUOUS
 66
     1
 40
0.000000
 41
0.000000
  0
VERTEX
  8
0
  6
CONTINUOUS
 10
5.834400
 20
1.385560
  0
VERTEX
  8
0
  6
CONTINUOUS
 10
6.480320
 20
1.765280
  0
VERTEX
  8
0
  6
CONTINUOUS
 10
6.511120
 20
1.727000
  0
VERTEX
  8
0
  6
CONTINUOUS
 10
5.865200
 20
1.346840
  0
VERTEX
  8
0
  6
CONTINUOUS
 10
5.834400
 20
1.385560
  0
SEQEND
  8
0
  0
SOLID
  8
0
 62
     7
 10
5.865200
 20
1.346840
 11
6.511120
 21
1.727000
 12
5.896000
 22
1.307240
 13
6.542360
 23
1.686960
  0
POLYLINE
  8
0
  6
CONTINUOUS
 66
     1
 40
0.000000
 41
0.000000
  0
VERTEX
  8
0
  6
CONTINUOUS
 10
5.865200
 20
1.346840
  0
VERTEX
  8
0
  6
CONTINUOUS
 10
6.511120
 20
1.727000
  0
VERTEX
  8
0
  6
CONTINUOUS
 10
6.542360
 20
1.686960
  0
VERTEX
  8
0
  6
CONTINUOUS
 10
5.896000
 20
1.307240
  0
VERTEX
  8
0
  6
CONTINUOUS
 10
5.865200
 20
1.346840
  0
SEQEND
  8
0
  0
SOLID
  8
0
 62
     7
 10
5.896000
 20
1.307240
 11
6.542360
 21
1.686960
 12
5.923720
 22
1.268520
 13
6.569640
 23
1.648680
  0
POLYLINE
  8
0
  6
CONTINUOUS
 66
     1
 40
0.000000
 41
0.000000
  0
VERTEX
  8
0
  6
CONTINUOUS
 10
5.896000
 20
1.307240
  0
VERTEX
  8
0
  6
CONTINUOUS
 10
6.542360
 20
1.686960
  0
VERTEX
  8
0
  6
CONTINUOUS
 10
6.569640
 20
1.648680
  0
VERTEX
  8
0
  6
CONTINUOUS
 10
5.923720
 20
1.268520
  0
VERTEX
  8
0
  6
CONTINUOUS
 10
5.896000
 20
1.307240
  0
SEQEND
  8
0
  0
SOLID
  8
0
 62
     7
 10
5.923720
 20
1.268520
 11
6.569640
 21
1.648680
 12
5.947480
 22
1.231560
 13
6.593400
 23
1.611280
  0
POLYLINE
  8
0
  6
CONTINUOUS
 66
     1
 40
0.000000
 41
0.000000
  0
VERTEX
  8
0
  6
CONTINUOUS
 10
5.923720
 20
1.268520
  0
VERTEX
  8
0
  6
CONTINUOUS
 10
6.569640
 20
1.648680
  0
VERTEX
  8
0
  6
CONTINUOUS
 10
6.593400
 20
1.611280
  0
VERTEX
  8
0
  6
CONTINUOUS
 10
5.947480
 20
1.231560
  0
VERTEX
  8
0
  6
CONTINUOUS
 10
5.923720
 20
1.268520
  0
SEQEND
  8
0
  0
SOLID
  8
0
 62
     7
 10
5.947480
 20
1.231560
 11
6.593400
 21
1.611280
 12
5.967720
 22
1.195480
 13
6.613640
 23
1.575200
  0
POLYLINE
  8
0
  6
CONTINUOUS
 66
     1
 40
0.000000
 41
0.000000
  0
VERTEX
  8
0
  6
CONTINUOUS
 10
5.947480
 20
1.231560
  0
VERTEX
  8
0
  6
CONTINUOUS
 10
6.593400
 20
1.611280
  0
VERTEX
  8
0
  6
CONTINUOUS
 10
6.613640
 20
1.575200
  0
VERTEX
  8
0
  6
CONTINUOUS
 10
5.967720
 20
1.195480
  0
VERTEX
  8
0
  6
CONTINUOUS
 10
5.947480
 20
1.231560
  0
SEQEND
  8
0
  0
SOLID
  8
0
 62
     7
 10
5.967720
 20
1.195480
 11
6.613640
 21
1.575200
 12
5.984000
 22
1.160720
 13
6.629920
 23
1.540440
  0
POLYLINE
  8
0
  6
CONTINUOUS
 66
     1
 40
0.000000
 41
0.000000
  0
VERTEX
  8
0
  6
CONTINUOUS
 10
5.967720
 20
1.195480
  0
VERTEX
  8
0
  6
CONTINUOUS
 10
6.613640
 20
1.575200
  0
VERTEX
  8
0
  6
CONTINUOUS
 10
6.629920
 20
1.540440
  0
VERTEX
  8
0
  6
CONTINUOUS
 10
5.984000
 20
1.160720
  0
VERTEX
  8
0
  6
CONTINUOUS
 10
5.967720
 20
1.195480
  0
SEQEND
  8
0
  0
SOLID
  8
0
 62
     7
 10
5.984000
 20
1.160720
 11
6.629920
 21
1.540440
 12
5.996760
 22
1.127720
 13
6.642680
 23
1.507440
  0
POLYLINE
  8
0
  6
CONTINUOUS
 66
     1
 40
0.000000
 41
0.000000
  0
VERTEX
  8
0
  6
CONTINUOUS
 10
5.984000
 20
1.160720
  0
VERTEX
  8
0
  6
CONTINUOUS
 10
6.629920
 20
1.540440
  0
VERTEX
  8
0
  6
CONTINUOUS
 10
6.642680
 20
1.507440
  0
VERTEX
  8
0
  6
CONTINUOUS
 10
5.996760
 20
1.127720
  0
VERTEX
  8
0
  6
CONTINUOUS
 10
5.984000
 20
1.160720
  0
SEQEND
  8
0
  0
SOLID
  8
0
 62
     7
 10
5.996760
 20
1.127720
 11
6.642680
 21
1.507440
 12
6.005560
 22
1.096480
 13
6.651480
 23
1.476200
  0
POLYLINE
  8
0
  6
CONTINUOUS
 66
     1
 40
0.000000
 41
0.000000
  0
VERTEX
  8
0
  6
CONTINUOUS
 10
5.996760
 20
1.127720
  0
VERTEX
  8
0
  6
CONTINUOUS
 10
6.642680
 20
1.507440
  0
VERTEX
  8
0
  6
CONTINUOUS
 10
6.651480
 20
1.476200
  0
VERTEX
  8
0
  6
CONTINUOUS
 10
6.005560
 20
1.096480
  0
VERTEX
  8
0
  6
CONTINUOUS
 10
5.996760
 20
1.127720
  0
SEQEND
  8
0
  0
SOLID
  8
0
 62
    15
 10
6.005560
 20
1.096480
 11
6.651480
 21
1.476200
 12
6.010840
 22
1.067000
 13
6.656760
 23
1.446720
  0
POLYLINE
  8
0
  6
CONTINUOUS
 66
     1
 40
0.000000
 41
0.000000
  0
VERTEX
  8
0
  6
CONTINUOUS
 10
6.005560
 20
1.096480
  0
VERTEX
  8
0
  6
CONTINUOUS
 10
6.651480
 20
1.476200
  0
VERTEX
  8
0
  6
CONTINUOUS
 10
6.656760
 20
1.446720
  0
VERTEX
  8
0
  6
CONTINUOUS
 10
6.010840
 20
1.067000
  0
VERTEX
  8
0
  6
CONTINUOUS
 10
6.005560
 20
1.096480
  0
SEQEND
  8
0
  0
SOLID
  8
0
 62
    15
 10
6.010840
 20
1.067000
 11
6.656760
 21
1.446720
 12
6.012160
 22
1.039720
 13
6.658520
 23
1.419440
  0
POLYLINE
  8
0
  6
CONTINUOUS
 66
     1
 40
0.000000
 41
0.000000
  0
VERTEX
  8
0
  6
CONTINUOUS
 10
6.010840
 20
1.067000
  0
VERTEX
  8
0
  6
CONTINUOUS
 10
6.656760
 20
1.446720
  0
VERTEX
  8
0
  6
CONTINUOUS
 10
6.658520
 20
1.419440
  0
VERTEX
  8
0
  6
CONTINUOUS
 10
6.012160
 20
1.039720
  0
VERTEX
  8
0
  6
CONTINUOUS
 10
6.010840
 20
1.067000
  0
SEQEND
  8
0
  0
SOLID
  8
0
 62
    15
 10
6.012160
 20
1.039720
 11
6.658520
 21
1.419440
 12
6.009960
 22
1.014200
 13
6.655880
 23
1.393920
  0
POLYLINE
  8
0
  6
CONTINUOUS
 66
     1
 40
0.000000
 41
0.000000
  0
VERTEX
  8
0
  6
CONTINUOUS
 10
6.012160
 20
1.039720
  0
VERTEX
  8
0
  6
CONTINUOUS
 10
6.658520
 20
1.419440
  0
VERTEX
  8
0
  6
CONTINUOUS
 10
6.655880
 20
1.393920
  0
VERTEX
  8
0
  6
CONTINUOUS
 10
6.009960
 20
1.014200
  0
VERTEX
  8
0
  6
CONTINUOUS
 10
6.012160
 20
1.039720
  0
SEQEND
  8
0
  0
SOLID
  8
0
 62
    15
 10
6.009960
 20
1.014200
 11
6.655880
 21
1.393920
 12
6.003800
 22
0.990880
 13
6.649720
 23
1.370600
  0
POLYLINE
  8
0
  6
CONTINUOUS
 66
     1
 40
0.000000
 41
0.000000
  0
VERTEX
  8
0
  6
CONTINUOUS
 10
6.009960
 20
1.014200
  0
VERTEX
  8
0
  6
CONTINUOUS
 10
6.655880
 20
1.393920
  0
VERTEX
  8
0
  6
CONTINUOUS
 10
6.649720
 20
1.370600
  0
VERTEX
  8
0
  6
CONTINUOUS
 10
6.003800
 20
0.990880
  0
VERTEX
  8
0
  6
CONTINUOUS
 10
6.009960
 20
1.014200
  0
SEQEND
  8
0
  0
SOLID
  8
0
 62
    15
 10
6.003800
 20
0.990880
 11
6.649720
 21
1.370600
 12
5.993680
 22
0.969760
 13
6.640040
 23
1.349480
  0
POLYLINE
  8
0
  6
CONTINUOUS
 66
     1
 40
0.000000
 41
0.000000
  0
VERTEX
  8
0
  6
CONTINUOUS
 10
6.003800
 20
0.990880
  0
VERTEX
  8
0
  6
CONTINUOUS
 10
6.649720
 20
1.370600
  0
VERTEX
  8
0
  6
CONTINUOUS
 10
6.640040
 20
1.349480
  0
VERTEX
  8
0
  6
CONTINUOUS
 10
5.993680
 20
0.969760
  0
VERTEX
  8
0
  6
CONTINUOUS
 10
6.003800
 20
0.990880
  0
SEQEND
  8
0
  0
SOLID
  8
0
 62
    15
 10
5.993680
 20
0.969760
 11
6.640040
 21
1.349480
 12
5.980040
 22
0.951280
 13
6.625960
 23
1.331000
  0
POLYLINE
  8
0
  6
CONTINUOUS
 66
     1
 40
0.000000
 41
0.000000
  0
VERTEX
  8
0
  6
CONTINUOUS
 10
5.993680
 20
0.969760
  0
VERTEX
  8
0
  6
CONTINUOUS
 10
6.640040
 20
1.349480
  0
VERTEX
  8
0
  6
CONTINUOUS
 10
6.625960
 20
1.331000
  0
VERTEX
  8
0
  6
CONTINUOUS
 10
5.980040
 20
0.951280
  0
VERTEX
  8
0
  6
CONTINUOUS
 10
5.993680
 20
0.969760
  0
SEQEND
  8
0
  0
SOLID
  8
0
 62
    15
 10
5.911400
 20
0.908600
 11
6.557760
 21
1.288320
 12
5.911400
 22
0.792880
 13
6.557760
 23
1.172600
  0
POLYLINE
  8
0
  6
CONTINUOUS
 66
     1
 40
0.000000
 41
0.000000
  0
VERTEX
  8
0
  6
CONTINUOUS
 10
5.911400
 20
0.908600
  0
VERTEX
  8
0
  6
CONTINUOUS
 10
6.557760
 20
1.288320
  0
VERTEX
  8
0
  6
CONTINUOUS
 10
6.557760
 20
1.172600
  0
VERTEX
  8
0
  6
CONTINUOUS
 10
5.911400
 20
0.792880
  0
VERTEX
  8
0
  6
CONTINUOUS
 10
5.911400
 20
0.908600
  0
SEQEND
  8
0
  0
SOLID
  8
0
 62
     7
 10
5.915360
 20
0.910800
 11
6.561280
 21
1.290520
 12
5.916240
 22
0.910360
 13
6.562600
 23
1.290080
  0
POLYLINE
  8
0
  6
CONTINUOUS
 66
     1
 40
0.000000
 41
0.000000
  0
VERTEX
  8
0
  6
CONTINUOUS
 10
5.915360
 20
0.910800
  0
VERTEX
  8
0
  6
CONTINUOUS
 10
6.561280
 20
1.290520
  0
VERTEX
  8
0
  6
CONTINUOUS
 10
6.562600
 20
1.290080
  0
VERTEX
  8
0
  6
CONTINUOUS
 10
5.916240
 20
0.910360
  0
VERTEX
  8
0
  6
CONTINUOUS
 10
5.915360
 20
0.910800
  0
SEQEND
  8
0
  0
SOLID
  8
0
 62
    15
 10
5.962440
 20
0.935000
 11
6.608360
 21
1.314720
 12
5.940880
 22
0.921360
 13
6.586800
 23
1.301080
  0
POLYLINE
  8
0
  6
CONTINUOUS
 66
     1
 40
0.000000
 41
0.000000
  0
VERTEX
  8
0
  6
CONTINUOUS
 10
5.962440
 20
0.935000
  0
VERTEX
  8
0
  6
CONTINUOUS
 10
6.608360
 20
1.314720
  0
VERTEX
  8
0
  6
CONTINUOUS
 10
6.586800
 20
1.301080
  0
VERTEX
  8
0
  6
CONTINUOUS
 10
5.940880
 20
0.921360
  0
VERTEX
  8
0
  6
CONTINUOUS
 10
5.962440
 20
0.935000
  0
SEQEND
  8
0
  0
SOLID
  8
0
 62
    15
 10
5.980040
 20
0.951280
 11
6.625960
 21
1.331000
 12
5.962440
 22
0.935000
 13
6.608360
 23
1.314720
  0
POLYLINE
  8
0
  6
CONTINUOUS
 66
     1
 40
0.000000
 41
0.000000
  0
VERTEX
  8
0
  6
CONTINUOUS
 10
5.980040
 20
0.951280
  0
VERTEX
  8
0
  6
CONTINUOUS
 10
6.625960
 20
1.331000
  0
VERTEX
  8
0
  6
CONTINUOUS
 10
6.608360
 20
1.314720
  0
VERTEX
  8
0
  6
CONTINUOUS
 10
5.962440
 20
0.935000
  0
VERTEX
  8
0
  6
CONTINUOUS
 10
5.980040
 20
0.951280
  0
SEQEND
  8
0
  0
SOLID
  8
0
 62
    15
 10
5.389560
 20
2.048200
 11
6.035480
 21
2.427920
 12
5.400120
 22
2.048200
 13
6.046040
 23
2.427920
  0
POLYLINE
  8
0
  6
CONTINUOUS
 66
     1
 40
0.000000
 41
0.000000
  0
VERTEX
  8
0
  6
CONTINUOUS
 10
5.389560
 20
2.048200
  0
VERTEX
  8
0
  6
CONTINUOUS
 10
6.035480
 20
2.427920
  0
VERTEX
  8
0
  6
CONTINUOUS
 10
6.046040
 20
2.427920
  0
VERTEX
  8
0
  6
CONTINUOUS
 10
5.400120
 20
2.048200
  0
VERTEX
  8
0
  6
CONTINUOUS
 10
5.389560
 20
2.048200
  0
SEQEND
  8
0
  0
POLYLINE
  8
0
  6
CONTINUOUS
 66
     1
 40
0.000000
 41
0.000000
  0
VERTEX
  8
0
  6
CONTINUOUS
 10
5.400120
 20
2.048200
  0
VERTEX
  8
0
  6
CONTINUOUS
 10
5.439280
 20
2.042040
  0
VERTEX
  8
0
  6
CONTINUOUS
 10
5.472280
 20
2.034120
  0
VERTEX
  8
0
  6
CONTINUOUS
 10
5.499560
 20
2.024440
  0
VERTEX
  8
0
  6
CONTINUOUS
 10
5.522440
 20
2.013440
  0
VERTEX
  8
0
  6
CONTINUOUS
 10
5.540920
 20
2.001120
  0
VERTEX
  8
0
  6
CONTINUOUS
 10
5.555440
 20
1.987040
  0
VERTEX
  8
0
  6
CONTINUOUS
 10
5.567320
 20
1.971640
  0
VERTEX
  8
0
  6
CONTINUOUS
 10
5.576120
 20
1.954480
  0
VERTEX
  8
0
  6
CONTINUOUS
 10
5.589320
 20
1.916640
  0
VERTEX
  8
0
  6
CONTINUOUS
 10
5.594600
 20
1.895960
  0
VERTEX
  8
0
  6
CONTINUOUS
 10
5.599440
 20
1.873520
  0
VERTEX
  8
0
  6
CONTINUOUS
 10
5.610880
 20
1.825560
  0
VERTEX
  8
0
  6
CONTINUOUS
 10
5.628920
 20
1.772760
  0
VERTEX
  8
0
  6
CONTINUOUS
 10
5.649600
 20
1.721280
  0
VERTEX
  8
0
  6
CONTINUOUS
 10
5.666760
 20
1.674640
  0
VERTEX
  8
0
  6
CONTINUOUS
 10
5.704160
 20
1.585320
  0
VERTEX
  8
0
  6
CONTINUOUS
 10
5.729240
 20
1.537360
  0
VERTEX
  8
0
  6
CONTINUOUS
 10
5.745080
 20
1.511400
  0
VERTEX
  8
0
  6
CONTINUOUS
 10
5.762680
 20
1.483240
  0
VERTEX
  8
0
  6
CONTINUOUS
 10
5.783360
 20
1.453320
  0
VERTEX
  8
0
  6
CONTINUOUS
 10
5.807120
 20
1.420760
  0
VERTEX
  8
0
  6
CONTINUOUS
 10
5.834400
 20
1.385560
  0
VERTEX
  8
0
  6
CONTINUOUS
 10
5.865200
 20
1.346840
  0
VERTEX
  8
0
  6
CONTINUOUS
 10
5.896000
 20
1.307240
  0
VERTEX
  8
0
  6
CONTINUOUS
 10
5.923720
 20
1.268520
  0
VERTEX
  8
0
  6
CONTINUOUS
 10
5.947480
 20
1.231560
  0
VERTEX
  8
0
  6
CONTINUOUS
 10
5.967720
 20
1.195480
  0
VERTEX
  8
0
  6
CONTINUOUS
 10
5.984000
 20
1.160720
  0
VERTEX
  8
0
  6
CONTINUOUS
 10
5.996760
 20
1.127720
  0
VERTEX
  8
0
  6
CONTINUOUS
 10
6.005560
 20
1.096480
  0
VERTEX
  8
0
  6
CONTINUOUS
 10
6.010840
 20
1.067000
  0
VERTEX
  8
0
  6
CONTINUOUS
 10
6.012160
 20
1.039720
  0
VERTEX
  8
0
  6
CONTINUOUS
 10
6.009960
 20
1.014200
  0
VERTEX
  8
0
  6
CONTINUOUS
 10
6.003800
 20
0.990880
  0
VERTEX
  8
0
  6
CONTINUOUS
 10
5.993680
 20
0.969760
  0
VERTEX
  8
0
  6
CONTINUOUS
 10
5.980040
 20
0.951280
  0
VERTEX
  8
0
  6
CONTINUOUS
 10
5.962440
 20
0.935000
  0
VERTEX
  8
0
  6
CONTINUOUS
 10
5.940880
 20
0.921360
  0
VERTEX
  8
0
  6
CONTINUOUS
 10
5.915360
 20
0.910800
  0
VERTEX
  8
0
  6
CONTINUOUS
 10
5.916240
 20
0.910360
  0
VERTEX
  8
0
  6
CONTINUOUS
 10
5.911400
 20
0.908600
  0
VERTEX
  8
0
  6
CONTINUOUS
 10
5.911400
 20
0.792880
  0
VERTEX
  8
0
  6
CONTINUOUS
 10
5.389560
 20
0.792880
  0
VERTEX
  8
0
  6
CONTINUOUS
 10
5.389560
 20
2.048200
  0
VERTEX
  8
0
  6
CONTINUOUS
 10
5.400120
 20
2.048200
  0
SEQEND
  8
0
  0
TEXT
  8
0
 10
5.727040
 20
0.579480
 40
0.138123
  1
BA  466
 41
1.000000
  7
SN0
 71
     0
 72
     5
 11
6.317053
 21
0.579480
  0
TEXT
  8
0
 10
5.571280
 20
0.387640
 40
0.138123
  1
5/8" x 1-1/4"
 41
1.000000
  7
SN0
 71
     0
 72
     5
 11
6.471646
 21
0.387640
  0
ENDSEC
  0
EOF
