  0
SECTION
  2
HEADER
  9
$ACADVER
  1
AC1006
  9
$EXTMIN
 10
5.266360
 20
0.534160
  9
$EXTMAX
 10
7.747520
 20
2.387000
  9
$LTSCALE
 40
0.044000
  9
$PDMODE
 70
    35
  9
$PDSIZE
 40
0.035200
  0
ENDSEC
  0
SECTION
  2
TABLES
  0
TABLE
  2
LTYPE
 70
     9
  0
LTYPE
  2
CONTINUOUS
 70
    64
  3
Solid line
 72
    65
 73
     0
 40
0.000000
  0
LTYPE
  2
DASHED
 70
    64
  3
__ __ __ __ __ __ __ __ __ __ __ __ __ __ __
 72
    65
 73
     2
 40
0.000330
 49
0.000220
 49
-0.000110
  0
LTYPE
  2
HIDDEN
 70
    64
  3
 _ _ _ _ _ _ _ _ _ _ _ _ _ _ _ _ _ _ _ _ _ _
 72
    65
 73
     2
 40
0.000165
 49
0.000110
 49
-0.000055
  0
LTYPE
  2
CENTER
 70
    64
  3
____ _ ____ _ ____ _ ____ _ ____ _ ____ _ ____
 72
    65
 73
     4
 40
0.000880
 49
0.000550
 49
-0.000110
 49
0.000110
 49
-0.000110
  0
LTYPE
  2
PHANTOM
 70
    64
  3
_____ _ _ _____ _ _ _____ _ _ _____ _ _ ____
 72
    65
 73
     6
 40
0.001100
 49
0.000550
 49
-0.000110
 49
0.000110
 49
-0.000110
 49
0.000110
 49
-0.000110
  0
LTYPE
  2
DOT
 70
    64
  3
...............................................
 72
    65
 73
     2
 40
0.000110
 49
0.000000
 49
-0.000110
  0
LTYPE
  2
DASHDOT
 70
    64
  3
__ . __ . __ . __ . __ . __ . __ . __ . __ . __
 72
    65
 73
     4
 40
0.000440
 49
0.000220
 49
-0.000110
 49
0.000000
 49
-0.000110
  0
LTYPE
  2
BORDER
 70
    64
  3
__ __ . __ __ . __ __ . __ __ . __ __ . __ __
 72
    65
 73
     6
 40
0.000770
 49
0.000220
 49
-0.000110
 49
0.000220
 49
-0.000110
 49
0.000000
 49
-0.000110
  0
LTYPE
  2
DIVIDE
 70
    64
  3
__ . . __ . . __ . . __ . . __ . . __ . . __
 72
    65
 73
     6
 40
0.000550
 49
0.000220
 49
-0.000110
 49
0.000000
 49
-0.000110
 49
0.000000
 49
-0.000110
  0
LTYPE
  2
DOTDOT
 70
    64
  3
 . .  . .  . .  . .  . .  . . 
 72
    65
 73
     5
 40
0.000242
 49
-0.000110
 49
0.000000
 49
-0.000110
 49
0.000000
 49
-0.000110
  0
ENDTAB
  0
TABLE
  2
STYLE
 70
     2
  0
STYLE
 70
     0
  2
SN0
 40
0.000000
 41
0.000440
 50
0.000000
 71
     0
 42
0.000000
  3
ROMAND
  0
STYLE
 70
    68
  2
SV0
 40
0.000000
 41
0.000440
 50
0.000000
 71
     0
 42
0.000000
  3
ROMAND
  0
ENDTAB
  0
TABLE
  2
LAYER
 70
     3
  0
LAYER
  2
FOREGROUND
 70
    64
 62
     7
  6
CONTINUOUS
  0
LAYER
  2
BACKGROUND
 70
    65
 62
    -7
  6
CONTINUOUS
  0
LAYER
  2
0
 70
    64
 62
     7
  6
CONTINUOUS
  0
ENDTAB
  0
ENDSEC
  0
SECTION
  2
ENTITIES
  0
POLYLINE
  8
FOREGROUND
  6
CONTINUOUS
 66
     1
 40
0.000000
 41
0.000000
  0
VERTEX
  8
FOREGROUND
  6
CONTINUOUS
 10
0.000000
 20
2.921160
  0
VERTEX
  8
FOREGROUND
  6
CONTINUOUS
 10
8.499920
 20
2.921160
  0
VERTEX
  8
FOREGROUND
  6
CONTINUOUS
 10
8.499920
 20
-8.078840
  0
VERTEX
  8
FOREGROUND
  6
CONTINUOUS
 10
0.000000
 20
-8.078840
  0
VERTEX
  8
FOREGROUND
  6
CONTINUOUS
 10
0.000000
 20
2.921160
  0
SEQEND
  8
0
  0
POLYLINE
  8
FOREGROUND
  6
CONTINUOUS
 66
     1
 40
0.000000
 41
0.000000
  0
VERTEX
  8
FOREGROUND
  6
CONTINUOUS
 10
0.000000
 20
2.921160
  0
VERTEX
  8
FOREGROUND
  6
CONTINUOUS
 10
8.499920
 20
2.921160
  0
VERTEX
  8
FOREGROUND
  6
CONTINUOUS
 10
8.499920
 20
-8.078840
  0
VERTEX
  8
FOREGROUND
  6
CONTINUOUS
 10
0.000000
 20
-8.078840
  0
VERTEX
  8
FOREGROUND
  6
CONTINUOUS
 10
0.000000
 20
2.921160
  0
SEQEND
  8
0
  0
POLYLINE
  8
0
  6
CONTINUOUS
 66
     1
 40
0.014080
 41
0.014080
  0
VERTEX
  8
0
  6
CONTINUOUS
 10
6.768080
 20
2.132680
  0
VERTEX
  8
0
  6
CONTINUOUS
 10
6.780840
 20
2.133120
  0
VERTEX
  8
0
  6
CONTINUOUS
 10
6.804600
 20
2.138400
  0
VERTEX
  8
0
  6
CONTINUOUS
 10
6.827040
 20
2.147640
  0
VERTEX
  8
0
  6
CONTINUOUS
 10
6.846400
 20
2.160840
  0
VERTEX
  8
0
  6
CONTINUOUS
 10
6.863120
 20
2.177560
  0
VERTEX
  8
0
  6
CONTINUOUS
 10
6.876320
 20
2.197360
  0
VERTEX
  8
0
  6
CONTINUOUS
 10
6.885560
 20
2.219800
  0
VERTEX
  8
0
  6
CONTINUOUS
 10
6.890840
 20
2.243560
  0
VERTEX
  8
0
  6
CONTINUOUS
 10
6.890840
 20
2.269080
  0
VERTEX
  8
0
  6
CONTINUOUS
 10
6.885560
 20
2.292840
  0
VERTEX
  8
0
  6
CONTINUOUS
 10
6.876320
 20
2.314840
  0
VERTEX
  8
0
  6
CONTINUOUS
 10
6.863120
 20
2.334640
  0
VERTEX
  8
0
  6
CONTINUOUS
 10
6.846400
 20
2.351360
  0
VERTEX
  8
0
  6
CONTINUOUS
 10
6.827040
 20
2.364560
  0
VERTEX
  8
0
  6
CONTINUOUS
 10
6.804600
 20
2.373800
  0
VERTEX
  8
0
  6
CONTINUOUS
 10
6.780840
 20
2.379080
  0
VERTEX
  8
0
  6
CONTINUOUS
 10
5.384720
 20
2.378200
  0
VERTEX
  8
0
  6
CONTINUOUS
 10
5.360960
 20
2.372920
  0
VERTEX
  8
0
  6
CONTINUOUS
 10
5.338520
 20
2.363680
  0
VERTEX
  8
0
  6
CONTINUOUS
 10
5.319160
 20
2.350480
  0
VERTEX
  8
0
  6
CONTINUOUS
 10
5.302440
 20
2.333760
  0
VERTEX
  8
0
  6
CONTINUOUS
 10
5.289240
 20
2.313960
  0
VERTEX
  8
0
  6
CONTINUOUS
 10
5.280000
 20
2.291960
  0
VERTEX
  8
0
  6
CONTINUOUS
 10
5.274720
 20
2.268200
  0
VERTEX
  8
0
  6
CONTINUOUS
 10
5.274720
 20
2.242680
  0
VERTEX
  8
0
  6
CONTINUOUS
 10
5.280000
 20
2.218920
  0
VERTEX
  8
0
  6
CONTINUOUS
 10
5.289240
 20
2.196480
  0
VERTEX
  8
0
  6
CONTINUOUS
 10
5.302440
 20
2.176680
  0
VERTEX
  8
0
  6
CONTINUOUS
 10
5.319160
 20
2.159960
  0
VERTEX
  8
0
  6
CONTINUOUS
 10
5.338520
 20
2.146760
  0
VERTEX
  8
0
  6
CONTINUOUS
 10
5.360960
 20
2.137520
  0
VERTEX
  8
0
  6
CONTINUOUS
 10
5.384720
 20
2.132240
  0
VERTEX
  8
0
  6
CONTINUOUS
 10
6.762360
 20
2.131800
  0
VERTEX
  8
0
  6
CONTINUOUS
 10
6.768080
 20
2.132680
  0
SEQEND
  8
0
  0
SOLID
  8
0
 62
    15
 10
7.084000
 20
1.192400
 11
7.726400
 21
1.571680
 12
7.090160
 22
1.182280
 13
7.732560
 23
1.561560
  0
POLYLINE
  8
0
  6
CONTINUOUS
 66
     1
 40
0.000000
 41
0.000000
  0
VERTEX
  8
0
  6
CONTINUOUS
 10
7.084000
 20
1.192400
  0
VERTEX
  8
0
  6
CONTINUOUS
 10
7.726400
 20
1.571680
  0
VERTEX
  8
0
  6
CONTINUOUS
 10
7.732560
 20
1.561560
  0
VERTEX
  8
0
  6
CONTINUOUS
 10
7.090160
 20
1.182280
  0
VERTEX
  8
0
  6
CONTINUOUS
 10
7.084000
 20
1.192400
  0
SEQEND
  8
0
  0
SOLID
  8
0
 62
    15
 10
5.562920
 20
1.235960
 11
6.205320
 21
1.615680
 12
5.574360
 22
1.240360
 13
6.216760
 23
1.619640
  0
POLYLINE
  8
0
  6
CONTINUOUS
 66
     1
 40
0.000000
 41
0.000000
  0
VERTEX
  8
0
  6
CONTINUOUS
 10
5.562920
 20
1.235960
  0
VERTEX
  8
0
  6
CONTINUOUS
 10
6.205320
 20
1.615680
  0
VERTEX
  8
0
  6
CONTINUOUS
 10
6.216760
 20
1.619640
  0
VERTEX
  8
0
  6
CONTINUOUS
 10
5.574360
 20
1.240360
  0
VERTEX
  8
0
  6
CONTINUOUS
 10
5.562920
 20
1.235960
  0
SEQEND
  8
0
  0
SOLID
  8
0
 62
    15
 10
5.574360
 20
1.240360
 11
6.216760
 21
1.619640
 12
5.586240
 22
1.243000
 13
6.228640
 23
1.622720
  0
POLYLINE
  8
0
  6
CONTINUOUS
 66
     1
 40
0.000000
 41
0.000000
  0
VERTEX
  8
0
  6
CONTINUOUS
 10
5.574360
 20
1.240360
  0
VERTEX
  8
0
  6
CONTINUOUS
 10
6.216760
 20
1.619640
  0
VERTEX
  8
0
  6
CONTINUOUS
 10
6.228640
 20
1.622720
  0
VERTEX
  8
0
  6
CONTINUOUS
 10
5.586240
 20
1.243000
  0
VERTEX
  8
0
  6
CONTINUOUS
 10
5.574360
 20
1.240360
  0
SEQEND
  8
0
  0
SOLID
  8
0
 62
    15
 10
5.586240
 20
1.243000
 11
6.228640
 21
1.622720
 12
5.598120
 22
1.245200
 13
6.240960
 23
1.624920
  0
POLYLINE
  8
0
  6
CONTINUOUS
 66
     1
 40
0.000000
 41
0.000000
  0
VERTEX
  8
0
  6
CONTINUOUS
 10
5.586240
 20
1.243000
  0
VERTEX
  8
0
  6
CONTINUOUS
 10
6.228640
 20
1.622720
  0
VERTEX
  8
0
  6
CONTINUOUS
 10
6.240960
 20
1.624920
  0
VERTEX
  8
0
  6
CONTINUOUS
 10
5.598120
 20
1.245200
  0
VERTEX
  8
0
  6
CONTINUOUS
 10
5.586240
 20
1.243000
  0
SEQEND
  8
0
  0
SOLID
  8
0
 62
    15
 10
5.598120
 20
1.245200
 11
6.240960
 21
1.624920
 12
5.610880
 22
1.245640
 13
6.253280
 23
1.625360
  0
POLYLINE
  8
0
  6
CONTINUOUS
 66
     1
 40
0.000000
 41
0.000000
  0
VERTEX
  8
0
  6
CONTINUOUS
 10
5.598120
 20
1.245200
  0
VERTEX
  8
0
  6
CONTINUOUS
 10
6.240960
 20
1.624920
  0
VERTEX
  8
0
  6
CONTINUOUS
 10
6.253280
 20
1.625360
  0
VERTEX
  8
0
  6
CONTINUOUS
 10
5.610880
 20
1.245640
  0
VERTEX
  8
0
  6
CONTINUOUS
 10
5.598120
 20
1.245200
  0
SEQEND
  8
0
  0
SOLID
  8
0
 62
    15
 10
5.610880
 20
1.245640
 11
6.253280
 21
1.625360
 12
6.975760
 22
1.245640
 13
7.618160
 23
1.625360
  0
POLYLINE
  8
0
  6
CONTINUOUS
 66
     1
 40
0.000000
 41
0.000000
  0
VERTEX
  8
0
  6
CONTINUOUS
 10
5.610880
 20
1.245640
  0
VERTEX
  8
0
  6
CONTINUOUS
 10
6.253280
 20
1.625360
  0
VERTEX
  8
0
  6
CONTINUOUS
 10
7.618160
 20
1.625360
  0
VERTEX
  8
0
  6
CONTINUOUS
 10
6.975760
 20
1.245640
  0
VERTEX
  8
0
  6
CONTINUOUS
 10
5.610880
 20
1.245640
  0
SEQEND
  8
0
  0
SOLID
  8
0
 62
    15
 10
6.975760
 20
1.245640
 11
7.618160
 21
1.625360
 12
6.981480
 22
1.246520
 13
7.624320
 23
1.626240
  0
POLYLINE
  8
0
  6
CONTINUOUS
 66
     1
 40
0.000000
 41
0.000000
  0
VERTEX
  8
0
  6
CONTINUOUS
 10
6.975760
 20
1.245640
  0
VERTEX
  8
0
  6
CONTINUOUS
 10
7.618160
 20
1.625360
  0
VERTEX
  8
0
  6
CONTINUOUS
 10
7.624320
 20
1.626240
  0
VERTEX
  8
0
  6
CONTINUOUS
 10
6.981480
 20
1.246520
  0
VERTEX
  8
0
  6
CONTINUOUS
 10
6.975760
 20
1.245640
  0
SEQEND
  8
0
  0
SOLID
  8
0
 62
    15
 10
6.981480
 20
1.246520
 11
7.624320
 21
1.626240
 12
6.994240
 22
1.246080
 13
7.636640
 23
1.625800
  0
POLYLINE
  8
0
  6
CONTINUOUS
 66
     1
 40
0.000000
 41
0.000000
  0
VERTEX
  8
0
  6
CONTINUOUS
 10
6.981480
 20
1.246520
  0
VERTEX
  8
0
  6
CONTINUOUS
 10
7.624320
 20
1.626240
  0
VERTEX
  8
0
  6
CONTINUOUS
 10
7.636640
 20
1.625800
  0
VERTEX
  8
0
  6
CONTINUOUS
 10
6.994240
 20
1.246080
  0
VERTEX
  8
0
  6
CONTINUOUS
 10
6.981480
 20
1.246520
  0
SEQEND
  8
0
  0
SOLID
  8
0
 62
    15
 10
6.994240
 20
1.246080
 11
7.636640
 21
1.625800
 12
7.006560
 22
1.244320
 13
7.648960
 23
1.623600
  0
POLYLINE
  8
0
  6
CONTINUOUS
 66
     1
 40
0.000000
 41
0.000000
  0
VERTEX
  8
0
  6
CONTINUOUS
 10
6.994240
 20
1.246080
  0
VERTEX
  8
0
  6
CONTINUOUS
 10
7.636640
 20
1.625800
  0
VERTEX
  8
0
  6
CONTINUOUS
 10
7.648960
 20
1.623600
  0
VERTEX
  8
0
  6
CONTINUOUS
 10
7.006560
 20
1.244320
  0
VERTEX
  8
0
  6
CONTINUOUS
 10
6.994240
 20
1.246080
  0
SEQEND
  8
0
  0
SOLID
  8
0
 62
    15
 10
7.006560
 20
1.244320
 11
7.648960
 21
1.623600
 12
7.018440
 22
1.241240
 13
7.660840
 23
1.620520
  0
POLYLINE
  8
0
  6
CONTINUOUS
 66
     1
 40
0.000000
 41
0.000000
  0
VERTEX
  8
0
  6
CONTINUOUS
 10
7.006560
 20
1.244320
  0
VERTEX
  8
0
  6
CONTINUOUS
 10
7.648960
 20
1.623600
  0
VERTEX
  8
0
  6
CONTINUOUS
 10
7.660840
 20
1.620520
  0
VERTEX
  8
0
  6
CONTINUOUS
 10
7.018440
 20
1.241240
  0
VERTEX
  8
0
  6
CONTINUOUS
 10
7.006560
 20
1.244320
  0
SEQEND
  8
0
  0
SOLID
  8
0
 62
    15
 10
7.018440
 20
1.241240
 11
7.660840
 21
1.620520
 12
7.029440
 22
1.236840
 13
7.672280
 23
1.616560
  0
POLYLINE
  8
0
  6
CONTINUOUS
 66
     1
 40
0.000000
 41
0.000000
  0
VERTEX
  8
0
  6
CONTINUOUS
 10
7.018440
 20
1.241240
  0
VERTEX
  8
0
  6
CONTINUOUS
 10
7.660840
 20
1.620520
  0
VERTEX
  8
0
  6
CONTINUOUS
 10
7.672280
 20
1.616560
  0
VERTEX
  8
0
  6
CONTINUOUS
 10
7.029440
 20
1.236840
  0
VERTEX
  8
0
  6
CONTINUOUS
 10
7.018440
 20
1.241240
  0
SEQEND
  8
0
  0
SOLID
  8
0
 62
    15
 10
7.029440
 20
1.236840
 11
7.672280
 21
1.616560
 12
7.040440
 22
1.231560
 13
7.682840
 23
1.611280
  0
POLYLINE
  8
0
  6
CONTINUOUS
 66
     1
 40
0.000000
 41
0.000000
  0
VERTEX
  8
0
  6
CONTINUOUS
 10
7.029440
 20
1.236840
  0
VERTEX
  8
0
  6
CONTINUOUS
 10
7.672280
 20
1.616560
  0
VERTEX
  8
0
  6
CONTINUOUS
 10
7.682840
 20
1.611280
  0
VERTEX
  8
0
  6
CONTINUOUS
 10
7.040440
 20
1.231560
  0
VERTEX
  8
0
  6
CONTINUOUS
 10
7.029440
 20
1.236840
  0
SEQEND
  8
0
  0
SOLID
  8
0
 62
    15
 10
7.040440
 20
1.231560
 11
7.682840
 21
1.611280
 12
7.050560
 22
1.225400
 13
7.692960
 23
1.605120
  0
POLYLINE
  8
0
  6
CONTINUOUS
 66
     1
 40
0.000000
 41
0.000000
  0
VERTEX
  8
0
  6
CONTINUOUS
 10
7.040440
 20
1.231560
  0
VERTEX
  8
0
  6
CONTINUOUS
 10
7.682840
 20
1.611280
  0
VERTEX
  8
0
  6
CONTINUOUS
 10
7.692960
 20
1.605120
  0
VERTEX
  8
0
  6
CONTINUOUS
 10
7.050560
 20
1.225400
  0
VERTEX
  8
0
  6
CONTINUOUS
 10
7.040440
 20
1.231560
  0
SEQEND
  8
0
  0
SOLID
  8
0
 62
    15
 10
7.050560
 20
1.225400
 11
7.692960
 21
1.605120
 12
7.060240
 22
1.218360
 13
7.702640
 23
1.598080
  0
POLYLINE
  8
0
  6
CONTINUOUS
 66
     1
 40
0.000000
 41
0.000000
  0
VERTEX
  8
0
  6
CONTINUOUS
 10
7.050560
 20
1.225400
  0
VERTEX
  8
0
  6
CONTINUOUS
 10
7.692960
 20
1.605120
  0
VERTEX
  8
0
  6
CONTINUOUS
 10
7.702640
 20
1.598080
  0
VERTEX
  8
0
  6
CONTINUOUS
 10
7.060240
 20
1.218360
  0
VERTEX
  8
0
  6
CONTINUOUS
 10
7.050560
 20
1.225400
  0
SEQEND
  8
0
  0
SOLID
  8
0
 62
    15
 10
7.060240
 20
1.218360
 11
7.702640
 21
1.598080
 12
7.068600
 22
1.210440
 13
7.711440
 23
1.590160
  0
POLYLINE
  8
0
  6
CONTINUOUS
 66
     1
 40
0.000000
 41
0.000000
  0
VERTEX
  8
0
  6
CONTINUOUS
 10
7.060240
 20
1.218360
  0
VERTEX
  8
0
  6
CONTINUOUS
 10
7.702640
 20
1.598080
  0
VERTEX
  8
0
  6
CONTINUOUS
 10
7.711440
 20
1.590160
  0
VERTEX
  8
0
  6
CONTINUOUS
 10
7.068600
 20
1.210440
  0
VERTEX
  8
0
  6
CONTINUOUS
 10
7.060240
 20
1.218360
  0
SEQEND
  8
0
  0
SOLID
  8
0
 62
    15
 10
7.068600
 20
1.210440
 11
7.711440
 21
1.590160
 12
7.076960
 22
1.201640
 13
7.719360
 23
1.581360
  0
POLYLINE
  8
0
  6
CONTINUOUS
 66
     1
 40
0.000000
 41
0.000000
  0
VERTEX
  8
0
  6
CONTINUOUS
 10
7.068600
 20
1.210440
  0
VERTEX
  8
0
  6
CONTINUOUS
 10
7.711440
 20
1.590160
  0
VERTEX
  8
0
  6
CONTINUOUS
 10
7.719360
 20
1.581360
  0
VERTEX
  8
0
  6
CONTINUOUS
 10
7.076960
 20
1.201640
  0
VERTEX
  8
0
  6
CONTINUOUS
 10
7.068600
 20
1.210440
  0
SEQEND
  8
0
  0
SOLID
  8
0
 62
    15
 10
7.076960
 20
1.201640
 11
7.719360
 21
1.581360
 12
7.084000
 22
1.192400
 13
7.726400
 23
1.571680
  0
POLYLINE
  8
0
  6
CONTINUOUS
 66
     1
 40
0.000000
 41
0.000000
  0
VERTEX
  8
0
  6
CONTINUOUS
 10
7.076960
 20
1.201640
  0
VERTEX
  8
0
  6
CONTINUOUS
 10
7.719360
 20
1.581360
  0
VERTEX
  8
0
  6
CONTINUOUS
 10
7.726400
 20
1.571680
  0
VERTEX
  8
0
  6
CONTINUOUS
 10
7.084000
 20
1.192400
  0
VERTEX
  8
0
  6
CONTINUOUS
 10
7.076960
 20
1.201640
  0
SEQEND
  8
0
  0
SOLID
  8
0
 62
    15
 10
5.551920
 20
1.230680
 11
6.194760
 21
1.610400
 12
5.562920
 22
1.235960
 13
6.205320
 23
1.615680
  0
POLYLINE
  8
0
  6
CONTINUOUS
 66
     1
 40
0.000000
 41
0.000000
  0
VERTEX
  8
0
  6
CONTINUOUS
 10
5.551920
 20
1.230680
  0
VERTEX
  8
0
  6
CONTINUOUS
 10
6.194760
 20
1.610400
  0
VERTEX
  8
0
  6
CONTINUOUS
 10
6.205320
 20
1.615680
  0
VERTEX
  8
0
  6
CONTINUOUS
 10
5.562920
 20
1.235960
  0
VERTEX
  8
0
  6
CONTINUOUS
 10
5.551920
 20
1.230680
  0
SEQEND
  8
0
  0
SOLID
  8
0
 62
    15
 10
7.090160
 20
1.182280
 11
7.732560
 21
1.561560
 12
7.095440
 22
1.171280
 13
7.737840
 23
1.551000
  0
POLYLINE
  8
0
  6
CONTINUOUS
 66
     1
 40
0.000000
 41
0.000000
  0
VERTEX
  8
0
  6
CONTINUOUS
 10
7.090160
 20
1.182280
  0
VERTEX
  8
0
  6
CONTINUOUS
 10
7.732560
 20
1.561560
  0
VERTEX
  8
0
  6
CONTINUOUS
 10
7.737840
 20
1.551000
  0
VERTEX
  8
0
  6
CONTINUOUS
 10
7.095440
 20
1.171280
  0
VERTEX
  8
0
  6
CONTINUOUS
 10
7.090160
 20
1.182280
  0
SEQEND
  8
0
  0
SOLID
  8
0
 62
    15
 10
7.095440
 20
1.171280
 11
7.737840
 21
1.551000
 12
7.099400
 22
1.159840
 13
7.741800
 23
1.539560
  0
POLYLINE
  8
0
  6
CONTINUOUS
 66
     1
 40
0.000000
 41
0.000000
  0
VERTEX
  8
0
  6
CONTINUOUS
 10
7.095440
 20
1.171280
  0
VERTEX
  8
0
  6
CONTINUOUS
 10
7.737840
 20
1.551000
  0
VERTEX
  8
0
  6
CONTINUOUS
 10
7.741800
 20
1.539560
  0
VERTEX
  8
0
  6
CONTINUOUS
 10
7.099400
 20
1.159840
  0
VERTEX
  8
0
  6
CONTINUOUS
 10
7.095440
 20
1.171280
  0
SEQEND
  8
0
  0
SOLID
  8
0
 62
    15
 10
7.099400
 20
1.159840
 11
7.741800
 21
1.539560
 12
7.102480
 22
1.148400
 13
7.744880
 23
1.527680
  0
POLYLINE
  8
0
  6
CONTINUOUS
 66
     1
 40
0.000000
 41
0.000000
  0
VERTEX
  8
0
  6
CONTINUOUS
 10
7.099400
 20
1.159840
  0
VERTEX
  8
0
  6
CONTINUOUS
 10
7.741800
 20
1.539560
  0
VERTEX
  8
0
  6
CONTINUOUS
 10
7.744880
 20
1.527680
  0
VERTEX
  8
0
  6
CONTINUOUS
 10
7.102480
 20
1.148400
  0
VERTEX
  8
0
  6
CONTINUOUS
 10
7.099400
 20
1.159840
  0
SEQEND
  8
0
  0
SOLID
  8
0
 62
    15
 10
7.102480
 20
1.148400
 11
7.744880
 21
1.527680
 12
7.104240
 22
1.136080
 13
7.746640
 23
1.515360
  0
POLYLINE
  8
0
  6
CONTINUOUS
 66
     1
 40
0.000000
 41
0.000000
  0
VERTEX
  8
0
  6
CONTINUOUS
 10
7.102480
 20
1.148400
  0
VERTEX
  8
0
  6
CONTINUOUS
 10
7.744880
 20
1.527680
  0
VERTEX
  8
0
  6
CONTINUOUS
 10
7.746640
 20
1.515360
  0
VERTEX
  8
0
  6
CONTINUOUS
 10
7.104240
 20
1.136080
  0
VERTEX
  8
0
  6
CONTINUOUS
 10
7.102480
 20
1.148400
  0
SEQEND
  8
0
  0
SOLID
  8
0
 62
    15
 10
7.104240
 20
1.136080
 11
7.746640
 21
1.515360
 12
7.105120
 22
1.123320
 13
7.747520
 23
1.503040
  0
POLYLINE
  8
0
  6
CONTINUOUS
 66
     1
 40
0.000000
 41
0.000000
  0
VERTEX
  8
0
  6
CONTINUOUS
 10
7.104240
 20
1.136080
  0
VERTEX
  8
0
  6
CONTINUOUS
 10
7.746640
 20
1.515360
  0
VERTEX
  8
0
  6
CONTINUOUS
 10
7.747520
 20
1.503040
  0
VERTEX
  8
0
  6
CONTINUOUS
 10
7.105120
 20
1.123320
  0
VERTEX
  8
0
  6
CONTINUOUS
 10
7.104240
 20
1.136080
  0
SEQEND
  8
0
  0
SOLID
  8
0
 62
    15
 10
7.105120
 20
1.123320
 11
7.747520
 21
1.503040
 12
7.104240
 22
1.110560
 13
7.746640
 23
1.490280
  0
POLYLINE
  8
0
  6
CONTINUOUS
 66
     1
 40
0.000000
 41
0.000000
  0
VERTEX
  8
0
  6
CONTINUOUS
 10
7.105120
 20
1.123320
  0
VERTEX
  8
0
  6
CONTINUOUS
 10
7.747520
 20
1.503040
  0
VERTEX
  8
0
  6
CONTINUOUS
 10
7.746640
 20
1.490280
  0
VERTEX
  8
0
  6
CONTINUOUS
 10
7.104240
 20
1.110560
  0
VERTEX
  8
0
  6
CONTINUOUS
 10
7.105120
 20
1.123320
  0
SEQEND
  8
0
  0
SOLID
  8
0
 62
    15
 10
7.104240
 20
1.110560
 11
7.746640
 21
1.490280
 12
7.102480
 22
1.098680
 13
7.744880
 23
1.477960
  0
POLYLINE
  8
0
  6
CONTINUOUS
 66
     1
 40
0.000000
 41
0.000000
  0
VERTEX
  8
0
  6
CONTINUOUS
 10
7.104240
 20
1.110560
  0
VERTEX
  8
0
  6
CONTINUOUS
 10
7.746640
 20
1.490280
  0
VERTEX
  8
0
  6
CONTINUOUS
 10
7.744880
 20
1.477960
  0
VERTEX
  8
0
  6
CONTINUOUS
 10
7.102480
 20
1.098680
  0
VERTEX
  8
0
  6
CONTINUOUS
 10
7.104240
 20
1.110560
  0
SEQEND
  8
0
  0
SOLID
  8
0
 62
    15
 10
7.102480
 20
1.098680
 11
7.744880
 21
1.477960
 12
7.099400
 22
1.086800
 13
7.741800
 23
1.466520
  0
POLYLINE
  8
0
  6
CONTINUOUS
 66
     1
 40
0.000000
 41
0.000000
  0
VERTEX
  8
0
  6
CONTINUOUS
 10
7.102480
 20
1.098680
  0
VERTEX
  8
0
  6
CONTINUOUS
 10
7.744880
 20
1.477960
  0
VERTEX
  8
0
  6
CONTINUOUS
 10
7.741800
 20
1.466520
  0
VERTEX
  8
0
  6
CONTINUOUS
 10
7.099400
 20
1.086800
  0
VERTEX
  8
0
  6
CONTINUOUS
 10
7.102480
 20
1.098680
  0
SEQEND
  8
0
  0
SOLID
  8
0
 62
    15
 10
7.099400
 20
1.086800
 11
7.741800
 21
1.466520
 12
7.095440
 22
1.075360
 13
7.737840
 23
1.455080
  0
POLYLINE
  8
0
  6
CONTINUOUS
 66
     1
 40
0.000000
 41
0.000000
  0
VERTEX
  8
0
  6
CONTINUOUS
 10
7.099400
 20
1.086800
  0
VERTEX
  8
0
  6
CONTINUOUS
 10
7.741800
 20
1.466520
  0
VERTEX
  8
0
  6
CONTINUOUS
 10
7.737840
 20
1.455080
  0
VERTEX
  8
0
  6
CONTINUOUS
 10
7.095440
 20
1.075360
  0
VERTEX
  8
0
  6
CONTINUOUS
 10
7.099400
 20
1.086800
  0
SEQEND
  8
0
  0
SOLID
  8
0
 62
    15
 10
7.095440
 20
1.075360
 11
7.737840
 21
1.455080
 12
7.090160
 22
1.064800
 13
7.732560
 23
1.444080
  0
POLYLINE
  8
0
  6
CONTINUOUS
 66
     1
 40
0.000000
 41
0.000000
  0
VERTEX
  8
0
  6
CONTINUOUS
 10
7.095440
 20
1.075360
  0
VERTEX
  8
0
  6
CONTINUOUS
 10
7.737840
 20
1.455080
  0
VERTEX
  8
0
  6
CONTINUOUS
 10
7.732560
 20
1.444080
  0
VERTEX
  8
0
  6
CONTINUOUS
 10
7.090160
 20
1.064800
  0
VERTEX
  8
0
  6
CONTINUOUS
 10
7.095440
 20
1.075360
  0
SEQEND
  8
0
  0
SOLID
  8
0
 62
    15
 10
7.090160
 20
1.064800
 11
7.732560
 21
1.444080
 12
7.084000
 22
1.054680
 13
7.726400
 23
1.433960
  0
POLYLINE
  8
0
  6
CONTINUOUS
 66
     1
 40
0.000000
 41
0.000000
  0
VERTEX
  8
0
  6
CONTINUOUS
 10
7.090160
 20
1.064800
  0
VERTEX
  8
0
  6
CONTINUOUS
 10
7.732560
 20
1.444080
  0
VERTEX
  8
0
  6
CONTINUOUS
 10
7.726400
 20
1.433960
  0
VERTEX
  8
0
  6
CONTINUOUS
 10
7.084000
 20
1.054680
  0
VERTEX
  8
0
  6
CONTINUOUS
 10
7.090160
 20
1.064800
  0
SEQEND
  8
0
  0
SOLID
  8
0
 62
    15
 10
7.084000
 20
1.054680
 11
7.726400
 21
1.433960
 12
7.076960
 22
1.045000
 13
7.719360
 23
1.424720
  0
POLYLINE
  8
0
  6
CONTINUOUS
 66
     1
 40
0.000000
 41
0.000000
  0
VERTEX
  8
0
  6
CONTINUOUS
 10
7.084000
 20
1.054680
  0
VERTEX
  8
0
  6
CONTINUOUS
 10
7.726400
 20
1.433960
  0
VERTEX
  8
0
  6
CONTINUOUS
 10
7.719360
 20
1.424720
  0
VERTEX
  8
0
  6
CONTINUOUS
 10
7.076960
 20
1.045000
  0
VERTEX
  8
0
  6
CONTINUOUS
 10
7.084000
 20
1.054680
  0
SEQEND
  8
0
  0
SOLID
  8
0
 62
    15
 10
7.076960
 20
1.045000
 11
7.719360
 21
1.424720
 12
7.068600
 22
1.036200
 13
7.711440
 23
1.415920
  0
POLYLINE
  8
0
  6
CONTINUOUS
 66
     1
 40
0.000000
 41
0.000000
  0
VERTEX
  8
0
  6
CONTINUOUS
 10
7.076960
 20
1.045000
  0
VERTEX
  8
0
  6
CONTINUOUS
 10
7.719360
 20
1.424720
  0
VERTEX
  8
0
  6
CONTINUOUS
 10
7.711440
 20
1.415920
  0
VERTEX
  8
0
  6
CONTINUOUS
 10
7.068600
 20
1.036200
  0
VERTEX
  8
0
  6
CONTINUOUS
 10
7.076960
 20
1.045000
  0
SEQEND
  8
0
  0
SOLID
  8
0
 62
    15
 10
7.068600
 20
1.036200
 11
7.711440
 21
1.415920
 12
7.060240
 22
1.028280
 13
7.702640
 23
1.408000
  0
POLYLINE
  8
0
  6
CONTINUOUS
 66
     1
 40
0.000000
 41
0.000000
  0
VERTEX
  8
0
  6
CONTINUOUS
 10
7.068600
 20
1.036200
  0
VERTEX
  8
0
  6
CONTINUOUS
 10
7.711440
 20
1.415920
  0
VERTEX
  8
0
  6
CONTINUOUS
 10
7.702640
 20
1.408000
  0
VERTEX
  8
0
  6
CONTINUOUS
 10
7.060240
 20
1.028280
  0
VERTEX
  8
0
  6
CONTINUOUS
 10
7.068600
 20
1.036200
  0
SEQEND
  8
0
  0
SOLID
  8
0
 62
    15
 10
7.050560
 20
1.021240
 11
7.692960
 21
1.400960
 12
7.040440
 22
1.015080
 13
7.682840
 23
1.394800
  0
POLYLINE
  8
0
  6
CONTINUOUS
 66
     1
 40
0.000000
 41
0.000000
  0
VERTEX
  8
0
  6
CONTINUOUS
 10
7.050560
 20
1.021240
  0
VERTEX
  8
0
  6
CONTINUOUS
 10
7.692960
 20
1.400960
  0
VERTEX
  8
0
  6
CONTINUOUS
 10
7.682840
 20
1.394800
  0
VERTEX
  8
0
  6
CONTINUOUS
 10
7.040440
 20
1.015080
  0
VERTEX
  8
0
  6
CONTINUOUS
 10
7.050560
 20
1.021240
  0
SEQEND
  8
0
  0
SOLID
  8
0
 62
    15
 10
7.060240
 20
1.028280
 11
7.702640
 21
1.408000
 12
7.050560
 22
1.021240
 13
7.692960
 23
1.400960
  0
POLYLINE
  8
0
  6
CONTINUOUS
 66
     1
 40
0.000000
 41
0.000000
  0
VERTEX
  8
0
  6
CONTINUOUS
 10
7.060240
 20
1.028280
  0
VERTEX
  8
0
  6
CONTINUOUS
 10
7.702640
 20
1.408000
  0
VERTEX
  8
0
  6
CONTINUOUS
 10
7.692960
 20
1.400960
  0
VERTEX
  8
0
  6
CONTINUOUS
 10
7.050560
 20
1.021240
  0
VERTEX
  8
0
  6
CONTINUOUS
 10
7.060240
 20
1.028280
  0
SEQEND
  8
0
  0
POLYLINE
  8
0
  6
CONTINUOUS
 66
     1
 40
0.000000
 41
0.000000
  0
VERTEX
  8
0
  6
CONTINUOUS
 10
6.978840
 20
0.999680
  0
VERTEX
  8
0
  6
CONTINUOUS
 10
5.598120
 20
0.999680
  0
VERTEX
  8
0
  6
CONTINUOUS
 10
5.574360
 20
1.004960
  0
VERTEX
  8
0
  6
CONTINUOUS
 10
5.551920
 20
1.014200
  0
VERTEX
  8
0
  6
CONTINUOUS
 10
5.532560
 20
1.027400
  0
VERTEX
  8
0
  6
CONTINUOUS
 10
5.515840
 20
1.044120
  0
VERTEX
  8
0
  6
CONTINUOUS
 10
5.502640
 20
1.063920
  0
VERTEX
  8
0
  6
CONTINUOUS
 10
5.492960
 20
1.085920
  0
VERTEX
  8
0
  6
CONTINUOUS
 10
5.488120
 20
1.109680
  0
VERTEX
  8
0
  6
CONTINUOUS
 10
5.488120
 20
1.135200
  0
VERTEX
  8
0
  6
CONTINUOUS
 10
5.492960
 20
1.158960
  0
VERTEX
  8
0
  6
CONTINUOUS
 10
5.502640
 20
1.181400
  0
VERTEX
  8
0
  6
CONTINUOUS
 10
5.515840
 20
1.200760
  0
VERTEX
  8
0
  6
CONTINUOUS
 10
5.532560
 20
1.217480
  0
VERTEX
  8
0
  6
CONTINUOUS
 10
5.551920
 20
1.230680
  0
VERTEX
  8
0
  6
CONTINUOUS
 10
5.574360
 20
1.240360
  0
VERTEX
  8
0
  6
CONTINUOUS
 10
5.598120
 20
1.245200
  0
VERTEX
  8
0
  6
CONTINUOUS
 10
6.994240
 20
1.246080
  0
VERTEX
  8
0
  6
CONTINUOUS
 10
7.018440
 20
1.241240
  0
VERTEX
  8
0
  6
CONTINUOUS
 10
7.040440
 20
1.231560
  0
VERTEX
  8
0
  6
CONTINUOUS
 10
7.060240
 20
1.218360
  0
VERTEX
  8
0
  6
CONTINUOUS
 10
7.076960
 20
1.201640
  0
VERTEX
  8
0
  6
CONTINUOUS
 10
7.090160
 20
1.182280
  0
VERTEX
  8
0
  6
CONTINUOUS
 10
7.099400
 20
1.159840
  0
VERTEX
  8
0
  6
CONTINUOUS
 10
7.104240
 20
1.136080
  0
VERTEX
  8
0
  6
CONTINUOUS
 10
7.105120
 20
1.123320
  0
VERTEX
  8
0
  6
CONTINUOUS
 10
7.102480
 20
1.098680
  0
VERTEX
  8
0
  6
CONTINUOUS
 10
7.095440
 20
1.075360
  0
VERTEX
  8
0
  6
CONTINUOUS
 10
7.084000
 20
1.054680
  0
VERTEX
  8
0
  6
CONTINUOUS
 10
7.068600
 20
1.036200
  0
VERTEX
  8
0
  6
CONTINUOUS
 10
7.050560
 20
1.021240
  0
VERTEX
  8
0
  6
CONTINUOUS
 10
7.029440
 20
1.009800
  0
VERTEX
  8
0
  6
CONTINUOUS
 10
7.006560
 20
1.002760
  0
VERTEX
  8
0
  6
CONTINUOUS
 10
6.994240
 20
1.000560
  0
VERTEX
  8
0
  6
CONTINUOUS
 10
6.978840
 20
0.999680
  0
SEQEND
  8
0
  0
TEXT
  8
0
 10
6.322800
 20
0.768680
 40
0.138175
  1
BA  463
 41
1.000000
  7
SN0
 71
     0
 72
     5
 11
6.912820
 21
0.768680
  0
TEXT
  8
0
 10
6.167040
 20
0.577280
 40
0.138175
  1
1/4" x 1-5/8"
 41
1.000000
  7
SN0
 71
     0
 72
     5
 11
7.067205
 21
0.577280
  0
ENDSEC
  0
EOF
