  0
SECTION
  2
HEADER
  9
$ACADVER
  1
AC1006
  9
$EXTMIN
 10
2.233000
 20
0.414920
  9
$EXTMAX
 10
7.124480
 20
2.985400
  9
$LTSCALE
 40
0.044000
  9
$PDMODE
 70
    35
  9
$PDSIZE
 40
0.035200
  0
ENDSEC
  0
SECTION
  2
TABLES
  0
TABLE
  2
LTYPE
 70
     9
  0
LTYPE
  2
CONTINUOUS
 70
    64
  3
Solid line
 72
    65
 73
     0
 40
0.000000
  0
LTYPE
  2
DASHED
 70
    64
  3
__ __ __ __ __ __ __ __ __ __ __ __ __ __ __
 72
    65
 73
     2
 40
0.000330
 49
0.000220
 49
-0.000110
  0
LTYPE
  2
HIDDEN
 70
    64
  3
 _ _ _ _ _ _ _ _ _ _ _ _ _ _ _ _ _ _ _ _ _ _
 72
    65
 73
     2
 40
0.000165
 49
0.000110
 49
-0.000055
  0
LTYPE
  2
CENTER
 70
    64
  3
____ _ ____ _ ____ _ ____ _ ____ _ ____ _ ____
 72
    65
 73
     4
 40
0.000880
 49
0.000550
 49
-0.000110
 49
0.000110
 49
-0.000110
  0
LTYPE
  2
PHANTOM
 70
    64
  3
_____ _ _ _____ _ _ _____ _ _ _____ _ _ ____
 72
    65
 73
     6
 40
0.001100
 49
0.000550
 49
-0.000110
 49
0.000110
 49
-0.000110
 49
0.000110
 49
-0.000110
  0
LTYPE
  2
DOT
 70
    64
  3
...............................................
 72
    65
 73
     2
 40
0.000110
 49
0.000000
 49
-0.000110
  0
LTYPE
  2
DASHDOT
 70
    64
  3
__ . __ . __ . __ . __ . __ . __ . __ . __ . __
 72
    65
 73
     4
 40
0.000440
 49
0.000220
 49
-0.000110
 49
0.000000
 49
-0.000110
  0
LTYPE
  2
BORDER
 70
    64
  3
__ __ . __ __ . __ __ . __ __ . __ __ . __ __
 72
    65
 73
     6
 40
0.000770
 49
0.000220
 49
-0.000110
 49
0.000220
 49
-0.000110
 49
0.000000
 49
-0.000110
  0
LTYPE
  2
DIVIDE
 70
    64
  3
__ . . __ . . __ . . __ . . __ . . __ . . __
 72
    65
 73
     6
 40
0.000550
 49
0.000220
 49
-0.000110
 49
0.000000
 49
-0.000110
 49
0.000000
 49
-0.000110
  0
LTYPE
  2
DOTDOT
 70
    64
  3
 . .  . .  . .  . .  . .  . . 
 72
    65
 73
     5
 40
0.000242
 49
-0.000110
 49
0.000000
 49
-0.000110
 49
0.000000
 49
-0.000110
  0
ENDTAB
  0
TABLE
  2
STYLE
 70
     2
  0
STYLE
 70
     0
  2
SN0
 40
0.000000
 41
0.000440
 50
0.000000
 71
     0
 42
0.000000
  3
ROMAND
  0
STYLE
 70
    68
  2
SV0
 40
0.000000
 41
0.000440
 50
0.000000
 71
     0
 42
0.000000
  3
ROMAND
  0
ENDTAB
  0
TABLE
  2
LAYER
 70
     3
  0
LAYER
  2
FOREGROUND
 70
    64
 62
     7
  6
CONTINUOUS
  0
LAYER
  2
BACKGROUND
 70
    65
 62
    -7
  6
CONTINUOUS
  0
LAYER
  2
0
 70
    64
 62
     7
  6
CONTINUOUS
  0
ENDTAB
  0
ENDSEC
  0
SECTION
  2
ENTITIES
  0
POLYLINE
  8
FOREGROUND
  6
CONTINUOUS
 66
     1
 40
0.000000
 41
0.000000
  0
VERTEX
  8
FOREGROUND
  6
CONTINUOUS
 10
0.000000
 20
3.400320
  0
VERTEX
  8
FOREGROUND
  6
CONTINUOUS
 10
8.499920
 20
3.400320
  0
VERTEX
  8
FOREGROUND
  6
CONTINUOUS
 10
8.499920
 20
-7.599680
  0
VERTEX
  8
FOREGROUND
  6
CONTINUOUS
 10
0.000000
 20
-7.599680
  0
VERTEX
  8
FOREGROUND
  6
CONTINUOUS
 10
0.000000
 20
3.400320
  0
SEQEND
  8
0
  0
POLYLINE
  8
FOREGROUND
  6
CONTINUOUS
 66
     1
 40
0.000000
 41
0.000000
  0
VERTEX
  8
FOREGROUND
  6
CONTINUOUS
 10
0.000000
 20
3.400320
  0
VERTEX
  8
FOREGROUND
  6
CONTINUOUS
 10
8.499920
 20
3.400320
  0
VERTEX
  8
FOREGROUND
  6
CONTINUOUS
 10
8.499920
 20
-7.599680
  0
VERTEX
  8
FOREGROUND
  6
CONTINUOUS
 10
0.000000
 20
-7.599680
  0
VERTEX
  8
FOREGROUND
  6
CONTINUOUS
 10
0.000000
 20
3.400320
  0
SEQEND
  8
0
  0
POLYLINE
  8
0
  6
CONTINUOUS
 66
     1
 40
0.014080
 41
0.014080
  0
VERTEX
  8
0
  6
CONTINUOUS
 10
7.115680
 20
2.499200
  0
VERTEX
  8
0
  6
CONTINUOUS
 10
7.057160
 20
2.485560
  0
VERTEX
  8
0
  6
CONTINUOUS
 10
7.003480
 20
2.467520
  0
VERTEX
  8
0
  6
CONTINUOUS
 10
6.954200
 20
2.445960
  0
VERTEX
  8
0
  6
CONTINUOUS
 10
6.908880
 20
2.421320
  0
VERTEX
  8
0
  6
CONTINUOUS
 10
6.848160
 20
2.377760
  0
VERTEX
  8
0
  6
CONTINUOUS
 10
6.812520
 20
2.344760
  0
VERTEX
  8
0
  6
CONTINUOUS
 10
6.779960
 20
2.309120
  0
VERTEX
  8
0
  6
CONTINUOUS
 10
6.736840
 20
2.251040
  0
VERTEX
  8
0
  6
CONTINUOUS
 10
6.699880
 20
2.187680
  0
VERTEX
  8
0
  6
CONTINUOUS
 10
6.668200
 20
2.119920
  0
VERTEX
  8
0
  6
CONTINUOUS
 10
6.649280
 20
2.072840
  0
VERTEX
  8
0
  6
CONTINUOUS
 10
6.632560
 20
2.024440
  0
VERTEX
  8
0
  6
CONTINUOUS
 10
6.586800
 20
1.871760
  0
VERTEX
  8
0
  6
CONTINUOUS
 10
6.567000
 20
1.819840
  0
VERTEX
  8
0
  6
CONTINUOUS
 10
6.543680
 20
1.767920
  0
VERTEX
  8
0
  6
CONTINUOUS
 10
6.516840
 20
1.716440
  0
VERTEX
  8
0
  6
CONTINUOUS
 10
6.471520
 20
1.641640
  0
VERTEX
  8
0
  6
CONTINUOUS
 10
6.420480
 20
1.570800
  0
VERTEX
  8
0
  6
CONTINUOUS
 10
6.365040
 20
1.506560
  0
VERTEX
  8
0
  6
CONTINUOUS
 10
6.325880
 20
1.467400
  0
VERTEX
  8
0
  6
CONTINUOUS
 10
6.286280
 20
1.432640
  0
VERTEX
  8
0
  6
CONTINUOUS
 10
6.224680
 20
1.389080
  0
VERTEX
  8
0
  6
CONTINUOUS
 10
6.183760
 20
1.366640
  0
VERTEX
  8
0
  6
CONTINUOUS
 10
6.142400
 20
1.349920
  0
VERTEX
  8
0
  6
CONTINUOUS
 10
6.101480
 20
1.339360
  0
VERTEX
  8
0
  6
CONTINUOUS
 10
6.081240
 20
1.336720
  0
VERTEX
  8
0
  6
CONTINUOUS
 10
6.061440
 20
1.335840
  0
VERTEX
  8
0
  6
CONTINUOUS
 10
6.061440
 20
1.268080
  0
VERTEX
  8
0
  6
CONTINUOUS
 10
6.106320
 20
1.256200
  0
VERTEX
  8
0
  6
CONTINUOUS
 10
6.145480
 20
1.240800
  0
VERTEX
  8
0
  6
CONTINUOUS
 10
6.178920
 20
1.222320
  0
VERTEX
  8
0
  6
CONTINUOUS
 10
6.207520
 20
1.200760
  0
VERTEX
  8
0
  6
CONTINUOUS
 10
6.223800
 20
1.185360
  0
VERTEX
  8
0
  6
CONTINUOUS
 10
6.237440
 20
1.169080
  0
VERTEX
  8
0
  6
CONTINUOUS
 10
6.249320
 20
1.151920
  0
VERTEX
  8
0
  6
CONTINUOUS
 10
6.266040
 20
1.115840
  0
VERTEX
  8
0
  6
CONTINUOUS
 10
6.271760
 20
1.096920
  0
VERTEX
  8
0
  6
CONTINUOUS
 10
6.276600
 20
1.058640
  0
VERTEX
  8
0
  6
CONTINUOUS
 10
6.273520
 20
1.020360
  0
VERTEX
  8
0
  6
CONTINUOUS
 10
6.269120
 20
1.001440
  0
VERTEX
  8
0
  6
CONTINUOUS
 10
6.255480
 20
0.964920
  0
VERTEX
  8
0
  6
CONTINUOUS
 10
6.234800
 20
0.930600
  0
VERTEX
  8
0
  6
CONTINUOUS
 10
6.222040
 20
0.914320
  0
VERTEX
  8
0
  6
CONTINUOUS
 10
6.191680
 20
0.885280
  0
VERTEX
  8
0
  6
CONTINUOUS
 10
6.174080
 20
0.872520
  0
VERTEX
  8
0
  6
CONTINUOUS
 10
6.155160
 20
0.861080
  0
VERTEX
  8
0
  6
CONTINUOUS
 10
6.134920
 20
0.850960
  0
VERTEX
  8
0
  6
CONTINUOUS
 10
6.113360
 20
0.842160
  0
VERTEX
  8
0
  6
CONTINUOUS
 10
6.090480
 20
0.835560
  0
VERTEX
  8
0
  6
CONTINUOUS
 10
6.066280
 20
0.830280
  0
VERTEX
  8
0
  6
CONTINUOUS
 10
6.040760
 20
0.827200
  0
VERTEX
  8
0
  6
CONTINUOUS
 10
6.013920
 20
0.826320
  0
VERTEX
  8
0
  6
CONTINUOUS
 10
5.371960
 20
0.826320
  0
VERTEX
  8
0
  6
CONTINUOUS
 10
5.371960
 20
2.966480
  0
VERTEX
  8
0
  6
CONTINUOUS
 10
7.117440
 20
2.966480
  0
VERTEX
  8
0
  6
CONTINUOUS
 10
7.117440
 20
2.500960
  0
VERTEX
  8
0
  6
CONTINUOUS
 10
7.115680
 20
2.499200
  0
SEQEND
  8
0
  0
SOLID
  8
0
 62
    15
 10
3.004320
 20
1.367960
 11
3.638800
 21
0.982080
 12
2.923360
 22
1.353880
 13
3.558280
 23
0.968000
  0
POLYLINE
  8
0
  6
CONTINUOUS
 66
     1
 40
0.000000
 41
0.000000
  0
VERTEX
  8
0
  6
CONTINUOUS
 10
3.004320
 20
1.367960
  0
VERTEX
  8
0
  6
CONTINUOUS
 10
3.638800
 20
0.982080
  0
VERTEX
  8
0
  6
CONTINUOUS
 10
3.558280
 20
0.968000
  0
VERTEX
  8
0
  6
CONTINUOUS
 10
2.923360
 20
1.353880
  0
VERTEX
  8
0
  6
CONTINUOUS
 10
3.004320
 20
1.367960
  0
SEQEND
  8
0
  0
SOLID
  8
0
 62
    15
 10
3.864960
 20
2.485560
 11
4.499880
 21
2.099680
 12
3.770360
 22
2.439360
 13
4.405280
 23
2.053480
  0
POLYLINE
  8
0
  6
CONTINUOUS
 66
     1
 40
0.000000
 41
0.000000
  0
VERTEX
  8
0
  6
CONTINUOUS
 10
3.864960
 20
2.485560
  0
VERTEX
  8
0
  6
CONTINUOUS
 10
4.499880
 20
2.099680
  0
VERTEX
  8
0
  6
CONTINUOUS
 10
4.405280
 20
2.053480
  0
VERTEX
  8
0
  6
CONTINUOUS
 10
3.770360
 20
2.439360
  0
VERTEX
  8
0
  6
CONTINUOUS
 10
3.864960
 20
2.485560
  0
SEQEND
  8
0
  0
SOLID
  8
0
 62
    15
 10
3.770360
 20
2.439360
 11
4.405280
 21
2.053480
 12
3.691600
 22
2.379520
 13
4.326520
 23
1.993640
  0
POLYLINE
  8
0
  6
CONTINUOUS
 66
     1
 40
0.000000
 41
0.000000
  0
VERTEX
  8
0
  6
CONTINUOUS
 10
3.770360
 20
2.439360
  0
VERTEX
  8
0
  6
CONTINUOUS
 10
4.405280
 20
2.053480
  0
VERTEX
  8
0
  6
CONTINUOUS
 10
4.326520
 20
1.993640
  0
VERTEX
  8
0
  6
CONTINUOUS
 10
3.691600
 20
2.379520
  0
VERTEX
  8
0
  6
CONTINUOUS
 10
3.770360
 20
2.439360
  0
SEQEND
  8
0
  0
SOLID
  8
0
 62
    15
 10
3.691600
 20
2.379520
 11
4.326520
 21
1.993640
 12
3.626480
 22
2.308680
 13
4.261400
 23
1.922800
  0
POLYLINE
  8
0
  6
CONTINUOUS
 66
     1
 40
0.000000
 41
0.000000
  0
VERTEX
  8
0
  6
CONTINUOUS
 10
3.691600
 20
2.379520
  0
VERTEX
  8
0
  6
CONTINUOUS
 10
4.326520
 20
1.993640
  0
VERTEX
  8
0
  6
CONTINUOUS
 10
4.261400
 20
1.922800
  0
VERTEX
  8
0
  6
CONTINUOUS
 10
3.626480
 20
2.308680
  0
VERTEX
  8
0
  6
CONTINUOUS
 10
3.691600
 20
2.379520
  0
SEQEND
  8
0
  0
SOLID
  8
0
 62
    15
 10
3.626480
 20
2.308680
 11
4.261400
 21
1.922800
 12
3.573240
 22
2.227280
 13
4.208160
 23
1.841400
  0
POLYLINE
  8
0
  6
CONTINUOUS
 66
     1
 40
0.000000
 41
0.000000
  0
VERTEX
  8
0
  6
CONTINUOUS
 10
3.626480
 20
2.308680
  0
VERTEX
  8
0
  6
CONTINUOUS
 10
4.261400
 20
1.922800
  0
VERTEX
  8
0
  6
CONTINUOUS
 10
4.208160
 20
1.841400
  0
VERTEX
  8
0
  6
CONTINUOUS
 10
3.573240
 20
2.227280
  0
VERTEX
  8
0
  6
CONTINUOUS
 10
3.626480
 20
2.308680
  0
SEQEND
  8
0
  0
SOLID
  8
0
 62
    15
 10
3.573240
 20
2.227280
 11
4.208160
 21
1.841400
 12
3.530120
 22
2.137960
 13
4.164600
 23
1.752080
  0
POLYLINE
  8
0
  6
CONTINUOUS
 66
     1
 40
0.000000
 41
0.000000
  0
VERTEX
  8
0
  6
CONTINUOUS
 10
3.573240
 20
2.227280
  0
VERTEX
  8
0
  6
CONTINUOUS
 10
4.208160
 20
1.841400
  0
VERTEX
  8
0
  6
CONTINUOUS
 10
4.164600
 20
1.752080
  0
VERTEX
  8
0
  6
CONTINUOUS
 10
3.530120
 20
2.137960
  0
VERTEX
  8
0
  6
CONTINUOUS
 10
3.573240
 20
2.227280
  0
SEQEND
  8
0
  0
SOLID
  8
0
 62
    15
 10
3.530120
 20
2.137960
 11
4.164600
 21
1.752080
 12
3.464560
 22
1.941720
 13
4.099040
 23
1.555840
  0
POLYLINE
  8
0
  6
CONTINUOUS
 66
     1
 40
0.000000
 41
0.000000
  0
VERTEX
  8
0
  6
CONTINUOUS
 10
3.530120
 20
2.137960
  0
VERTEX
  8
0
  6
CONTINUOUS
 10
4.164600
 20
1.752080
  0
VERTEX
  8
0
  6
CONTINUOUS
 10
4.099040
 20
1.555840
  0
VERTEX
  8
0
  6
CONTINUOUS
 10
3.464560
 20
1.941720
  0
VERTEX
  8
0
  6
CONTINUOUS
 10
3.530120
 20
2.137960
  0
SEQEND
  8
0
  0
SOLID
  8
0
 62
    15
 10
3.464560
 20
1.941720
 11
4.099040
 21
1.555840
 12
3.428920
 22
1.837880
 13
4.063400
 23
1.452000
  0
POLYLINE
  8
0
  6
CONTINUOUS
 66
     1
 40
0.000000
 41
0.000000
  0
VERTEX
  8
0
  6
CONTINUOUS
 10
3.464560
 20
1.941720
  0
VERTEX
  8
0
  6
CONTINUOUS
 10
4.099040
 20
1.555840
  0
VERTEX
  8
0
  6
CONTINUOUS
 10
4.063400
 20
1.452000
  0
VERTEX
  8
0
  6
CONTINUOUS
 10
3.428920
 20
1.837880
  0
VERTEX
  8
0
  6
CONTINUOUS
 10
3.464560
 20
1.941720
  0
SEQEND
  8
0
  0
SOLID
  8
0
 62
    15
 10
3.428920
 20
1.837880
 11
4.063400
 21
1.452000
 12
3.378760
 22
1.734480
 13
4.013240
 23
1.348600
  0
POLYLINE
  8
0
  6
CONTINUOUS
 66
     1
 40
0.000000
 41
0.000000
  0
VERTEX
  8
0
  6
CONTINUOUS
 10
3.428920
 20
1.837880
  0
VERTEX
  8
0
  6
CONTINUOUS
 10
4.063400
 20
1.452000
  0
VERTEX
  8
0
  6
CONTINUOUS
 10
4.013240
 20
1.348600
  0
VERTEX
  8
0
  6
CONTINUOUS
 10
3.378760
 20
1.734480
  0
VERTEX
  8
0
  6
CONTINUOUS
 10
3.428920
 20
1.837880
  0
SEQEND
  8
0
  0
SOLID
  8
0
 62
    15
 10
3.378760
 20
1.734480
 11
4.013240
 21
1.348600
 12
3.316720
 22
1.635480
 13
3.951200
 23
1.249600
  0
POLYLINE
  8
0
  6
CONTINUOUS
 66
     1
 40
0.000000
 41
0.000000
  0
VERTEX
  8
0
  6
CONTINUOUS
 10
3.378760
 20
1.734480
  0
VERTEX
  8
0
  6
CONTINUOUS
 10
4.013240
 20
1.348600
  0
VERTEX
  8
0
  6
CONTINUOUS
 10
3.951200
 20
1.249600
  0
VERTEX
  8
0
  6
CONTINUOUS
 10
3.316720
 20
1.635480
  0
VERTEX
  8
0
  6
CONTINUOUS
 10
3.378760
 20
1.734480
  0
SEQEND
  8
0
  0
SOLID
  8
0
 62
    15
 10
3.316720
 20
1.635480
 11
3.951200
 21
1.249600
 12
3.245440
 22
1.545280
 13
3.880360
 23
1.159400
  0
POLYLINE
  8
0
  6
CONTINUOUS
 66
     1
 40
0.000000
 41
0.000000
  0
VERTEX
  8
0
  6
CONTINUOUS
 10
3.316720
 20
1.635480
  0
VERTEX
  8
0
  6
CONTINUOUS
 10
3.951200
 20
1.249600
  0
VERTEX
  8
0
  6
CONTINUOUS
 10
3.880360
 20
1.159400
  0
VERTEX
  8
0
  6
CONTINUOUS
 10
3.245440
 20
1.545280
  0
VERTEX
  8
0
  6
CONTINUOUS
 10
3.316720
 20
1.635480
  0
SEQEND
  8
0
  0
SOLID
  8
0
 62
    15
 10
3.245440
 20
1.545280
 11
3.880360
 21
1.159400
 12
3.168000
 22
1.467840
 13
3.802480
 23
1.081960
  0
POLYLINE
  8
0
  6
CONTINUOUS
 66
     1
 40
0.000000
 41
0.000000
  0
VERTEX
  8
0
  6
CONTINUOUS
 10
3.245440
 20
1.545280
  0
VERTEX
  8
0
  6
CONTINUOUS
 10
3.880360
 20
1.159400
  0
VERTEX
  8
0
  6
CONTINUOUS
 10
3.802480
 20
1.081960
  0
VERTEX
  8
0
  6
CONTINUOUS
 10
3.168000
 20
1.467840
  0
VERTEX
  8
0
  6
CONTINUOUS
 10
3.245440
 20
1.545280
  0
SEQEND
  8
0
  0
SOLID
  8
0
 62
    15
 10
3.168000
 20
1.467840
 11
3.802480
 21
1.081960
 12
3.086600
 22
1.407120
 13
3.721080
 23
1.021680
  0
POLYLINE
  8
0
  6
CONTINUOUS
 66
     1
 40
0.000000
 41
0.000000
  0
VERTEX
  8
0
  6
CONTINUOUS
 10
3.168000
 20
1.467840
  0
VERTEX
  8
0
  6
CONTINUOUS
 10
3.802480
 20
1.081960
  0
VERTEX
  8
0
  6
CONTINUOUS
 10
3.721080
 20
1.021680
  0
VERTEX
  8
0
  6
CONTINUOUS
 10
3.086600
 20
1.407120
  0
VERTEX
  8
0
  6
CONTINUOUS
 10
3.168000
 20
1.467840
  0
SEQEND
  8
0
  0
SOLID
  8
0
 62
    15
 10
3.086600
 20
1.407120
 11
3.721080
 21
1.021680
 12
3.004320
 22
1.367960
 13
3.638800
 23
0.982080
  0
POLYLINE
  8
0
  6
CONTINUOUS
 66
     1
 40
0.000000
 41
0.000000
  0
VERTEX
  8
0
  6
CONTINUOUS
 10
3.086600
 20
1.407120
  0
VERTEX
  8
0
  6
CONTINUOUS
 10
3.721080
 20
1.021680
  0
VERTEX
  8
0
  6
CONTINUOUS
 10
3.638800
 20
0.982080
  0
VERTEX
  8
0
  6
CONTINUOUS
 10
3.004320
 20
1.367960
  0
VERTEX
  8
0
  6
CONTINUOUS
 10
3.086600
 20
1.407120
  0
SEQEND
  8
0
  0
SOLID
  8
0
 62
    15
 10
3.977600
 20
2.517240
 11
4.612080
 21
2.131360
 12
3.864960
 22
2.485560
 13
4.499880
 23
2.099680
  0
POLYLINE
  8
0
  6
CONTINUOUS
 66
     1
 40
0.000000
 41
0.000000
  0
VERTEX
  8
0
  6
CONTINUOUS
 10
3.977600
 20
2.517240
  0
VERTEX
  8
0
  6
CONTINUOUS
 10
4.612080
 20
2.131360
  0
VERTEX
  8
0
  6
CONTINUOUS
 10
4.499880
 20
2.099680
  0
VERTEX
  8
0
  6
CONTINUOUS
 10
3.864960
 20
2.485560
  0
VERTEX
  8
0
  6
CONTINUOUS
 10
3.977600
 20
2.517240
  0
SEQEND
  8
0
  0
SOLID
  8
0
 62
    15
 10
2.923360
 20
1.353880
 11
3.558280
 21
0.968000
 12
2.923360
 22
1.286120
 13
3.558280
 23
0.900240
  0
POLYLINE
  8
0
  6
CONTINUOUS
 66
     1
 40
0.000000
 41
0.000000
  0
VERTEX
  8
0
  6
CONTINUOUS
 10
2.923360
 20
1.353880
  0
VERTEX
  8
0
  6
CONTINUOUS
 10
3.558280
 20
0.968000
  0
VERTEX
  8
0
  6
CONTINUOUS
 10
3.558280
 20
0.900240
  0
VERTEX
  8
0
  6
CONTINUOUS
 10
2.923360
 20
1.286120
  0
VERTEX
  8
0
  6
CONTINUOUS
 10
2.923360
 20
1.353880
  0
SEQEND
  8
0
  0
SOLID
  8
0
 62
    15
 10
3.030280
 20
1.246520
 11
3.664760
 21
0.861080
 12
3.069440
 22
1.218800
 13
3.703920
 23
0.832920
  0
POLYLINE
  8
0
  6
CONTINUOUS
 66
     1
 40
0.000000
 41
0.000000
  0
VERTEX
  8
0
  6
CONTINUOUS
 10
3.030280
 20
1.246520
  0
VERTEX
  8
0
  6
CONTINUOUS
 10
3.664760
 20
0.861080
  0
VERTEX
  8
0
  6
CONTINUOUS
 10
3.703920
 20
0.832920
  0
VERTEX
  8
0
  6
CONTINUOUS
 10
3.069440
 20
1.218800
  0
VERTEX
  8
0
  6
CONTINUOUS
 10
3.030280
 20
1.246520
  0
SEQEND
  8
0
  0
SOLID
  8
0
 62
    15
 10
3.069440
 20
1.218800
 11
3.703920
 21
0.832920
 12
3.099360
 22
1.187120
 13
3.733840
 23
0.801240
  0
POLYLINE
  8
0
  6
CONTINUOUS
 66
     1
 40
0.000000
 41
0.000000
  0
VERTEX
  8
0
  6
CONTINUOUS
 10
3.069440
 20
1.218800
  0
VERTEX
  8
0
  6
CONTINUOUS
 10
3.703920
 20
0.832920
  0
VERTEX
  8
0
  6
CONTINUOUS
 10
3.733840
 20
0.801240
  0
VERTEX
  8
0
  6
CONTINUOUS
 10
3.099360
 20
1.187120
  0
VERTEX
  8
0
  6
CONTINUOUS
 10
3.069440
 20
1.218800
  0
SEQEND
  8
0
  0
SOLID
  8
0
 62
    15
 10
3.099360
 20
1.187120
 11
3.733840
 21
0.801240
 12
3.120480
 22
1.152360
 13
3.755400
 23
0.766480
  0
POLYLINE
  8
0
  6
CONTINUOUS
 66
     1
 40
0.000000
 41
0.000000
  0
VERTEX
  8
0
  6
CONTINUOUS
 10
3.099360
 20
1.187120
  0
VERTEX
  8
0
  6
CONTINUOUS
 10
3.733840
 20
0.801240
  0
VERTEX
  8
0
  6
CONTINUOUS
 10
3.755400
 20
0.766480
  0
VERTEX
  8
0
  6
CONTINUOUS
 10
3.120480
 20
1.152360
  0
VERTEX
  8
0
  6
CONTINUOUS
 10
3.099360
 20
1.187120
  0
SEQEND
  8
0
  0
SOLID
  8
0
 62
    15
 10
3.120480
 20
1.152360
 11
3.755400
 21
0.766480
 12
3.133240
 22
1.114960
 13
3.768160
 23
0.729080
  0
POLYLINE
  8
0
  6
CONTINUOUS
 66
     1
 40
0.000000
 41
0.000000
  0
VERTEX
  8
0
  6
CONTINUOUS
 10
3.120480
 20
1.152360
  0
VERTEX
  8
0
  6
CONTINUOUS
 10
3.755400
 20
0.766480
  0
VERTEX
  8
0
  6
CONTINUOUS
 10
3.768160
 20
0.729080
  0
VERTEX
  8
0
  6
CONTINUOUS
 10
3.133240
 20
1.114960
  0
VERTEX
  8
0
  6
CONTINUOUS
 10
3.120480
 20
1.152360
  0
SEQEND
  8
0
  0
SOLID
  8
0
 62
    15
 10
3.133240
 20
1.114960
 11
3.768160
 21
0.729080
 12
3.135000
 22
1.038840
 13
3.769920
 23
0.652960
  0
POLYLINE
  8
0
  6
CONTINUOUS
 66
     1
 40
0.000000
 41
0.000000
  0
VERTEX
  8
0
  6
CONTINUOUS
 10
3.133240
 20
1.114960
  0
VERTEX
  8
0
  6
CONTINUOUS
 10
3.768160
 20
0.729080
  0
VERTEX
  8
0
  6
CONTINUOUS
 10
3.769920
 20
0.652960
  0
VERTEX
  8
0
  6
CONTINUOUS
 10
3.135000
 20
1.038840
  0
VERTEX
  8
0
  6
CONTINUOUS
 10
3.133240
 20
1.114960
  0
SEQEND
  8
0
  0
SOLID
  8
0
 62
    15
 10
3.135000
 20
1.038840
 11
3.769920
 21
0.652960
 12
3.107720
 22
0.965360
 13
3.742200
 23
0.579480
  0
POLYLINE
  8
0
  6
CONTINUOUS
 66
     1
 40
0.000000
 41
0.000000
  0
VERTEX
  8
0
  6
CONTINUOUS
 10
3.135000
 20
1.038840
  0
VERTEX
  8
0
  6
CONTINUOUS
 10
3.769920
 20
0.652960
  0
VERTEX
  8
0
  6
CONTINUOUS
 10
3.742200
 20
0.579480
  0
VERTEX
  8
0
  6
CONTINUOUS
 10
3.107720
 20
0.965360
  0
VERTEX
  8
0
  6
CONTINUOUS
 10
3.135000
 20
1.038840
  0
SEQEND
  8
0
  0
SOLID
  8
0
 62
    15
 10
3.107720
 20
0.965360
 11
3.742200
 21
0.579480
 12
3.053160
 22
0.903760
 13
3.688080
 23
0.517880
  0
POLYLINE
  8
0
  6
CONTINUOUS
 66
     1
 40
0.000000
 41
0.000000
  0
VERTEX
  8
0
  6
CONTINUOUS
 10
3.107720
 20
0.965360
  0
VERTEX
  8
0
  6
CONTINUOUS
 10
3.742200
 20
0.579480
  0
VERTEX
  8
0
  6
CONTINUOUS
 10
3.688080
 20
0.517880
  0
VERTEX
  8
0
  6
CONTINUOUS
 10
3.053160
 20
0.903760
  0
VERTEX
  8
0
  6
CONTINUOUS
 10
3.107720
 20
0.965360
  0
SEQEND
  8
0
  0
SOLID
  8
0
 62
    15
 10
3.053160
 20
0.903760
 11
3.688080
 21
0.517880
 12
2.974840
 22
0.860640
 13
3.609760
 23
0.474760
  0
POLYLINE
  8
0
  6
CONTINUOUS
 66
     1
 40
0.000000
 41
0.000000
  0
VERTEX
  8
0
  6
CONTINUOUS
 10
3.053160
 20
0.903760
  0
VERTEX
  8
0
  6
CONTINUOUS
 10
3.688080
 20
0.517880
  0
VERTEX
  8
0
  6
CONTINUOUS
 10
3.609760
 20
0.474760
  0
VERTEX
  8
0
  6
CONTINUOUS
 10
2.974840
 20
0.860640
  0
VERTEX
  8
0
  6
CONTINUOUS
 10
3.053160
 20
0.903760
  0
SEQEND
  8
0
  0
SOLID
  8
0
 62
    15
 10
2.974840
 20
0.860640
 11
3.609760
 21
0.474760
 12
2.927760
 22
0.848760
 13
3.562680
 23
0.462880
  0
POLYLINE
  8
0
  6
CONTINUOUS
 66
     1
 40
0.000000
 41
0.000000
  0
VERTEX
  8
0
  6
CONTINUOUS
 10
2.974840
 20
0.860640
  0
VERTEX
  8
0
  6
CONTINUOUS
 10
3.609760
 20
0.474760
  0
VERTEX
  8
0
  6
CONTINUOUS
 10
3.562680
 20
0.462880
  0
VERTEX
  8
0
  6
CONTINUOUS
 10
2.927760
 20
0.848760
  0
VERTEX
  8
0
  6
CONTINUOUS
 10
2.974840
 20
0.860640
  0
SEQEND
  8
0
  0
SOLID
  8
0
 62
    15
 10
2.927760
 20
0.848760
 11
3.562680
 21
0.462880
 12
2.875840
 22
0.844360
 13
3.510320
 23
0.458920
  0
POLYLINE
  8
0
  6
CONTINUOUS
 66
     1
 40
0.000000
 41
0.000000
  0
VERTEX
  8
0
  6
CONTINUOUS
 10
2.927760
 20
0.848760
  0
VERTEX
  8
0
  6
CONTINUOUS
 10
3.562680
 20
0.462880
  0
VERTEX
  8
0
  6
CONTINUOUS
 10
3.510320
 20
0.458920
  0
VERTEX
  8
0
  6
CONTINUOUS
 10
2.875840
 20
0.844360
  0
VERTEX
  8
0
  6
CONTINUOUS
 10
2.927760
 20
0.848760
  0
SEQEND
  8
0
  0
SOLID
  8
0
 62
    15
 10
2.875840
 20
0.844360
 11
3.510320
 21
0.458920
 12
2.233440
 22
0.844360
 13
2.868360
 23
0.458920
  0
POLYLINE
  8
0
  6
CONTINUOUS
 66
     1
 40
0.000000
 41
0.000000
  0
VERTEX
  8
0
  6
CONTINUOUS
 10
2.875840
 20
0.844360
  0
VERTEX
  8
0
  6
CONTINUOUS
 10
3.510320
 20
0.458920
  0
VERTEX
  8
0
  6
CONTINUOUS
 10
2.868360
 20
0.458920
  0
VERTEX
  8
0
  6
CONTINUOUS
 10
2.233440
 20
0.844360
  0
VERTEX
  8
0
  6
CONTINUOUS
 10
2.875840
 20
0.844360
  0
SEQEND
  8
0
  0
SOLID
  8
0
 62
    15
 10
3.978920
 20
2.984520
 11
4.613840
 21
2.598640
 12
3.978920
 22
2.519000
 13
4.613840
 23
2.133120
  0
POLYLINE
  8
0
  6
CONTINUOUS
 66
     1
 40
0.000000
 41
0.000000
  0
VERTEX
  8
0
  6
CONTINUOUS
 10
3.978920
 20
2.984520
  0
VERTEX
  8
0
  6
CONTINUOUS
 10
4.613840
 20
2.598640
  0
VERTEX
  8
0
  6
CONTINUOUS
 10
4.613840
 20
2.133120
  0
VERTEX
  8
0
  6
CONTINUOUS
 10
3.978920
 20
2.519000
  0
VERTEX
  8
0
  6
CONTINUOUS
 10
3.978920
 20
2.984520
  0
SEQEND
  8
0
  0
SOLID
  8
0
 62
    15
 10
3.978920
 20
2.519000
 11
4.613840
 21
2.133120
 12
3.977600
 22
2.517240
 13
4.612080
 23
2.131360
  0
POLYLINE
  8
0
  6
CONTINUOUS
 66
     1
 40
0.000000
 41
0.000000
  0
VERTEX
  8
0
  6
CONTINUOUS
 10
3.978920
 20
2.519000
  0
VERTEX
  8
0
  6
CONTINUOUS
 10
4.613840
 20
2.133120
  0
VERTEX
  8
0
  6
CONTINUOUS
 10
4.612080
 20
2.131360
  0
VERTEX
  8
0
  6
CONTINUOUS
 10
3.977600
 20
2.517240
  0
VERTEX
  8
0
  6
CONTINUOUS
 10
3.978920
 20
2.519000
  0
SEQEND
  8
0
  0
POLYLINE
  8
0
  6
CONTINUOUS
 66
     1
 40
0.000000
 41
0.000000
  0
VERTEX
  8
0
  6
CONTINUOUS
 10
3.977600
 20
2.517240
  0
VERTEX
  8
0
  6
CONTINUOUS
 10
3.864960
 20
2.485560
  0
VERTEX
  8
0
  6
CONTINUOUS
 10
3.770360
 20
2.439360
  0
VERTEX
  8
0
  6
CONTINUOUS
 10
3.691600
 20
2.379520
  0
VERTEX
  8
0
  6
CONTINUOUS
 10
3.626480
 20
2.308680
  0
VERTEX
  8
0
  6
CONTINUOUS
 10
3.573240
 20
2.227280
  0
VERTEX
  8
0
  6
CONTINUOUS
 10
3.530120
 20
2.137960
  0
VERTEX
  8
0
  6
CONTINUOUS
 10
3.464560
 20
1.941720
  0
VERTEX
  8
0
  6
CONTINUOUS
 10
3.428920
 20
1.837880
  0
VERTEX
  8
0
  6
CONTINUOUS
 10
3.378760
 20
1.734480
  0
VERTEX
  8
0
  6
CONTINUOUS
 10
3.316720
 20
1.635480
  0
VERTEX
  8
0
  6
CONTINUOUS
 10
3.245440
 20
1.545280
  0
VERTEX
  8
0
  6
CONTINUOUS
 10
3.168000
 20
1.467840
  0
VERTEX
  8
0
  6
CONTINUOUS
 10
3.086600
 20
1.407120
  0
VERTEX
  8
0
  6
CONTINUOUS
 10
3.004320
 20
1.367960
  0
VERTEX
  8
0
  6
CONTINUOUS
 10
2.923360
 20
1.353880
  0
VERTEX
  8
0
  6
CONTINUOUS
 10
2.923360
 20
1.286120
  0
VERTEX
  8
0
  6
CONTINUOUS
 10
2.981880
 20
1.269400
  0
VERTEX
  8
0
  6
CONTINUOUS
 10
3.030280
 20
1.246520
  0
VERTEX
  8
0
  6
CONTINUOUS
 10
3.069440
 20
1.218800
  0
VERTEX
  8
0
  6
CONTINUOUS
 10
3.099360
 20
1.187120
  0
VERTEX
  8
0
  6
CONTINUOUS
 10
3.120480
 20
1.152360
  0
VERTEX
  8
0
  6
CONTINUOUS
 10
3.133240
 20
1.114960
  0
VERTEX
  8
0
  6
CONTINUOUS
 10
3.135000
 20
1.038840
  0
VERTEX
  8
0
  6
CONTINUOUS
 10
3.107720
 20
0.965360
  0
VERTEX
  8
0
  6
CONTINUOUS
 10
3.053160
 20
0.903760
  0
VERTEX
  8
0
  6
CONTINUOUS
 10
2.974840
 20
0.860640
  0
VERTEX
  8
0
  6
CONTINUOUS
 10
2.927760
 20
0.848760
  0
VERTEX
  8
0
  6
CONTINUOUS
 10
2.875840
 20
0.844360
  0
VERTEX
  8
0
  6
CONTINUOUS
 10
2.233440
 20
0.844360
  0
VERTEX
  8
0
  6
CONTINUOUS
 10
2.233440
 20
2.984520
  0
VERTEX
  8
0
  6
CONTINUOUS
 10
3.978920
 20
2.984520
  0
VERTEX
  8
0
  6
CONTINUOUS
 10
3.978920
 20
2.519000
  0
VERTEX
  8
0
  6
CONTINUOUS
 10
3.977600
 20
2.517240
  0
SEQEND
  8
0
  0
TEXT
  8
0
 10
4.144800
 20
0.651200
 40
0.138108
  1
BA  462
 41
1.000000
  7
SN0
 71
     0
 72
     5
 11
4.735935
 21
0.651200
  0
TEXT
  8
0
 10
3.915120
 20
0.459360
 40
0.138108
  1
1-3/4" x 2-1/8"
 41
1.000000
  7
SN0
 71
     0
 72
     5
 11
4.965565
 21
0.459360
  0
ENDSEC
  0
EOF
