  0
SECTION
  2
HEADER
  9
$ACADVER
  1
AC1006
  9
$EXTMIN
 10
4.684240
 20
0.462880
  9
$EXTMAX
 10
7.542040
 20
4.188360
  9
$LTSCALE
 40
0.044000
  9
$PDMODE
 70
    35
  9
$PDSIZE
 40
0.035200
  0
ENDSEC
  0
SECTION
  2
TABLES
  0
TABLE
  2
LTYPE
 70
     9
  0
LTYPE
  2
CONTINUOUS
 70
    64
  3
Solid line
 72
    65
 73
     0
 40
0.000000
  0
LTYPE
  2
DASHED
 70
    64
  3
__ __ __ __ __ __ __ __ __ __ __ __ __ __ __
 72
    65
 73
     2
 40
0.000330
 49
0.000220
 49
-0.000110
  0
LTYPE
  2
HIDDEN
 70
    64
  3
 _ _ _ _ _ _ _ _ _ _ _ _ _ _ _ _ _ _ _ _ _ _
 72
    65
 73
     2
 40
0.000165
 49
0.000110
 49
-0.000055
  0
LTYPE
  2
CENTER
 70
    64
  3
____ _ ____ _ ____ _ ____ _ ____ _ ____ _ ____
 72
    65
 73
     4
 40
0.000880
 49
0.000550
 49
-0.000110
 49
0.000110
 49
-0.000110
  0
LTYPE
  2
PHANTOM
 70
    64
  3
_____ _ _ _____ _ _ _____ _ _ _____ _ _ ____
 72
    65
 73
     6
 40
0.001100
 49
0.000550
 49
-0.000110
 49
0.000110
 49
-0.000110
 49
0.000110
 49
-0.000110
  0
LTYPE
  2
DOT
 70
    64
  3
...............................................
 72
    65
 73
     2
 40
0.000110
 49
0.000000
 49
-0.000110
  0
LTYPE
  2
DASHDOT
 70
    64
  3
__ . __ . __ . __ . __ . __ . __ . __ . __ . __
 72
    65
 73
     4
 40
0.000440
 49
0.000220
 49
-0.000110
 49
0.000000
 49
-0.000110
  0
LTYPE
  2
BORDER
 70
    64
  3
__ __ . __ __ . __ __ . __ __ . __ __ . __ __
 72
    65
 73
     6
 40
0.000770
 49
0.000220
 49
-0.000110
 49
0.000220
 49
-0.000110
 49
0.000000
 49
-0.000110
  0
LTYPE
  2
DIVIDE
 70
    64
  3
__ . . __ . . __ . . __ . . __ . . __ . . __
 72
    65
 73
     6
 40
0.000550
 49
0.000220
 49
-0.000110
 49
0.000000
 49
-0.000110
 49
0.000000
 49
-0.000110
  0
LTYPE
  2
DOTDOT
 70
    64
  3
 . .  . .  . .  . .  . .  . . 
 72
    65
 73
     5
 40
0.000242
 49
-0.000110
 49
0.000000
 49
-0.000110
 49
0.000000
 49
-0.000110
  0
ENDTAB
  0
TABLE
  2
STYLE
 70
     2
  0
STYLE
 70
     0
  2
SN0
 40
0.000000
 41
0.000440
 50
0.000000
 71
     0
 42
0.000000
  3
ROMAND
  0
STYLE
 70
    68
  2
SV0
 40
0.000000
 41
0.000440
 50
0.000000
 71
     0
 42
0.000000
  3
ROMAND
  0
ENDTAB
  0
TABLE
  2
LAYER
 70
     3
  0
LAYER
  2
FOREGROUND
 70
    64
 62
     7
  6
CONTINUOUS
  0
LAYER
  2
BACKGROUND
 70
    65
 62
    -7
  6
CONTINUOUS
  0
LAYER
  2
0
 70
    64
 62
     7
  6
CONTINUOUS
  0
ENDTAB
  0
ENDSEC
  0
SECTION
  2
ENTITIES
  0
POLYLINE
  8
FOREGROUND
  6
CONTINUOUS
 66
     1
 40
0.000000
 41
0.000000
  0
VERTEX
  8
FOREGROUND
  6
CONTINUOUS
 10
0.000000
 20
4.651240
  0
VERTEX
  8
FOREGROUND
  6
CONTINUOUS
 10
8.499920
 20
4.651240
  0
VERTEX
  8
FOREGROUND
  6
CONTINUOUS
 10
8.499920
 20
-6.348760
  0
VERTEX
  8
FOREGROUND
  6
CONTINUOUS
 10
0.000000
 20
-6.348760
  0
VERTEX
  8
FOREGROUND
  6
CONTINUOUS
 10
0.000000
 20
4.651240
  0
SEQEND
  8
0
  0
POLYLINE
  8
FOREGROUND
  6
CONTINUOUS
 66
     1
 40
0.000000
 41
0.000000
  0
VERTEX
  8
FOREGROUND
  6
CONTINUOUS
 10
0.000000
 20
4.651240
  0
VERTEX
  8
FOREGROUND
  6
CONTINUOUS
 10
8.499920
 20
4.651240
  0
VERTEX
  8
FOREGROUND
  6
CONTINUOUS
 10
8.499920
 20
-6.348760
  0
VERTEX
  8
FOREGROUND
  6
CONTINUOUS
 10
0.000000
 20
-6.348760
  0
VERTEX
  8
FOREGROUND
  6
CONTINUOUS
 10
0.000000
 20
4.651240
  0
SEQEND
  8
0
  0
SOLID
  8
0
 62
    15
 10
6.779960
 20
1.730080
 11
7.432480
 21
2.109360
 12
6.833640
 22
1.623600
 13
7.485720
 23
2.002880
  0
POLYLINE
  8
0
  6
CONTINUOUS
 66
     1
 40
0.000000
 41
0.000000
  0
VERTEX
  8
0
  6
CONTINUOUS
 10
6.779960
 20
1.730080
  0
VERTEX
  8
0
  6
CONTINUOUS
 10
7.432480
 20
2.109360
  0
VERTEX
  8
0
  6
CONTINUOUS
 10
7.485720
 20
2.002880
  0
VERTEX
  8
0
  6
CONTINUOUS
 10
6.833640
 20
1.623600
  0
VERTEX
  8
0
  6
CONTINUOUS
 10
6.779960
 20
1.730080
  0
SEQEND
  8
0
  0
SOLID
  8
0
 62
    15
 10
6.106760
 20
2.103200
 11
6.758840
 21
2.482040
 12
6.185520
 22
2.099680
 13
6.837600
 23
2.478960
  0
POLYLINE
  8
0
  6
CONTINUOUS
 66
     1
 40
0.000000
 41
0.000000
  0
VERTEX
  8
0
  6
CONTINUOUS
 10
6.106760
 20
2.103200
  0
VERTEX
  8
0
  6
CONTINUOUS
 10
6.758840
 20
2.482040
  0
VERTEX
  8
0
  6
CONTINUOUS
 10
6.837600
 20
2.478960
  0
VERTEX
  8
0
  6
CONTINUOUS
 10
6.185520
 20
2.099680
  0
VERTEX
  8
0
  6
CONTINUOUS
 10
6.106760
 20
2.103200
  0
SEQEND
  8
0
  0
SOLID
  8
0
 62
    15
 10
6.185520
 20
2.099680
 11
6.837600
 21
2.478960
 12
6.259880
 22
2.090000
 13
6.911960
 23
2.468840
  0
POLYLINE
  8
0
  6
CONTINUOUS
 66
     1
 40
0.000000
 41
0.000000
  0
VERTEX
  8
0
  6
CONTINUOUS
 10
6.185520
 20
2.099680
  0
VERTEX
  8
0
  6
CONTINUOUS
 10
6.837600
 20
2.478960
  0
VERTEX
  8
0
  6
CONTINUOUS
 10
6.911960
 20
2.468840
  0
VERTEX
  8
0
  6
CONTINUOUS
 10
6.259880
 20
2.090000
  0
VERTEX
  8
0
  6
CONTINUOUS
 10
6.185520
 20
2.099680
  0
SEQEND
  8
0
  0
SOLID
  8
0
 62
    15
 10
6.259880
 20
2.090000
 11
6.911960
 21
2.468840
 12
6.330720
 22
2.074160
 13
6.982800
 23
2.453000
  0
POLYLINE
  8
0
  6
CONTINUOUS
 66
     1
 40
0.000000
 41
0.000000
  0
VERTEX
  8
0
  6
CONTINUOUS
 10
6.259880
 20
2.090000
  0
VERTEX
  8
0
  6
CONTINUOUS
 10
6.911960
 20
2.468840
  0
VERTEX
  8
0
  6
CONTINUOUS
 10
6.982800
 20
2.453000
  0
VERTEX
  8
0
  6
CONTINUOUS
 10
6.330720
 20
2.074160
  0
VERTEX
  8
0
  6
CONTINUOUS
 10
6.259880
 20
2.090000
  0
SEQEND
  8
0
  0
SOLID
  8
0
 62
    15
 10
6.330720
 20
2.074160
 11
6.982800
 21
2.453000
 12
6.397160
 22
2.052600
 13
7.049240
 23
2.431440
  0
POLYLINE
  8
0
  6
CONTINUOUS
 66
     1
 40
0.000000
 41
0.000000
  0
VERTEX
  8
0
  6
CONTINUOUS
 10
6.330720
 20
2.074160
  0
VERTEX
  8
0
  6
CONTINUOUS
 10
6.982800
 20
2.453000
  0
VERTEX
  8
0
  6
CONTINUOUS
 10
7.049240
 20
2.431440
  0
VERTEX
  8
0
  6
CONTINUOUS
 10
6.397160
 20
2.052600
  0
VERTEX
  8
0
  6
CONTINUOUS
 10
6.330720
 20
2.074160
  0
SEQEND
  8
0
  0
SOLID
  8
0
 62
    15
 10
6.397160
 20
2.052600
 11
7.049240
 21
2.431440
 12
6.459640
 22
2.025760
 13
7.111720
 23
2.405040
  0
POLYLINE
  8
0
  6
CONTINUOUS
 66
     1
 40
0.000000
 41
0.000000
  0
VERTEX
  8
0
  6
CONTINUOUS
 10
6.397160
 20
2.052600
  0
VERTEX
  8
0
  6
CONTINUOUS
 10
7.049240
 20
2.431440
  0
VERTEX
  8
0
  6
CONTINUOUS
 10
7.111720
 20
2.405040
  0
VERTEX
  8
0
  6
CONTINUOUS
 10
6.459640
 20
2.025760
  0
VERTEX
  8
0
  6
CONTINUOUS
 10
6.397160
 20
2.052600
  0
SEQEND
  8
0
  0
SOLID
  8
0
 62
    15
 10
6.459640
 20
2.025760
 11
7.111720
 21
2.405040
 12
6.517720
 22
1.994520
 13
7.169800
 23
2.373360
  0
POLYLINE
  8
0
  6
CONTINUOUS
 66
     1
 40
0.000000
 41
0.000000
  0
VERTEX
  8
0
  6
CONTINUOUS
 10
6.459640
 20
2.025760
  0
VERTEX
  8
0
  6
CONTINUOUS
 10
7.111720
 20
2.405040
  0
VERTEX
  8
0
  6
CONTINUOUS
 10
7.169800
 20
2.373360
  0
VERTEX
  8
0
  6
CONTINUOUS
 10
6.517720
 20
1.994520
  0
VERTEX
  8
0
  6
CONTINUOUS
 10
6.459640
 20
2.025760
  0
SEQEND
  8
0
  0
SOLID
  8
0
 62
    15
 10
6.517720
 20
1.994520
 11
7.169800
 21
2.373360
 12
6.622000
 22
1.919280
 13
7.274080
 23
2.298120
  0
POLYLINE
  8
0
  6
CONTINUOUS
 66
     1
 40
0.000000
 41
0.000000
  0
VERTEX
  8
0
  6
CONTINUOUS
 10
6.517720
 20
1.994520
  0
VERTEX
  8
0
  6
CONTINUOUS
 10
7.169800
 20
2.373360
  0
VERTEX
  8
0
  6
CONTINUOUS
 10
7.274080
 20
2.298120
  0
VERTEX
  8
0
  6
CONTINUOUS
 10
6.622000
 20
1.919280
  0
VERTEX
  8
0
  6
CONTINUOUS
 10
6.517720
 20
1.994520
  0
SEQEND
  8
0
  0
SOLID
  8
0
 62
    15
 10
6.622000
 20
1.919280
 11
7.274080
 21
2.298120
 12
6.709560
 22
1.829960
 13
7.361640
 23
2.208800
  0
POLYLINE
  8
0
  6
CONTINUOUS
 66
     1
 40
0.000000
 41
0.000000
  0
VERTEX
  8
0
  6
CONTINUOUS
 10
6.622000
 20
1.919280
  0
VERTEX
  8
0
  6
CONTINUOUS
 10
7.274080
 20
2.298120
  0
VERTEX
  8
0
  6
CONTINUOUS
 10
7.361640
 20
2.208800
  0
VERTEX
  8
0
  6
CONTINUOUS
 10
6.709560
 20
1.829960
  0
VERTEX
  8
0
  6
CONTINUOUS
 10
6.622000
 20
1.919280
  0
SEQEND
  8
0
  0
SOLID
  8
0
 62
    15
 10
6.709560
 20
1.829960
 11
7.361640
 21
2.208800
 12
6.779960
 22
1.730080
 13
7.432480
 23
2.109360
  0
POLYLINE
  8
0
  6
CONTINUOUS
 66
     1
 40
0.000000
 41
0.000000
  0
VERTEX
  8
0
  6
CONTINUOUS
 10
6.709560
 20
1.829960
  0
VERTEX
  8
0
  6
CONTINUOUS
 10
7.361640
 20
2.208800
  0
VERTEX
  8
0
  6
CONTINUOUS
 10
7.432480
 20
2.109360
  0
VERTEX
  8
0
  6
CONTINUOUS
 10
6.779960
 20
1.730080
  0
VERTEX
  8
0
  6
CONTINUOUS
 10
6.709560
 20
1.829960
  0
SEQEND
  8
0
  0
SOLID
  8
0
 62
    15
 10
4.684680
 20
2.103200
 11
5.336760
 21
2.482040
 12
6.106760
 22
2.103200
 13
6.758840
 23
2.482040
  0
POLYLINE
  8
0
  6
CONTINUOUS
 66
     1
 40
0.000000
 41
0.000000
  0
VERTEX
  8
0
  6
CONTINUOUS
 10
4.684680
 20
2.103200
  0
VERTEX
  8
0
  6
CONTINUOUS
 10
5.336760
 20
2.482040
  0
VERTEX
  8
0
  6
CONTINUOUS
 10
6.758840
 20
2.482040
  0
VERTEX
  8
0
  6
CONTINUOUS
 10
6.106760
 20
2.103200
  0
VERTEX
  8
0
  6
CONTINUOUS
 10
4.684680
 20
2.103200
  0
SEQEND
  8
0
  0
SOLID
  8
0
 62
    15
 10
6.833640
 20
1.623600
 11
7.485720
 21
2.002880
 12
6.869720
 22
1.513600
 13
7.522240
 23
1.892880
  0
POLYLINE
  8
0
  6
CONTINUOUS
 66
     1
 40
0.000000
 41
0.000000
  0
VERTEX
  8
0
  6
CONTINUOUS
 10
6.833640
 20
1.623600
  0
VERTEX
  8
0
  6
CONTINUOUS
 10
7.485720
 20
2.002880
  0
VERTEX
  8
0
  6
CONTINUOUS
 10
7.522240
 20
1.892880
  0
VERTEX
  8
0
  6
CONTINUOUS
 10
6.869720
 20
1.513600
  0
VERTEX
  8
0
  6
CONTINUOUS
 10
6.833640
 20
1.623600
  0
SEQEND
  8
0
  0
SOLID
  8
0
 62
    15
 10
6.869720
 20
1.513600
 11
7.522240
 21
1.892880
 12
6.888640
 22
1.403600
 13
7.540720
 23
1.782880
  0
POLYLINE
  8
0
  6
CONTINUOUS
 66
     1
 40
0.000000
 41
0.000000
  0
VERTEX
  8
0
  6
CONTINUOUS
 10
6.869720
 20
1.513600
  0
VERTEX
  8
0
  6
CONTINUOUS
 10
7.522240
 20
1.892880
  0
VERTEX
  8
0
  6
CONTINUOUS
 10
7.540720
 20
1.782880
  0
VERTEX
  8
0
  6
CONTINUOUS
 10
6.888640
 20
1.403600
  0
VERTEX
  8
0
  6
CONTINUOUS
 10
6.869720
 20
1.513600
  0
SEQEND
  8
0
  0
SOLID
  8
0
 62
    15
 10
6.888640
 20
1.403600
 11
7.540720
 21
1.782880
 12
6.889520
 22
1.297120
 13
7.542040
 23
1.675960
  0
POLYLINE
  8
0
  6
CONTINUOUS
 66
     1
 40
0.000000
 41
0.000000
  0
VERTEX
  8
0
  6
CONTINUOUS
 10
6.888640
 20
1.403600
  0
VERTEX
  8
0
  6
CONTINUOUS
 10
7.540720
 20
1.782880
  0
VERTEX
  8
0
  6
CONTINUOUS
 10
7.542040
 20
1.675960
  0
VERTEX
  8
0
  6
CONTINUOUS
 10
6.889520
 20
1.297120
  0
VERTEX
  8
0
  6
CONTINUOUS
 10
6.888640
 20
1.403600
  0
SEQEND
  8
0
  0
SOLID
  8
0
 62
    15
 10
6.889520
 20
1.297120
 11
7.542040
 21
1.675960
 12
6.872800
 22
1.197680
 13
7.524880
 23
1.576520
  0
POLYLINE
  8
0
  6
CONTINUOUS
 66
     1
 40
0.000000
 41
0.000000
  0
VERTEX
  8
0
  6
CONTINUOUS
 10
6.889520
 20
1.297120
  0
VERTEX
  8
0
  6
CONTINUOUS
 10
7.542040
 20
1.675960
  0
VERTEX
  8
0
  6
CONTINUOUS
 10
7.524880
 20
1.576520
  0
VERTEX
  8
0
  6
CONTINUOUS
 10
6.872800
 20
1.197680
  0
VERTEX
  8
0
  6
CONTINUOUS
 10
6.889520
 20
1.297120
  0
SEQEND
  8
0
  0
SOLID
  8
0
 62
    15
 10
6.872800
 20
1.197680
 11
7.524880
 21
1.576520
 12
6.838040
 22
1.107920
 13
7.490120
 23
1.486760
  0
POLYLINE
  8
0
  6
CONTINUOUS
 66
     1
 40
0.000000
 41
0.000000
  0
VERTEX
  8
0
  6
CONTINUOUS
 10
6.872800
 20
1.197680
  0
VERTEX
  8
0
  6
CONTINUOUS
 10
7.524880
 20
1.576520
  0
VERTEX
  8
0
  6
CONTINUOUS
 10
7.490120
 20
1.486760
  0
VERTEX
  8
0
  6
CONTINUOUS
 10
6.838040
 20
1.107920
  0
VERTEX
  8
0
  6
CONTINUOUS
 10
6.872800
 20
1.197680
  0
SEQEND
  8
0
  0
SOLID
  8
0
 62
    15
 10
6.838040
 20
1.107920
 11
7.490120
 21
1.486760
 12
6.813840
 22
1.068320
 13
7.465920
 23
1.447160
  0
POLYLINE
  8
0
  6
CONTINUOUS
 66
     1
 40
0.000000
 41
0.000000
  0
VERTEX
  8
0
  6
CONTINUOUS
 10
6.838040
 20
1.107920
  0
VERTEX
  8
0
  6
CONTINUOUS
 10
7.490120
 20
1.486760
  0
VERTEX
  8
0
  6
CONTINUOUS
 10
7.465920
 20
1.447160
  0
VERTEX
  8
0
  6
CONTINUOUS
 10
6.813840
 20
1.068320
  0
VERTEX
  8
0
  6
CONTINUOUS
 10
6.838040
 20
1.107920
  0
SEQEND
  8
0
  0
SOLID
  8
0
 62
    15
 10
6.813840
 20
1.068320
 11
7.465920
 21
1.447160
 12
6.785240
 22
1.032240
 13
7.437320
 23
1.411520
  0
POLYLINE
  8
0
  6
CONTINUOUS
 66
     1
 40
0.000000
 41
0.000000
  0
VERTEX
  8
0
  6
CONTINUOUS
 10
6.813840
 20
1.068320
  0
VERTEX
  8
0
  6
CONTINUOUS
 10
7.465920
 20
1.447160
  0
VERTEX
  8
0
  6
CONTINUOUS
 10
7.437320
 20
1.411520
  0
VERTEX
  8
0
  6
CONTINUOUS
 10
6.785240
 20
1.032240
  0
VERTEX
  8
0
  6
CONTINUOUS
 10
6.813840
 20
1.068320
  0
SEQEND
  8
0
  0
SOLID
  8
0
 62
    15
 10
6.751360
 20
1.001000
 11
7.403880
 21
1.379840
 12
6.713520
 22
0.973720
 13
7.365600
 23
1.353000
  0
POLYLINE
  8
0
  6
CONTINUOUS
 66
     1
 40
0.000000
 41
0.000000
  0
VERTEX
  8
0
  6
CONTINUOUS
 10
6.751360
 20
1.001000
  0
VERTEX
  8
0
  6
CONTINUOUS
 10
7.403880
 20
1.379840
  0
VERTEX
  8
0
  6
CONTINUOUS
 10
7.365600
 20
1.353000
  0
VERTEX
  8
0
  6
CONTINUOUS
 10
6.713520
 20
0.973720
  0
VERTEX
  8
0
  6
CONTINUOUS
 10
6.751360
 20
1.001000
  0
SEQEND
  8
0
  0
SOLID
  8
0
 62
    15
 10
6.785240
 20
1.032240
 11
7.437320
 21
1.411520
 12
6.751360
 22
1.001000
 13
7.403880
 23
1.379840
  0
POLYLINE
  8
0
  6
CONTINUOUS
 66
     1
 40
0.000000
 41
0.000000
  0
VERTEX
  8
0
  6
CONTINUOUS
 10
6.785240
 20
1.032240
  0
VERTEX
  8
0
  6
CONTINUOUS
 10
7.437320
 20
1.411520
  0
VERTEX
  8
0
  6
CONTINUOUS
 10
7.403880
 20
1.379840
  0
VERTEX
  8
0
  6
CONTINUOUS
 10
6.751360
 20
1.001000
  0
VERTEX
  8
0
  6
CONTINUOUS
 10
6.785240
 20
1.032240
  0
SEQEND
  8
0
  0
POLYLINE
  8
0
  6
CONTINUOUS
 66
     1
 40
0.000000
 41
0.000000
  0
VERTEX
  8
0
  6
CONTINUOUS
 10
4.684680
 20
0.922240
  0
VERTEX
  8
0
  6
CONTINUOUS
 10
4.684680
 20
2.103200
  0
VERTEX
  8
0
  6
CONTINUOUS
 10
6.106760
 20
2.103200
  0
VERTEX
  8
0
  6
CONTINUOUS
 10
6.185520
 20
2.099680
  0
VERTEX
  8
0
  6
CONTINUOUS
 10
6.259880
 20
2.090000
  0
VERTEX
  8
0
  6
CONTINUOUS
 10
6.330720
 20
2.074160
  0
VERTEX
  8
0
  6
CONTINUOUS
 10
6.397160
 20
2.052600
  0
VERTEX
  8
0
  6
CONTINUOUS
 10
6.459640
 20
2.025760
  0
VERTEX
  8
0
  6
CONTINUOUS
 10
6.517720
 20
1.994520
  0
VERTEX
  8
0
  6
CONTINUOUS
 10
6.622000
 20
1.919280
  0
VERTEX
  8
0
  6
CONTINUOUS
 10
6.709560
 20
1.829960
  0
VERTEX
  8
0
  6
CONTINUOUS
 10
6.779960
 20
1.730080
  0
VERTEX
  8
0
  6
CONTINUOUS
 10
6.833640
 20
1.623600
  0
VERTEX
  8
0
  6
CONTINUOUS
 10
6.869720
 20
1.513600
  0
VERTEX
  8
0
  6
CONTINUOUS
 10
6.888640
 20
1.403600
  0
VERTEX
  8
0
  6
CONTINUOUS
 10
6.889520
 20
1.297120
  0
VERTEX
  8
0
  6
CONTINUOUS
 10
6.872800
 20
1.197680
  0
VERTEX
  8
0
  6
CONTINUOUS
 10
6.838040
 20
1.107920
  0
VERTEX
  8
0
  6
CONTINUOUS
 10
6.813840
 20
1.068320
  0
VERTEX
  8
0
  6
CONTINUOUS
 10
6.785240
 20
1.032240
  0
VERTEX
  8
0
  6
CONTINUOUS
 10
6.751360
 20
1.001000
  0
VERTEX
  8
0
  6
CONTINUOUS
 10
6.713520
 20
0.973720
  0
VERTEX
  8
0
  6
CONTINUOUS
 10
6.670840
 20
0.952160
  0
VERTEX
  8
0
  6
CONTINUOUS
 10
6.623320
 20
0.936320
  0
VERTEX
  8
0
  6
CONTINUOUS
 10
6.571400
 20
0.926200
  0
VERTEX
  8
0
  6
CONTINUOUS
 10
6.514640
 20
0.922240
  0
VERTEX
  8
0
  6
CONTINUOUS
 10
4.691720
 20
0.922240
  0
VERTEX
  8
0
  6
CONTINUOUS
 10
4.684680
 20
0.922240
  0
SEQEND
  8
0
  0
TEXT
  8
0
 10
5.815920
 20
0.699160
 40
0.138143
  1
BA  461
 41
1.000000
  7
SN0
 71
     0
 72
     5
 11
6.405850
 21
0.699160
  0
TEXT
  8
0
 10
5.494280
 20
0.507320
 40
0.138143
  1
1-3/16" x 2-3/16"
 41
1.000000
  7
SN0
 71
     0
 72
     5
 11
6.726110
 21
0.507320
  0
POLYLINE
  8
0
  6
CONTINUOUS
 66
     1
 40
0.000000
 41
0.000000
  0
VERTEX
  8
0
  6
CONTINUOUS
 10
4.839120
 20
3.006960
  0
VERTEX
  8
0
  6
CONTINUOUS
 10
6.662040
 20
3.006960
  0
VERTEX
  8
0
  6
CONTINUOUS
 10
6.691080
 20
3.007840
  0
VERTEX
  8
0
  6
CONTINUOUS
 10
6.718800
 20
3.010480
  0
VERTEX
  8
0
  6
CONTINUOUS
 10
6.771160
 20
3.020600
  0
VERTEX
  8
0
  6
CONTINUOUS
 10
6.818240
 20
3.036880
  0
VERTEX
  8
0
  6
CONTINUOUS
 10
6.860920
 20
3.058440
  0
VERTEX
  8
0
  6
CONTINUOUS
 10
6.899200
 20
3.085280
  0
VERTEX
  8
0
  6
CONTINUOUS
 10
6.932640
 20
3.116960
  0
VERTEX
  8
0
  6
CONTINUOUS
 10
6.961240
 20
3.153040
  0
VERTEX
  8
0
  6
CONTINUOUS
 10
6.985440
 20
3.192640
  0
VERTEX
  8
0
  6
CONTINUOUS
 10
7.005240
 20
3.235760
  0
VERTEX
  8
0
  6
CONTINUOUS
 10
7.020640
 20
3.281960
  0
VERTEX
  8
0
  6
CONTINUOUS
 10
7.031200
 20
3.330800
  0
VERTEX
  8
0
  6
CONTINUOUS
 10
7.037360
 20
3.381840
  0
VERTEX
  8
0
  6
CONTINUOUS
 10
7.039120
 20
3.434640
  0
VERTEX
  8
0
  6
CONTINUOUS
 10
7.036040
 20
3.488320
  0
VERTEX
  8
0
  6
CONTINUOUS
 10
7.029000
 20
3.543320
  0
VERTEX
  8
0
  6
CONTINUOUS
 10
7.017560
 20
3.598320
  0
VERTEX
  8
0
  6
CONTINUOUS
 10
7.001720
 20
3.653760
  0
VERTEX
  8
0
  6
CONTINUOUS
 10
6.981040
 20
3.708320
  0
VERTEX
  8
0
  6
CONTINUOUS
 10
6.956840
 20
3.762440
  0
VERTEX
  8
0
  6
CONTINUOUS
 10
6.927800
 20
3.814800
  0
VERTEX
  8
0
  6
CONTINUOUS
 10
6.894360
 20
3.865840
  0
VERTEX
  8
0
  6
CONTINUOUS
 10
6.856960
 20
3.914680
  0
VERTEX
  8
0
  6
CONTINUOUS
 10
6.815600
 20
3.960880
  0
VERTEX
  8
0
  6
CONTINUOUS
 10
6.769400
 20
4.003560
  0
VERTEX
  8
0
  6
CONTINUOUS
 10
6.719680
 20
4.043600
  0
VERTEX
  8
0
  6
CONTINUOUS
 10
6.665120
 20
4.079240
  0
VERTEX
  8
0
  6
CONTINUOUS
 10
6.607040
 20
4.110480
  0
VERTEX
  8
0
  6
CONTINUOUS
 10
6.544560
 20
4.137320
  0
VERTEX
  8
0
  6
CONTINUOUS
 10
6.478120
 20
4.158880
  0
VERTEX
  8
0
  6
CONTINUOUS
 10
6.443360
 20
4.167680
  0
VERTEX
  8
0
  6
CONTINUOUS
 10
6.370760
 20
4.180440
  0
VERTEX
  8
0
  6
CONTINUOUS
 10
6.294200
 20
4.187040
  0
VERTEX
  8
0
  6
CONTINUOUS
 10
6.254160
 20
4.187920
  0
VERTEX
  8
0
  6
CONTINUOUS
 10
4.832080
 20
4.187920
  0
VERTEX
  8
0
  6
CONTINUOUS
 10
4.832080
 20
3.006960
  0
VERTEX
  8
0
  6
CONTINUOUS
 10
4.839120
 20
3.006960
  0
SEQEND
  8
0
  0
ENDSEC
  0
EOF
