  0
SECTION
  2
HEADER
  9
$ACADVER
  1
AC1006
  9
$EXTMIN
 10
5.116320
 20
0.304480
  9
$EXTMAX
 10
7.023720
 20
2.021800
  9
$LTSCALE
 40
0.044000
  9
$PDMODE
 70
    35
  9
$PDSIZE
 40
0.035200
  0
ENDSEC
  0
SECTION
  2
TABLES
  0
TABLE
  2
LTYPE
 70
     9
  0
LTYPE
  2
CONTINUOUS
 70
    64
  3
Solid line
 72
    65
 73
     0
 40
0.000000
  0
LTYPE
  2
DASHED
 70
    64
  3
__ __ __ __ __ __ __ __ __ __ __ __ __ __ __
 72
    65
 73
     2
 40
0.000330
 49
0.000220
 49
-0.000110
  0
LTYPE
  2
HIDDEN
 70
    64
  3
 _ _ _ _ _ _ _ _ _ _ _ _ _ _ _ _ _ _ _ _ _ _
 72
    65
 73
     2
 40
0.000165
 49
0.000110
 49
-0.000055
  0
LTYPE
  2
CENTER
 70
    64
  3
____ _ ____ _ ____ _ ____ _ ____ _ ____ _ ____
 72
    65
 73
     4
 40
0.000880
 49
0.000550
 49
-0.000110
 49
0.000110
 49
-0.000110
  0
LTYPE
  2
PHANTOM
 70
    64
  3
_____ _ _ _____ _ _ _____ _ _ _____ _ _ ____
 72
    65
 73
     6
 40
0.001100
 49
0.000550
 49
-0.000110
 49
0.000110
 49
-0.000110
 49
0.000110
 49
-0.000110
  0
LTYPE
  2
DOT
 70
    64
  3
...............................................
 72
    65
 73
     2
 40
0.000110
 49
0.000000
 49
-0.000110
  0
LTYPE
  2
DASHDOT
 70
    64
  3
__ . __ . __ . __ . __ . __ . __ . __ . __ . __
 72
    65
 73
     4
 40
0.000440
 49
0.000220
 49
-0.000110
 49
0.000000
 49
-0.000110
  0
LTYPE
  2
BORDER
 70
    64
  3
__ __ . __ __ . __ __ . __ __ . __ __ . __ __
 72
    65
 73
     6
 40
0.000770
 49
0.000220
 49
-0.000110
 49
0.000220
 49
-0.000110
 49
0.000000
 49
-0.000110
  0
LTYPE
  2
DIVIDE
 70
    64
  3
__ . . __ . . __ . . __ . . __ . . __ . . __
 72
    65
 73
     6
 40
0.000550
 49
0.000220
 49
-0.000110
 49
0.000000
 49
-0.000110
 49
0.000000
 49
-0.000110
  0
LTYPE
  2
DOTDOT
 70
    64
  3
 . .  . .  . .  . .  . .  . . 
 72
    65
 73
     5
 40
0.000242
 49
-0.000110
 49
0.000000
 49
-0.000110
 49
0.000000
 49
-0.000110
  0
ENDTAB
  0
TABLE
  2
STYLE
 70
     2
  0
STYLE
 70
     0
  2
SN0
 40
0.000000
 41
0.000440
 50
0.000000
 71
     0
 42
0.000000
  3
ROMAND
  0
STYLE
 70
    68
  2
SV0
 40
0.000000
 41
0.000440
 50
0.000000
 71
     0
 42
0.000000
  3
ROMAND
  0
ENDTAB
  0
TABLE
  2
LAYER
 70
     3
  0
LAYER
  2
FOREGROUND
 70
    64
 62
     7
  6
CONTINUOUS
  0
LAYER
  2
BACKGROUND
 70
    65
 62
    -7
  6
CONTINUOUS
  0
LAYER
  2
0
 70
    64
 62
     7
  6
CONTINUOUS
  0
ENDTAB
  0
ENDSEC
  0
SECTION
  2
ENTITIES
  0
POLYLINE
  8
FOREGROUND
  6
CONTINUOUS
 66
     1
 40
0.000000
 41
0.000000
  0
VERTEX
  8
FOREGROUND
  6
CONTINUOUS
 10
0.000000
 20
2.326280
  0
VERTEX
  8
FOREGROUND
  6
CONTINUOUS
 10
8.499920
 20
2.326280
  0
VERTEX
  8
FOREGROUND
  6
CONTINUOUS
 10
8.499920
 20
-8.673720
  0
VERTEX
  8
FOREGROUND
  6
CONTINUOUS
 10
0.000000
 20
-8.673720
  0
VERTEX
  8
FOREGROUND
  6
CONTINUOUS
 10
0.000000
 20
2.326280
  0
SEQEND
  8
0
  0
POLYLINE
  8
FOREGROUND
  6
CONTINUOUS
 66
     1
 40
0.000000
 41
0.000000
  0
VERTEX
  8
FOREGROUND
  6
CONTINUOUS
 10
0.000000
 20
2.326280
  0
VERTEX
  8
FOREGROUND
  6
CONTINUOUS
 10
8.499920
 20
2.326280
  0
VERTEX
  8
FOREGROUND
  6
CONTINUOUS
 10
8.499920
 20
-8.673720
  0
VERTEX
  8
FOREGROUND
  6
CONTINUOUS
 10
0.000000
 20
-8.673720
  0
VERTEX
  8
FOREGROUND
  6
CONTINUOUS
 10
0.000000
 20
2.326280
  0
SEQEND
  8
0
  0
POLYLINE
  8
0
  6
CONTINUOUS
 66
     1
 40
0.014080
 41
0.014080
  0
VERTEX
  8
0
  6
CONTINUOUS
 10
6.538840
 20
1.042360
  0
VERTEX
  8
0
  6
CONTINUOUS
 10
6.538840
 20
1.914440
  0
VERTEX
  8
0
  6
CONTINUOUS
 10
6.805480
 20
1.914000
  0
VERTEX
  8
0
  6
CONTINUOUS
 10
6.832760
 20
1.911360
  0
VERTEX
  8
0
  6
CONTINUOUS
 10
6.857840
 20
1.905640
  0
VERTEX
  8
0
  6
CONTINUOUS
 10
6.881160
 20
1.897720
  0
VERTEX
  8
0
  6
CONTINUOUS
 10
6.912400
 20
1.881000
  0
VERTEX
  8
0
  6
CONTINUOUS
 10
6.930880
 20
1.867800
  0
VERTEX
  8
0
  6
CONTINUOUS
 10
6.947600
 20
1.852400
  0
VERTEX
  8
0
  6
CONTINUOUS
 10
6.962560
 20
1.835240
  0
VERTEX
  8
0
  6
CONTINUOUS
 10
6.975760
 20
1.816760
  0
VERTEX
  8
0
  6
CONTINUOUS
 10
6.987200
 20
1.796960
  0
VERTEX
  8
0
  6
CONTINUOUS
 10
6.996440
 20
1.775840
  0
VERTEX
  8
0
  6
CONTINUOUS
 10
7.010080
 20
1.731400
  0
VERTEX
  8
0
  6
CONTINUOUS
 10
7.014040
 20
1.708080
  0
VERTEX
  8
0
  6
CONTINUOUS
 10
7.016240
 20
1.684320
  0
VERTEX
  8
0
  6
CONTINUOUS
 10
7.016680
 20
1.660560
  0
VERTEX
  8
0
  6
CONTINUOUS
 10
7.012720
 20
1.613480
  0
VERTEX
  8
0
  6
CONTINUOUS
 10
7.007880
 20
1.590160
  0
VERTEX
  8
0
  6
CONTINUOUS
 10
7.001280
 20
1.567720
  0
VERTEX
  8
0
  6
CONTINUOUS
 10
6.983240
 20
1.524600
  0
VERTEX
  8
0
  6
CONTINUOUS
 10
6.971360
 20
1.504800
  0
VERTEX
  8
0
  6
CONTINUOUS
 10
6.958160
 20
1.486320
  0
VERTEX
  8
0
  6
CONTINUOUS
 10
6.943200
 20
1.469160
  0
VERTEX
  8
0
  6
CONTINUOUS
 10
6.917680
 20
1.446720
  0
VERTEX
  8
0
  6
CONTINUOUS
 10
6.888200
 20
1.429120
  0
VERTEX
  8
0
  6
CONTINUOUS
 10
6.866200
 20
1.419880
  0
VERTEX
  8
0
  6
CONTINUOUS
 10
6.842880
 20
1.412840
  0
VERTEX
  8
0
  6
CONTINUOUS
 10
6.817800
 20
1.408440
  0
VERTEX
  8
0
  6
CONTINUOUS
 10
6.791400
 20
1.407120
  0
VERTEX
  8
0
  6
CONTINUOUS
 10
6.791400
 20
1.254000
  0
VERTEX
  8
0
  6
CONTINUOUS
 10
6.750920
 20
1.240800
  0
VERTEX
  8
0
  6
CONTINUOUS
 10
6.726280
 20
1.228480
  0
VERTEX
  8
0
  6
CONTINUOUS
 10
6.704280
 20
1.211760
  0
VERTEX
  8
0
  6
CONTINUOUS
 10
6.685800
 20
1.188880
  0
VERTEX
  8
0
  6
CONTINUOUS
 10
6.670840
 20
1.158520
  0
VERTEX
  8
0
  6
CONTINUOUS
 10
6.660280
 20
1.119800
  0
VERTEX
  8
0
  6
CONTINUOUS
 10
6.655880
 20
1.084160
  0
VERTEX
  8
0
  6
CONTINUOUS
 10
6.654120
 20
1.041920
  0
VERTEX
  8
0
  6
CONTINUOUS
 10
6.538840
 20
1.042360
  0
SEQEND
  8
0
  0
SOLID
  8
0
 62
    15
 10
5.590640
 20
1.340240
 11
6.233920
 21
1.719960
 12
5.579200
 22
1.294480
 13
6.222920
 23
1.674200
  0
POLYLINE
  8
0
  6
CONTINUOUS
 66
     1
 40
0.000000
 41
0.000000
  0
VERTEX
  8
0
  6
CONTINUOUS
 10
5.590640
 20
1.340240
  0
VERTEX
  8
0
  6
CONTINUOUS
 10
6.233920
 20
1.719960
  0
VERTEX
  8
0
  6
CONTINUOUS
 10
6.222920
 20
1.674200
  0
VERTEX
  8
0
  6
CONTINUOUS
 10
5.579200
 20
1.294480
  0
VERTEX
  8
0
  6
CONTINUOUS
 10
5.590640
 20
1.340240
  0
SEQEND
  8
0
  0
SOLID
  8
0
 62
    15
 10
5.369320
 20
1.641200
 11
6.012600
 21
2.021360
 12
5.397480
 22
1.639880
 13
6.040760
 23
2.019600
  0
POLYLINE
  8
0
  6
CONTINUOUS
 66
     1
 40
0.000000
 41
0.000000
  0
VERTEX
  8
0
  6
CONTINUOUS
 10
5.369320
 20
1.641200
  0
VERTEX
  8
0
  6
CONTINUOUS
 10
6.012600
 20
2.021360
  0
VERTEX
  8
0
  6
CONTINUOUS
 10
6.040760
 20
2.019600
  0
VERTEX
  8
0
  6
CONTINUOUS
 10
5.397480
 20
1.639880
  0
VERTEX
  8
0
  6
CONTINUOUS
 10
5.369320
 20
1.641200
  0
SEQEND
  8
0
  0
SOLID
  8
0
 62
    15
 10
5.397480
 20
1.639880
 11
6.040760
 21
2.019600
 12
5.423440
 22
1.635480
 13
6.066720
 23
2.015640
  0
POLYLINE
  8
0
  6
CONTINUOUS
 66
     1
 40
0.000000
 41
0.000000
  0
VERTEX
  8
0
  6
CONTINUOUS
 10
5.397480
 20
1.639880
  0
VERTEX
  8
0
  6
CONTINUOUS
 10
6.040760
 20
2.019600
  0
VERTEX
  8
0
  6
CONTINUOUS
 10
6.066720
 20
2.015640
  0
VERTEX
  8
0
  6
CONTINUOUS
 10
5.423440
 20
1.635480
  0
VERTEX
  8
0
  6
CONTINUOUS
 10
5.397480
 20
1.639880
  0
SEQEND
  8
0
  0
SOLID
  8
0
 62
    15
 10
5.423440
 20
1.635480
 11
6.066720
 21
2.015640
 12
5.447640
 22
1.628880
 13
6.090920
 23
2.008600
  0
POLYLINE
  8
0
  6
CONTINUOUS
 66
     1
 40
0.000000
 41
0.000000
  0
VERTEX
  8
0
  6
CONTINUOUS
 10
5.423440
 20
1.635480
  0
VERTEX
  8
0
  6
CONTINUOUS
 10
6.066720
 20
2.015640
  0
VERTEX
  8
0
  6
CONTINUOUS
 10
6.090920
 20
2.008600
  0
VERTEX
  8
0
  6
CONTINUOUS
 10
5.447640
 20
1.628880
  0
VERTEX
  8
0
  6
CONTINUOUS
 10
5.423440
 20
1.635480
  0
SEQEND
  8
0
  0
SOLID
  8
0
 62
    15
 10
5.447640
 20
1.628880
 11
6.090920
 21
2.008600
 12
5.470080
 22
1.619640
 13
6.113360
 23
1.999360
  0
POLYLINE
  8
0
  6
CONTINUOUS
 66
     1
 40
0.000000
 41
0.000000
  0
VERTEX
  8
0
  6
CONTINUOUS
 10
5.447640
 20
1.628880
  0
VERTEX
  8
0
  6
CONTINUOUS
 10
6.090920
 20
2.008600
  0
VERTEX
  8
0
  6
CONTINUOUS
 10
6.113360
 20
1.999360
  0
VERTEX
  8
0
  6
CONTINUOUS
 10
5.470080
 20
1.619640
  0
VERTEX
  8
0
  6
CONTINUOUS
 10
5.447640
 20
1.628880
  0
SEQEND
  8
0
  0
SOLID
  8
0
 62
    15
 10
5.470080
 20
1.619640
 11
6.113360
 21
1.999360
 12
5.490320
 22
1.608200
 13
6.134040
 23
1.987920
  0
POLYLINE
  8
0
  6
CONTINUOUS
 66
     1
 40
0.000000
 41
0.000000
  0
VERTEX
  8
0
  6
CONTINUOUS
 10
5.470080
 20
1.619640
  0
VERTEX
  8
0
  6
CONTINUOUS
 10
6.113360
 20
1.999360
  0
VERTEX
  8
0
  6
CONTINUOUS
 10
6.134040
 20
1.987920
  0
VERTEX
  8
0
  6
CONTINUOUS
 10
5.490320
 20
1.608200
  0
VERTEX
  8
0
  6
CONTINUOUS
 10
5.470080
 20
1.619640
  0
SEQEND
  8
0
  0
SOLID
  8
0
 62
     7
 10
5.490320
 20
1.608200
 11
6.134040
 21
1.987920
 12
5.509240
 22
1.594560
 13
6.152520
 23
1.974280
  0
POLYLINE
  8
0
  6
CONTINUOUS
 66
     1
 40
0.000000
 41
0.000000
  0
VERTEX
  8
0
  6
CONTINUOUS
 10
5.490320
 20
1.608200
  0
VERTEX
  8
0
  6
CONTINUOUS
 10
6.134040
 20
1.987920
  0
VERTEX
  8
0
  6
CONTINUOUS
 10
6.152520
 20
1.974280
  0
VERTEX
  8
0
  6
CONTINUOUS
 10
5.509240
 20
1.594560
  0
VERTEX
  8
0
  6
CONTINUOUS
 10
5.490320
 20
1.608200
  0
SEQEND
  8
0
  0
SOLID
  8
0
 62
     7
 10
5.509240
 20
1.594560
 11
6.152520
 21
1.974280
 12
5.525960
 22
1.579160
 13
6.169240
 23
1.958880
  0
POLYLINE
  8
0
  6
CONTINUOUS
 66
     1
 40
0.000000
 41
0.000000
  0
VERTEX
  8
0
  6
CONTINUOUS
 10
5.509240
 20
1.594560
  0
VERTEX
  8
0
  6
CONTINUOUS
 10
6.152520
 20
1.974280
  0
VERTEX
  8
0
  6
CONTINUOUS
 10
6.169240
 20
1.958880
  0
VERTEX
  8
0
  6
CONTINUOUS
 10
5.525960
 20
1.579160
  0
VERTEX
  8
0
  6
CONTINUOUS
 10
5.509240
 20
1.594560
  0
SEQEND
  8
0
  0
SOLID
  8
0
 62
     7
 10
5.525960
 20
1.579160
 11
6.169240
 21
1.958880
 12
5.540920
 22
1.562000
 13
6.184200
 23
1.941720
  0
POLYLINE
  8
0
  6
CONTINUOUS
 66
     1
 40
0.000000
 41
0.000000
  0
VERTEX
  8
0
  6
CONTINUOUS
 10
5.525960
 20
1.579160
  0
VERTEX
  8
0
  6
CONTINUOUS
 10
6.169240
 20
1.958880
  0
VERTEX
  8
0
  6
CONTINUOUS
 10
6.184200
 20
1.941720
  0
VERTEX
  8
0
  6
CONTINUOUS
 10
5.540920
 20
1.562000
  0
VERTEX
  8
0
  6
CONTINUOUS
 10
5.525960
 20
1.579160
  0
SEQEND
  8
0
  0
SOLID
  8
0
 62
     7
 10
5.540920
 20
1.562000
 11
6.184200
 21
1.941720
 12
5.553680
 22
1.543520
 13
6.197400
 23
1.923240
  0
POLYLINE
  8
0
  6
CONTINUOUS
 66
     1
 40
0.000000
 41
0.000000
  0
VERTEX
  8
0
  6
CONTINUOUS
 10
5.540920
 20
1.562000
  0
VERTEX
  8
0
  6
CONTINUOUS
 10
6.184200
 20
1.941720
  0
VERTEX
  8
0
  6
CONTINUOUS
 10
6.197400
 20
1.923240
  0
VERTEX
  8
0
  6
CONTINUOUS
 10
5.553680
 20
1.543520
  0
VERTEX
  8
0
  6
CONTINUOUS
 10
5.540920
 20
1.562000
  0
SEQEND
  8
0
  0
SOLID
  8
0
 62
     7
 10
5.553680
 20
1.543520
 11
6.197400
 21
1.923240
 12
5.565120
 22
1.523720
 13
6.208400
 23
1.903440
  0
POLYLINE
  8
0
  6
CONTINUOUS
 66
     1
 40
0.000000
 41
0.000000
  0
VERTEX
  8
0
  6
CONTINUOUS
 10
5.553680
 20
1.543520
  0
VERTEX
  8
0
  6
CONTINUOUS
 10
6.197400
 20
1.923240
  0
VERTEX
  8
0
  6
CONTINUOUS
 10
6.208400
 20
1.903440
  0
VERTEX
  8
0
  6
CONTINUOUS
 10
5.565120
 20
1.523720
  0
VERTEX
  8
0
  6
CONTINUOUS
 10
5.553680
 20
1.543520
  0
SEQEND
  8
0
  0
SOLID
  8
0
 62
     7
 10
5.565120
 20
1.523720
 11
6.208400
 21
1.903440
 12
5.582280
 22
1.480600
 13
6.225560
 23
1.860760
  0
POLYLINE
  8
0
  6
CONTINUOUS
 66
     1
 40
0.000000
 41
0.000000
  0
VERTEX
  8
0
  6
CONTINUOUS
 10
5.565120
 20
1.523720
  0
VERTEX
  8
0
  6
CONTINUOUS
 10
6.208400
 20
1.903440
  0
VERTEX
  8
0
  6
CONTINUOUS
 10
6.225560
 20
1.860760
  0
VERTEX
  8
0
  6
CONTINUOUS
 10
5.582280
 20
1.480600
  0
VERTEX
  8
0
  6
CONTINUOUS
 10
5.565120
 20
1.523720
  0
SEQEND
  8
0
  0
SOLID
  8
0
 62
     7
 10
5.582280
 20
1.480600
 11
6.225560
 21
1.860760
 12
5.591960
 22
1.434840
 13
6.235680
 23
1.815000
  0
POLYLINE
  8
0
  6
CONTINUOUS
 66
     1
 40
0.000000
 41
0.000000
  0
VERTEX
  8
0
  6
CONTINUOUS
 10
5.582280
 20
1.480600
  0
VERTEX
  8
0
  6
CONTINUOUS
 10
6.225560
 20
1.860760
  0
VERTEX
  8
0
  6
CONTINUOUS
 10
6.235680
 20
1.815000
  0
VERTEX
  8
0
  6
CONTINUOUS
 10
5.591960
 20
1.434840
  0
VERTEX
  8
0
  6
CONTINUOUS
 10
5.582280
 20
1.480600
  0
SEQEND
  8
0
  0
SOLID
  8
0
 62
     7
 10
5.591960
 20
1.434840
 11
6.235680
 21
1.815000
 12
5.595040
 22
1.387760
 13
6.238320
 23
1.767480
  0
POLYLINE
  8
0
  6
CONTINUOUS
 66
     1
 40
0.000000
 41
0.000000
  0
VERTEX
  8
0
  6
CONTINUOUS
 10
5.591960
 20
1.434840
  0
VERTEX
  8
0
  6
CONTINUOUS
 10
6.235680
 20
1.815000
  0
VERTEX
  8
0
  6
CONTINUOUS
 10
6.238320
 20
1.767480
  0
VERTEX
  8
0
  6
CONTINUOUS
 10
5.595040
 20
1.387760
  0
VERTEX
  8
0
  6
CONTINUOUS
 10
5.591960
 20
1.434840
  0
SEQEND
  8
0
  0
SOLID
  8
0
 62
     7
 10
5.595040
 20
1.387760
 11
6.238320
 21
1.767480
 12
5.590640
 22
1.340240
 13
6.233920
 23
1.719960
  0
POLYLINE
  8
0
  6
CONTINUOUS
 66
     1
 40
0.000000
 41
0.000000
  0
VERTEX
  8
0
  6
CONTINUOUS
 10
5.595040
 20
1.387760
  0
VERTEX
  8
0
  6
CONTINUOUS
 10
6.238320
 20
1.767480
  0
VERTEX
  8
0
  6
CONTINUOUS
 10
6.233920
 20
1.719960
  0
VERTEX
  8
0
  6
CONTINUOUS
 10
5.590640
 20
1.340240
  0
VERTEX
  8
0
  6
CONTINUOUS
 10
5.595040
 20
1.387760
  0
SEQEND
  8
0
  0
SOLID
  8
0
 62
    15
 10
5.117200
 20
1.641200
 11
5.760480
 21
2.021360
 12
5.369320
 22
1.641200
 13
6.012600
 23
2.021360
  0
POLYLINE
  8
0
  6
CONTINUOUS
 66
     1
 40
0.000000
 41
0.000000
  0
VERTEX
  8
0
  6
CONTINUOUS
 10
5.117200
 20
1.641200
  0
VERTEX
  8
0
  6
CONTINUOUS
 10
5.760480
 20
2.021360
  0
VERTEX
  8
0
  6
CONTINUOUS
 10
6.012600
 20
2.021360
  0
VERTEX
  8
0
  6
CONTINUOUS
 10
5.369320
 20
1.641200
  0
VERTEX
  8
0
  6
CONTINUOUS
 10
5.117200
 20
1.641200
  0
SEQEND
  8
0
  0
SOLID
  8
0
 62
    15
 10
5.579200
 20
1.294480
 11
6.222920
 21
1.674200
 12
5.561160
 22
1.251800
 13
6.204440
 23
1.631520
  0
POLYLINE
  8
0
  6
CONTINUOUS
 66
     1
 40
0.000000
 41
0.000000
  0
VERTEX
  8
0
  6
CONTINUOUS
 10
5.579200
 20
1.294480
  0
VERTEX
  8
0
  6
CONTINUOUS
 10
6.222920
 20
1.674200
  0
VERTEX
  8
0
  6
CONTINUOUS
 10
6.204440
 20
1.631520
  0
VERTEX
  8
0
  6
CONTINUOUS
 10
5.561160
 20
1.251800
  0
VERTEX
  8
0
  6
CONTINUOUS
 10
5.579200
 20
1.294480
  0
SEQEND
  8
0
  0
SOLID
  8
0
 62
    15
 10
5.316080
 20
0.961840
 11
5.959800
 21
1.342000
 12
5.293200
 22
0.947320
 13
5.936480
 23
1.327480
  0
POLYLINE
  8
0
  6
CONTINUOUS
 66
     1
 40
0.000000
 41
0.000000
  0
VERTEX
  8
0
  6
CONTINUOUS
 10
5.316080
 20
0.961840
  0
VERTEX
  8
0
  6
CONTINUOUS
 10
5.959800
 20
1.342000
  0
VERTEX
  8
0
  6
CONTINUOUS
 10
5.936480
 20
1.327480
  0
VERTEX
  8
0
  6
CONTINUOUS
 10
5.293200
 20
0.947320
  0
VERTEX
  8
0
  6
CONTINUOUS
 10
5.316080
 20
0.961840
  0
SEQEND
  8
0
  0
SOLID
  8
0
 62
    15
 10
5.293200
 20
0.947320
 11
5.936480
 21
1.327480
 12
5.272960
 22
0.927520
 13
5.916240
 23
1.307680
  0
POLYLINE
  8
0
  6
CONTINUOUS
 66
     1
 40
0.000000
 41
0.000000
  0
VERTEX
  8
0
  6
CONTINUOUS
 10
5.293200
 20
0.947320
  0
VERTEX
  8
0
  6
CONTINUOUS
 10
5.936480
 20
1.327480
  0
VERTEX
  8
0
  6
CONTINUOUS
 10
5.916240
 20
1.307680
  0
VERTEX
  8
0
  6
CONTINUOUS
 10
5.272960
 20
0.927520
  0
VERTEX
  8
0
  6
CONTINUOUS
 10
5.293200
 20
0.947320
  0
SEQEND
  8
0
  0
SOLID
  8
0
 62
    15
 10
5.272960
 20
0.927520
 11
5.916240
 21
1.307680
 12
5.256240
 22
0.901560
 13
5.899520
 23
1.281280
  0
POLYLINE
  8
0
  6
CONTINUOUS
 66
     1
 40
0.000000
 41
0.000000
  0
VERTEX
  8
0
  6
CONTINUOUS
 10
5.272960
 20
0.927520
  0
VERTEX
  8
0
  6
CONTINUOUS
 10
5.916240
 20
1.307680
  0
VERTEX
  8
0
  6
CONTINUOUS
 10
5.899520
 20
1.281280
  0
VERTEX
  8
0
  6
CONTINUOUS
 10
5.256240
 20
0.901560
  0
VERTEX
  8
0
  6
CONTINUOUS
 10
5.272960
 20
0.927520
  0
SEQEND
  8
0
  0
SOLID
  8
0
 62
     7
 10
5.369320
 20
1.133880
 11
6.012600
 21
1.513600
 12
5.369320
 22
0.980760
 13
6.012600
 23
1.360920
  0
POLYLINE
  8
0
  6
CONTINUOUS
 66
     1
 40
0.000000
 41
0.000000
  0
VERTEX
  8
0
  6
CONTINUOUS
 10
5.369320
 20
1.133880
  0
VERTEX
  8
0
  6
CONTINUOUS
 10
6.012600
 20
1.513600
  0
VERTEX
  8
0
  6
CONTINUOUS
 10
6.012600
 20
1.360920
  0
VERTEX
  8
0
  6
CONTINUOUS
 10
5.369320
 20
0.980760
  0
VERTEX
  8
0
  6
CONTINUOUS
 10
5.369320
 20
1.133880
  0
SEQEND
  8
0
  0
SOLID
  8
0
 62
    15
 10
5.561160
 20
1.251800
 11
6.204440
 21
1.631520
 12
5.536080
 22
1.213080
 13
6.179800
 23
1.593240
  0
POLYLINE
  8
0
  6
CONTINUOUS
 66
     1
 40
0.000000
 41
0.000000
  0
VERTEX
  8
0
  6
CONTINUOUS
 10
5.561160
 20
1.251800
  0
VERTEX
  8
0
  6
CONTINUOUS
 10
6.204440
 20
1.631520
  0
VERTEX
  8
0
  6
CONTINUOUS
 10
6.179800
 20
1.593240
  0
VERTEX
  8
0
  6
CONTINUOUS
 10
5.536080
 20
1.213080
  0
VERTEX
  8
0
  6
CONTINUOUS
 10
5.561160
 20
1.251800
  0
SEQEND
  8
0
  0
SOLID
  8
0
 62
    15
 10
5.536080
 20
1.213080
 11
6.179800
 21
1.593240
 12
5.521120
 22
1.195920
 13
6.164400
 23
1.576080
  0
POLYLINE
  8
0
  6
CONTINUOUS
 66
     1
 40
0.000000
 41
0.000000
  0
VERTEX
  8
0
  6
CONTINUOUS
 10
5.536080
 20
1.213080
  0
VERTEX
  8
0
  6
CONTINUOUS
 10
6.179800
 20
1.593240
  0
VERTEX
  8
0
  6
CONTINUOUS
 10
6.164400
 20
1.576080
  0
VERTEX
  8
0
  6
CONTINUOUS
 10
5.521120
 20
1.195920
  0
VERTEX
  8
0
  6
CONTINUOUS
 10
5.536080
 20
1.213080
  0
SEQEND
  8
0
  0
SOLID
  8
0
 62
    15
 10
5.521120
 20
1.195920
 11
6.164400
 21
1.576080
 12
5.504400
 22
1.180520
 13
6.148120
 23
1.560680
  0
POLYLINE
  8
0
  6
CONTINUOUS
 66
     1
 40
0.000000
 41
0.000000
  0
VERTEX
  8
0
  6
CONTINUOUS
 10
5.521120
 20
1.195920
  0
VERTEX
  8
0
  6
CONTINUOUS
 10
6.164400
 20
1.576080
  0
VERTEX
  8
0
  6
CONTINUOUS
 10
6.148120
 20
1.560680
  0
VERTEX
  8
0
  6
CONTINUOUS
 10
5.504400
 20
1.180520
  0
VERTEX
  8
0
  6
CONTINUOUS
 10
5.521120
 20
1.195920
  0
SEQEND
  8
0
  0
SOLID
  8
0
 62
    15
 10
5.504400
 20
1.180520
 11
6.148120
 21
1.560680
 12
5.486360
 22
1.167320
 13
6.129640
 23
1.547040
  0
POLYLINE
  8
0
  6
CONTINUOUS
 66
     1
 40
0.000000
 41
0.000000
  0
VERTEX
  8
0
  6
CONTINUOUS
 10
5.504400
 20
1.180520
  0
VERTEX
  8
0
  6
CONTINUOUS
 10
6.148120
 20
1.560680
  0
VERTEX
  8
0
  6
CONTINUOUS
 10
6.129640
 20
1.547040
  0
VERTEX
  8
0
  6
CONTINUOUS
 10
5.486360
 20
1.167320
  0
VERTEX
  8
0
  6
CONTINUOUS
 10
5.504400
 20
1.180520
  0
SEQEND
  8
0
  0
SOLID
  8
0
 62
    15
 10
5.256240
 20
0.901560
 11
5.899520
 21
1.281280
 12
5.249200
 22
0.885280
 13
5.892480
 23
1.265440
  0
POLYLINE
  8
0
  6
CONTINUOUS
 66
     1
 40
0.000000
 41
0.000000
  0
VERTEX
  8
0
  6
CONTINUOUS
 10
5.256240
 20
0.901560
  0
VERTEX
  8
0
  6
CONTINUOUS
 10
5.899520
 20
1.281280
  0
VERTEX
  8
0
  6
CONTINUOUS
 10
5.892480
 20
1.265440
  0
VERTEX
  8
0
  6
CONTINUOUS
 10
5.249200
 20
0.885280
  0
VERTEX
  8
0
  6
CONTINUOUS
 10
5.256240
 20
0.901560
  0
SEQEND
  8
0
  0
SOLID
  8
0
 62
    15
 10
5.249200
 20
0.885280
 11
5.892480
 21
1.265440
 12
5.243480
 22
0.867240
 13
5.886760
 23
1.246960
  0
POLYLINE
  8
0
  6
CONTINUOUS
 66
     1
 40
0.000000
 41
0.000000
  0
VERTEX
  8
0
  6
CONTINUOUS
 10
5.249200
 20
0.885280
  0
VERTEX
  8
0
  6
CONTINUOUS
 10
5.892480
 20
1.265440
  0
VERTEX
  8
0
  6
CONTINUOUS
 10
5.886760
 20
1.246960
  0
VERTEX
  8
0
  6
CONTINUOUS
 10
5.243480
 20
0.867240
  0
VERTEX
  8
0
  6
CONTINUOUS
 10
5.249200
 20
0.885280
  0
SEQEND
  8
0
  0
SOLID
  8
0
 62
     7
 10
5.243480
 20
0.867240
 11
5.886760
 21
1.246960
 12
5.238640
 22
0.846560
 13
5.881920
 23
1.226280
  0
POLYLINE
  8
0
  6
CONTINUOUS
 66
     1
 40
0.000000
 41
0.000000
  0
VERTEX
  8
0
  6
CONTINUOUS
 10
5.243480
 20
0.867240
  0
VERTEX
  8
0
  6
CONTINUOUS
 10
5.886760
 20
1.246960
  0
VERTEX
  8
0
  6
CONTINUOUS
 10
5.881920
 20
1.226280
  0
VERTEX
  8
0
  6
CONTINUOUS
 10
5.238640
 20
0.846560
  0
VERTEX
  8
0
  6
CONTINUOUS
 10
5.243480
 20
0.867240
  0
SEQEND
  8
0
  0
SOLID
  8
0
 62
     7
 10
5.238640
 20
0.846560
 11
5.881920
 21
1.226280
 12
5.235120
 22
0.823240
 13
5.878840
 23
1.203400
  0
POLYLINE
  8
0
  6
CONTINUOUS
 66
     1
 40
0.000000
 41
0.000000
  0
VERTEX
  8
0
  6
CONTINUOUS
 10
5.238640
 20
0.846560
  0
VERTEX
  8
0
  6
CONTINUOUS
 10
5.881920
 20
1.226280
  0
VERTEX
  8
0
  6
CONTINUOUS
 10
5.878840
 20
1.203400
  0
VERTEX
  8
0
  6
CONTINUOUS
 10
5.235120
 20
0.823240
  0
VERTEX
  8
0
  6
CONTINUOUS
 10
5.238640
 20
0.846560
  0
SEQEND
  8
0
  0
SOLID
  8
0
 62
     7
 10
5.235120
 20
0.823240
 11
5.878840
 21
1.203400
 12
5.233360
 22
0.797720
 13
5.876640
 23
1.177440
  0
POLYLINE
  8
0
  6
CONTINUOUS
 66
     1
 40
0.000000
 41
0.000000
  0
VERTEX
  8
0
  6
CONTINUOUS
 10
5.235120
 20
0.823240
  0
VERTEX
  8
0
  6
CONTINUOUS
 10
5.878840
 20
1.203400
  0
VERTEX
  8
0
  6
CONTINUOUS
 10
5.876640
 20
1.177440
  0
VERTEX
  8
0
  6
CONTINUOUS
 10
5.233360
 20
0.797720
  0
VERTEX
  8
0
  6
CONTINUOUS
 10
5.235120
 20
0.823240
  0
SEQEND
  8
0
  0
SOLID
  8
0
 62
     7
 10
5.233360
 20
0.797720
 11
5.876640
 21
1.177440
 12
5.232480
 22
0.768680
 13
5.875760
 23
1.148840
  0
POLYLINE
  8
0
  6
CONTINUOUS
 66
     1
 40
0.000000
 41
0.000000
  0
VERTEX
  8
0
  6
CONTINUOUS
 10
5.233360
 20
0.797720
  0
VERTEX
  8
0
  6
CONTINUOUS
 10
5.876640
 20
1.177440
  0
VERTEX
  8
0
  6
CONTINUOUS
 10
5.875760
 20
1.148840
  0
VERTEX
  8
0
  6
CONTINUOUS
 10
5.232480
 20
0.768680
  0
VERTEX
  8
0
  6
CONTINUOUS
 10
5.233360
 20
0.797720
  0
SEQEND
  8
0
  0
POLYLINE
  8
0
  6
CONTINUOUS
 66
     1
 40
0.000000
 41
0.000000
  0
VERTEX
  8
0
  6
CONTINUOUS
 10
5.117200
 20
0.769120
  0
VERTEX
  8
0
  6
CONTINUOUS
 10
5.117200
 20
1.641200
  0
VERTEX
  8
0
  6
CONTINUOUS
 10
5.369320
 20
1.641200
  0
VERTEX
  8
0
  6
CONTINUOUS
 10
5.397480
 20
1.639880
  0
VERTEX
  8
0
  6
CONTINUOUS
 10
5.423440
 20
1.635480
  0
VERTEX
  8
0
  6
CONTINUOUS
 10
5.447640
 20
1.628880
  0
VERTEX
  8
0
  6
CONTINUOUS
 10
5.470080
 20
1.619640
  0
VERTEX
  8
0
  6
CONTINUOUS
 10
5.490320
 20
1.608200
  0
VERTEX
  8
0
  6
CONTINUOUS
 10
5.509240
 20
1.594560
  0
VERTEX
  8
0
  6
CONTINUOUS
 10
5.525960
 20
1.579160
  0
VERTEX
  8
0
  6
CONTINUOUS
 10
5.540920
 20
1.562000
  0
VERTEX
  8
0
  6
CONTINUOUS
 10
5.553680
 20
1.543520
  0
VERTEX
  8
0
  6
CONTINUOUS
 10
5.565120
 20
1.523720
  0
VERTEX
  8
0
  6
CONTINUOUS
 10
5.582280
 20
1.480600
  0
VERTEX
  8
0
  6
CONTINUOUS
 10
5.591960
 20
1.434840
  0
VERTEX
  8
0
  6
CONTINUOUS
 10
5.595040
 20
1.387760
  0
VERTEX
  8
0
  6
CONTINUOUS
 10
5.590640
 20
1.340240
  0
VERTEX
  8
0
  6
CONTINUOUS
 10
5.579200
 20
1.294480
  0
VERTEX
  8
0
  6
CONTINUOUS
 10
5.561160
 20
1.251800
  0
VERTEX
  8
0
  6
CONTINUOUS
 10
5.536080
 20
1.213080
  0
VERTEX
  8
0
  6
CONTINUOUS
 10
5.521120
 20
1.195920
  0
VERTEX
  8
0
  6
CONTINUOUS
 10
5.504400
 20
1.180520
  0
VERTEX
  8
0
  6
CONTINUOUS
 10
5.486360
 20
1.167320
  0
VERTEX
  8
0
  6
CONTINUOUS
 10
5.466120
 20
1.155880
  0
VERTEX
  8
0
  6
CONTINUOUS
 10
5.444560
 20
1.146640
  0
VERTEX
  8
0
  6
CONTINUOUS
 10
5.421240
 20
1.139600
  0
VERTEX
  8
0
  6
CONTINUOUS
 10
5.396160
 20
1.135200
  0
VERTEX
  8
0
  6
CONTINUOUS
 10
5.369320
 20
1.133880
  0
VERTEX
  8
0
  6
CONTINUOUS
 10
5.369320
 20
0.980760
  0
VERTEX
  8
0
  6
CONTINUOUS
 10
5.342040
 20
0.972400
  0
VERTEX
  8
0
  6
CONTINUOUS
 10
5.316080
 20
0.961840
  0
VERTEX
  8
0
  6
CONTINUOUS
 10
5.293200
 20
0.947320
  0
VERTEX
  8
0
  6
CONTINUOUS
 10
5.272960
 20
0.927520
  0
VERTEX
  8
0
  6
CONTINUOUS
 10
5.256240
 20
0.901560
  0
VERTEX
  8
0
  6
CONTINUOUS
 10
5.249200
 20
0.885280
  0
VERTEX
  8
0
  6
CONTINUOUS
 10
5.243480
 20
0.867240
  0
VERTEX
  8
0
  6
CONTINUOUS
 10
5.238640
 20
0.846560
  0
VERTEX
  8
0
  6
CONTINUOUS
 10
5.235120
 20
0.823240
  0
VERTEX
  8
0
  6
CONTINUOUS
 10
5.233360
 20
0.797720
  0
VERTEX
  8
0
  6
CONTINUOUS
 10
5.232480
 20
0.768680
  0
VERTEX
  8
0
  6
CONTINUOUS
 10
5.117200
 20
0.769120
  0
SEQEND
  8
0
  0
TEXT
  8
0
 10
5.383400
 20
0.540320
 40
0.138133
  1
BA  460
 41
1.000000
  7
SN0
 71
     0
 72
     5
 11
5.973168
 21
0.540320
  0
TEXT
  8
0
 10
5.301560
 20
0.348920
 40
0.138133
  1
1/2" x 7/8"
 41
1.000000
  7
SN0
 71
     0
 72
     5
 11
6.054125
 21
0.348920
  0
ENDSEC
  0
EOF
