  0
SECTION
  2
HEADER
  9
$ACADVER
  1
AC1006
  9
$EXTMIN
 10
4.656520
 20
0.353320
  9
$EXTMAX
 10
7.357680
 20
2.562560
  9
$LTSCALE
 40
0.044000
  9
$PDMODE
 70
    35
  9
$PDSIZE
 40
0.035200
  0
ENDSEC
  0
SECTION
  2
TABLES
  0
TABLE
  2
LTYPE
 70
     9
  0
LTYPE
  2
CONTINUOUS
 70
    64
  3
Solid line
 72
    65
 73
     0
 40
0.000000
  0
LTYPE
  2
DASHED
 70
    64
  3
__ __ __ __ __ __ __ __ __ __ __ __ __ __ __
 72
    65
 73
     2
 40
0.000330
 49
0.000220
 49
-0.000110
  0
LTYPE
  2
HIDDEN
 70
    64
  3
 _ _ _ _ _ _ _ _ _ _ _ _ _ _ _ _ _ _ _ _ _ _
 72
    65
 73
     2
 40
0.000165
 49
0.000110
 49
-0.000055
  0
LTYPE
  2
CENTER
 70
    64
  3
____ _ ____ _ ____ _ ____ _ ____ _ ____ _ ____
 72
    65
 73
     4
 40
0.000880
 49
0.000550
 49
-0.000110
 49
0.000110
 49
-0.000110
  0
LTYPE
  2
PHANTOM
 70
    64
  3
_____ _ _ _____ _ _ _____ _ _ _____ _ _ ____
 72
    65
 73
     6
 40
0.001100
 49
0.000550
 49
-0.000110
 49
0.000110
 49
-0.000110
 49
0.000110
 49
-0.000110
  0
LTYPE
  2
DOT
 70
    64
  3
...............................................
 72
    65
 73
     2
 40
0.000110
 49
0.000000
 49
-0.000110
  0
LTYPE
  2
DASHDOT
 70
    64
  3
__ . __ . __ . __ . __ . __ . __ . __ . __ . __
 72
    65
 73
     4
 40
0.000440
 49
0.000220
 49
-0.000110
 49
0.000000
 49
-0.000110
  0
LTYPE
  2
BORDER
 70
    64
  3
__ __ . __ __ . __ __ . __ __ . __ __ . __ __
 72
    65
 73
     6
 40
0.000770
 49
0.000220
 49
-0.000110
 49
0.000220
 49
-0.000110
 49
0.000000
 49
-0.000110
  0
LTYPE
  2
DIVIDE
 70
    64
  3
__ . . __ . . __ . . __ . . __ . . __ . . __
 72
    65
 73
     6
 40
0.000550
 49
0.000220
 49
-0.000110
 49
0.000000
 49
-0.000110
 49
0.000000
 49
-0.000110
  0
LTYPE
  2
DOTDOT
 70
    64
  3
 . .  . .  . .  . .  . .  . . 
 72
    65
 73
     5
 40
0.000242
 49
-0.000110
 49
0.000000
 49
-0.000110
 49
0.000000
 49
-0.000110
  0
ENDTAB
  0
TABLE
  2
STYLE
 70
     2
  0
STYLE
 70
     0
  2
SN0
 40
0.000000
 41
0.000440
 50
0.000000
 71
     0
 42
0.000000
  3
ROMAND
  0
STYLE
 70
    68
  2
SV0
 40
0.000000
 41
0.000440
 50
0.000000
 71
     0
 42
0.000000
  3
ROMAND
  0
ENDTAB
  0
TABLE
  2
LAYER
 70
     3
  0
LAYER
  2
FOREGROUND
 70
    64
 62
     7
  6
CONTINUOUS
  0
LAYER
  2
BACKGROUND
 70
    65
 62
    -7
  6
CONTINUOUS
  0
LAYER
  2
0
 70
    64
 62
     7
  6
CONTINUOUS
  0
ENDTAB
  0
ENDSEC
  0
SECTION
  2
ENTITIES
  0
POLYLINE
  8
FOREGROUND
  6
CONTINUOUS
 66
     1
 40
0.000000
 41
0.000000
  0
VERTEX
  8
FOREGROUND
  6
CONTINUOUS
 10
0.000000
 20
2.915880
  0
VERTEX
  8
FOREGROUND
  6
CONTINUOUS
 10
8.499920
 20
2.915880
  0
VERTEX
  8
FOREGROUND
  6
CONTINUOUS
 10
8.499920
 20
-8.084120
  0
VERTEX
  8
FOREGROUND
  6
CONTINUOUS
 10
0.000000
 20
-8.084120
  0
VERTEX
  8
FOREGROUND
  6
CONTINUOUS
 10
0.000000
 20
2.915880
  0
SEQEND
  8
0
  0
POLYLINE
  8
FOREGROUND
  6
CONTINUOUS
 66
     1
 40
0.000000
 41
0.000000
  0
VERTEX
  8
FOREGROUND
  6
CONTINUOUS
 10
0.000000
 20
2.915880
  0
VERTEX
  8
FOREGROUND
  6
CONTINUOUS
 10
8.499920
 20
2.915880
  0
VERTEX
  8
FOREGROUND
  6
CONTINUOUS
 10
8.499920
 20
-8.084120
  0
VERTEX
  8
FOREGROUND
  6
CONTINUOUS
 10
0.000000
 20
-8.084120
  0
VERTEX
  8
FOREGROUND
  6
CONTINUOUS
 10
0.000000
 20
2.915880
  0
SEQEND
  8
0
  0
POLYLINE
  8
0
  6
CONTINUOUS
 66
     1
 40
0.014080
 41
0.014080
  0
VERTEX
  8
0
  6
CONTINUOUS
 10
7.156160
 20
1.122440
  0
VERTEX
  8
0
  6
CONTINUOUS
 10
7.155720
 20
1.144880
  0
VERTEX
  8
0
  6
CONTINUOUS
 10
7.158800
 20
1.186240
  0
VERTEX
  8
0
  6
CONTINUOUS
 10
7.162320
 20
1.204720
  0
VERTEX
  8
0
  6
CONTINUOUS
 10
7.167160
 20
1.221880
  0
VERTEX
  8
0
  6
CONTINUOUS
 10
7.180800
 20
1.252680
  0
VERTEX
  8
0
  6
CONTINUOUS
 10
7.189600
 20
1.265880
  0
VERTEX
  8
0
  6
CONTINUOUS
 10
7.210720
 20
1.288320
  0
VERTEX
  8
0
  6
CONTINUOUS
 10
7.223480
 20
1.297560
  0
VERTEX
  8
0
  6
CONTINUOUS
 10
7.237560
 20
1.305480
  0
VERTEX
  8
0
  6
CONTINUOUS
 10
7.252960
 20
1.312080
  0
VERTEX
  8
0
  6
CONTINUOUS
 10
7.287280
 20
1.320880
  0
VERTEX
  8
0
  6
CONTINUOUS
 10
7.306640
 20
1.323080
  0
VERTEX
  8
0
  6
CONTINUOUS
 10
7.306640
 20
1.538240
  0
VERTEX
  8
0
  6
CONTINUOUS
 10
7.195320
 20
1.563760
  0
VERTEX
  8
0
  6
CONTINUOUS
 10
7.169800
 20
1.570800
  0
VERTEX
  8
0
  6
CONTINUOUS
 10
7.133280
 20
1.584880
  0
VERTEX
  8
0
  6
CONTINUOUS
 10
7.109960
 20
1.597640
  0
VERTEX
  8
0
  6
CONTINUOUS
 10
7.087520
 20
1.613920
  0
VERTEX
  8
0
  6
CONTINUOUS
 10
7.065960
 20
1.634600
  0
VERTEX
  8
0
  6
CONTINUOUS
 10
7.045280
 20
1.660120
  0
VERTEX
  8
0
  6
CONTINUOUS
 10
7.025480
 20
1.691360
  0
VERTEX
  8
0
  6
CONTINUOUS
 10
7.006120
 20
1.729640
  0
VERTEX
  8
0
  6
CONTINUOUS
 10
6.978400
 20
1.800040
  0
VERTEX
  8
0
  6
CONTINUOUS
 10
6.960800
 20
1.857680
  0
VERTEX
  8
0
  6
CONTINUOUS
 10
6.919440
 20
2.022680
  0
VERTEX
  8
0
  6
CONTINUOUS
 10
6.894360
 20
2.104960
  0
VERTEX
  8
0
  6
CONTINUOUS
 10
6.868400
 20
2.172280
  0
VERTEX
  8
0
  6
CONTINUOUS
 10
6.842000
 20
2.226400
  0
VERTEX
  8
0
  6
CONTINUOUS
 10
6.823520
 20
2.255880
  0
VERTEX
  8
0
  6
CONTINUOUS
 10
6.804160
 20
2.280520
  0
VERTEX
  8
0
  6
CONTINUOUS
 10
6.773800
 20
2.309120
  0
VERTEX
  8
0
  6
CONTINUOUS
 10
6.740800
 20
2.329360
  0
VERTEX
  8
0
  6
CONTINUOUS
 10
6.717920
 20
2.338600
  0
VERTEX
  8
0
  6
CONTINUOUS
 10
6.680520
 20
2.347400
  0
VERTEX
  8
0
  6
CONTINUOUS
 10
6.640040
 20
2.351360
  0
VERTEX
  8
0
  6
CONTINUOUS
 10
6.611000
 20
2.351800
  0
VERTEX
  8
0
  6
CONTINUOUS
 10
6.611000
 20
2.493040
  0
VERTEX
  8
0
  6
CONTINUOUS
 10
6.451720
 20
2.493040
  0
VERTEX
  8
0
  6
CONTINUOUS
 10
6.451720
 20
1.122440
  0
VERTEX
  8
0
  6
CONTINUOUS
 10
7.156160
 20
1.122440
  0
SEQEND
  8
0
  0
SOLID
  8
0
 62
     7
 10
5.201680
 20
1.452880
 11
5.836160
 21
1.819840
 12
5.220600
 22
1.411080
 13
5.855080
 23
1.778480
  0
POLYLINE
  8
0
  6
CONTINUOUS
 66
     1
 40
0.000000
 41
0.000000
  0
VERTEX
  8
0
  6
CONTINUOUS
 10
5.201680
 20
1.452880
  0
VERTEX
  8
0
  6
CONTINUOUS
 10
5.836160
 20
1.819840
  0
VERTEX
  8
0
  6
CONTINUOUS
 10
5.855080
 20
1.778480
  0
VERTEX
  8
0
  6
CONTINUOUS
 10
5.220600
 20
1.411080
  0
VERTEX
  8
0
  6
CONTINUOUS
 10
5.201680
 20
1.452880
  0
SEQEND
  8
0
  0
SOLID
  8
0
 62
     7
 10
4.816240
 20
2.194720
 11
5.450720
 21
2.561680
 12
4.816240
 22
2.053040
 13
5.450720
 23
2.420440
  0
POLYLINE
  8
0
  6
CONTINUOUS
 66
     1
 40
0.000000
 41
0.000000
  0
VERTEX
  8
0
  6
CONTINUOUS
 10
4.816240
 20
2.194720
  0
VERTEX
  8
0
  6
CONTINUOUS
 10
5.450720
 20
2.561680
  0
VERTEX
  8
0
  6
CONTINUOUS
 10
5.450720
 20
2.420440
  0
VERTEX
  8
0
  6
CONTINUOUS
 10
4.816240
 20
2.053040
  0
VERTEX
  8
0
  6
CONTINUOUS
 10
4.816240
 20
2.194720
  0
SEQEND
  8
0
  0
SOLID
  8
0
 62
    15
 10
4.816240
 20
2.053040
 11
5.450720
 21
2.420440
 12
4.872560
 22
2.050400
 13
5.507040
 23
2.417360
  0
POLYLINE
  8
0
  6
CONTINUOUS
 66
     1
 40
0.000000
 41
0.000000
  0
VERTEX
  8
0
  6
CONTINUOUS
 10
4.816240
 20
2.053040
  0
VERTEX
  8
0
  6
CONTINUOUS
 10
5.450720
 20
2.420440
  0
VERTEX
  8
0
  6
CONTINUOUS
 10
5.507040
 20
2.417360
  0
VERTEX
  8
0
  6
CONTINUOUS
 10
4.872560
 20
2.050400
  0
VERTEX
  8
0
  6
CONTINUOUS
 10
4.816240
 20
2.053040
  0
SEQEND
  8
0
  0
SOLID
  8
0
 62
    15
 10
4.872560
 20
2.050400
 11
5.507040
 21
2.417360
 12
4.922720
 22
2.039840
 13
5.557200
 23
2.406800
  0
POLYLINE
  8
0
  6
CONTINUOUS
 66
     1
 40
0.000000
 41
0.000000
  0
VERTEX
  8
0
  6
CONTINUOUS
 10
4.872560
 20
2.050400
  0
VERTEX
  8
0
  6
CONTINUOUS
 10
5.507040
 20
2.417360
  0
VERTEX
  8
0
  6
CONTINUOUS
 10
5.557200
 20
2.406800
  0
VERTEX
  8
0
  6
CONTINUOUS
 10
4.922720
 20
2.039840
  0
VERTEX
  8
0
  6
CONTINUOUS
 10
4.872560
 20
2.050400
  0
SEQEND
  8
0
  0
SOLID
  8
0
 62
    15
 10
4.922720
 20
2.039840
 11
5.557200
 21
2.406800
 12
4.968040
 22
2.018280
 13
5.602520
 23
2.385240
  0
POLYLINE
  8
0
  6
CONTINUOUS
 66
     1
 40
0.000000
 41
0.000000
  0
VERTEX
  8
0
  6
CONTINUOUS
 10
4.922720
 20
2.039840
  0
VERTEX
  8
0
  6
CONTINUOUS
 10
5.557200
 20
2.406800
  0
VERTEX
  8
0
  6
CONTINUOUS
 10
5.602520
 20
2.385240
  0
VERTEX
  8
0
  6
CONTINUOUS
 10
4.968040
 20
2.018280
  0
VERTEX
  8
0
  6
CONTINUOUS
 10
4.922720
 20
2.039840
  0
SEQEND
  8
0
  0
SOLID
  8
0
 62
     7
 10
4.968040
 20
2.018280
 11
5.602520
 21
2.385240
 12
4.989160
 22
2.002000
 13
5.623640
 23
2.369400
  0
POLYLINE
  8
0
  6
CONTINUOUS
 66
     1
 40
0.000000
 41
0.000000
  0
VERTEX
  8
0
  6
CONTINUOUS
 10
4.968040
 20
2.018280
  0
VERTEX
  8
0
  6
CONTINUOUS
 10
5.602520
 20
2.385240
  0
VERTEX
  8
0
  6
CONTINUOUS
 10
5.623640
 20
2.369400
  0
VERTEX
  8
0
  6
CONTINUOUS
 10
4.989160
 20
2.002000
  0
VERTEX
  8
0
  6
CONTINUOUS
 10
4.968040
 20
2.018280
  0
SEQEND
  8
0
  0
SOLID
  8
0
 62
     7
 10
4.989160
 20
2.002000
 11
5.623640
 21
2.369400
 12
5.009400
 22
1.982200
 13
5.643880
 23
2.349160
  0
POLYLINE
  8
0
  6
CONTINUOUS
 66
     1
 40
0.000000
 41
0.000000
  0
VERTEX
  8
0
  6
CONTINUOUS
 10
4.989160
 20
2.002000
  0
VERTEX
  8
0
  6
CONTINUOUS
 10
5.623640
 20
2.369400
  0
VERTEX
  8
0
  6
CONTINUOUS
 10
5.643880
 20
2.349160
  0
VERTEX
  8
0
  6
CONTINUOUS
 10
5.009400
 20
1.982200
  0
VERTEX
  8
0
  6
CONTINUOUS
 10
4.989160
 20
2.002000
  0
SEQEND
  8
0
  0
SOLID
  8
0
 62
     7
 10
5.009400
 20
1.982200
 11
5.643880
 21
2.349160
 12
5.028320
 22
1.957560
 13
5.662800
 23
2.324520
  0
POLYLINE
  8
0
  6
CONTINUOUS
 66
     1
 40
0.000000
 41
0.000000
  0
VERTEX
  8
0
  6
CONTINUOUS
 10
5.009400
 20
1.982200
  0
VERTEX
  8
0
  6
CONTINUOUS
 10
5.643880
 20
2.349160
  0
VERTEX
  8
0
  6
CONTINUOUS
 10
5.662800
 20
2.324520
  0
VERTEX
  8
0
  6
CONTINUOUS
 10
5.028320
 20
1.957560
  0
VERTEX
  8
0
  6
CONTINUOUS
 10
5.009400
 20
1.982200
  0
SEQEND
  8
0
  0
SOLID
  8
0
 62
     7
 10
5.028320
 20
1.957560
 11
5.662800
 21
2.324520
 12
5.046800
 22
1.928080
 13
5.681280
 23
2.295040
  0
POLYLINE
  8
0
  6
CONTINUOUS
 66
     1
 40
0.000000
 41
0.000000
  0
VERTEX
  8
0
  6
CONTINUOUS
 10
5.028320
 20
1.957560
  0
VERTEX
  8
0
  6
CONTINUOUS
 10
5.662800
 20
2.324520
  0
VERTEX
  8
0
  6
CONTINUOUS
 10
5.681280
 20
2.295040
  0
VERTEX
  8
0
  6
CONTINUOUS
 10
5.046800
 20
1.928080
  0
VERTEX
  8
0
  6
CONTINUOUS
 10
5.028320
 20
1.957560
  0
SEQEND
  8
0
  0
SOLID
  8
0
 62
     7
 10
5.046800
 20
1.928080
 11
5.681280
 21
2.295040
 12
5.064840
 22
1.893320
 13
5.699320
 23
2.260280
  0
POLYLINE
  8
0
  6
CONTINUOUS
 66
     1
 40
0.000000
 41
0.000000
  0
VERTEX
  8
0
  6
CONTINUOUS
 10
5.046800
 20
1.928080
  0
VERTEX
  8
0
  6
CONTINUOUS
 10
5.681280
 20
2.295040
  0
VERTEX
  8
0
  6
CONTINUOUS
 10
5.699320
 20
2.260280
  0
VERTEX
  8
0
  6
CONTINUOUS
 10
5.064840
 20
1.893320
  0
VERTEX
  8
0
  6
CONTINUOUS
 10
5.046800
 20
1.928080
  0
SEQEND
  8
0
  0
SOLID
  8
0
 62
     7
 10
5.064840
 20
1.893320
 11
5.699320
 21
2.260280
 12
5.082440
 22
1.852840
 13
5.716480
 23
2.220240
  0
POLYLINE
  8
0
  6
CONTINUOUS
 66
     1
 40
0.000000
 41
0.000000
  0
VERTEX
  8
0
  6
CONTINUOUS
 10
5.064840
 20
1.893320
  0
VERTEX
  8
0
  6
CONTINUOUS
 10
5.699320
 20
2.260280
  0
VERTEX
  8
0
  6
CONTINUOUS
 10
5.716480
 20
2.220240
  0
VERTEX
  8
0
  6
CONTINUOUS
 10
5.082440
 20
1.852840
  0
VERTEX
  8
0
  6
CONTINUOUS
 10
5.064840
 20
1.893320
  0
SEQEND
  8
0
  0
SOLID
  8
0
 62
     7
 10
5.082440
 20
1.852840
 11
5.716480
 21
2.220240
 12
5.099160
 22
1.806640
 13
5.733640
 23
2.173600
  0
POLYLINE
  8
0
  6
CONTINUOUS
 66
     1
 40
0.000000
 41
0.000000
  0
VERTEX
  8
0
  6
CONTINUOUS
 10
5.082440
 20
1.852840
  0
VERTEX
  8
0
  6
CONTINUOUS
 10
5.716480
 20
2.220240
  0
VERTEX
  8
0
  6
CONTINUOUS
 10
5.733640
 20
2.173600
  0
VERTEX
  8
0
  6
CONTINUOUS
 10
5.099160
 20
1.806640
  0
VERTEX
  8
0
  6
CONTINUOUS
 10
5.082440
 20
1.852840
  0
SEQEND
  8
0
  0
SOLID
  8
0
 62
     7
 10
5.099160
 20
1.806640
 11
5.733640
 21
2.173600
 12
5.115880
 22
1.753400
 13
5.750360
 23
2.120360
  0
POLYLINE
  8
0
  6
CONTINUOUS
 66
     1
 40
0.000000
 41
0.000000
  0
VERTEX
  8
0
  6
CONTINUOUS
 10
5.099160
 20
1.806640
  0
VERTEX
  8
0
  6
CONTINUOUS
 10
5.733640
 20
2.173600
  0
VERTEX
  8
0
  6
CONTINUOUS
 10
5.750360
 20
2.120360
  0
VERTEX
  8
0
  6
CONTINUOUS
 10
5.115880
 20
1.753400
  0
VERTEX
  8
0
  6
CONTINUOUS
 10
5.099160
 20
1.806640
  0
SEQEND
  8
0
  0
SOLID
  8
0
 62
     7
 10
5.115880
 20
1.753400
 11
5.750360
 21
2.120360
 12
5.132600
 22
1.693120
 13
5.767080
 23
2.060520
  0
POLYLINE
  8
0
  6
CONTINUOUS
 66
     1
 40
0.000000
 41
0.000000
  0
VERTEX
  8
0
  6
CONTINUOUS
 10
5.115880
 20
1.753400
  0
VERTEX
  8
0
  6
CONTINUOUS
 10
5.750360
 20
2.120360
  0
VERTEX
  8
0
  6
CONTINUOUS
 10
5.767080
 20
2.060520
  0
VERTEX
  8
0
  6
CONTINUOUS
 10
5.132600
 20
1.693120
  0
VERTEX
  8
0
  6
CONTINUOUS
 10
5.115880
 20
1.753400
  0
SEQEND
  8
0
  0
SOLID
  8
0
 62
     7
 10
5.132600
 20
1.693120
 11
5.767080
 21
2.060520
 12
5.149320
 22
1.625800
 13
5.783800
 23
1.992760
  0
POLYLINE
  8
0
  6
CONTINUOUS
 66
     1
 40
0.000000
 41
0.000000
  0
VERTEX
  8
0
  6
CONTINUOUS
 10
5.132600
 20
1.693120
  0
VERTEX
  8
0
  6
CONTINUOUS
 10
5.767080
 20
2.060520
  0
VERTEX
  8
0
  6
CONTINUOUS
 10
5.783800
 20
1.992760
  0
VERTEX
  8
0
  6
CONTINUOUS
 10
5.149320
 20
1.625800
  0
VERTEX
  8
0
  6
CONTINUOUS
 10
5.132600
 20
1.693120
  0
SEQEND
  8
0
  0
SOLID
  8
0
 62
     7
 10
5.149320
 20
1.625800
 11
5.783800
 21
1.992760
 12
5.166040
 22
1.559360
 13
5.800520
 23
1.926320
  0
POLYLINE
  8
0
  6
CONTINUOUS
 66
     1
 40
0.000000
 41
0.000000
  0
VERTEX
  8
0
  6
CONTINUOUS
 10
5.149320
 20
1.625800
  0
VERTEX
  8
0
  6
CONTINUOUS
 10
5.783800
 20
1.992760
  0
VERTEX
  8
0
  6
CONTINUOUS
 10
5.800520
 20
1.926320
  0
VERTEX
  8
0
  6
CONTINUOUS
 10
5.166040
 20
1.559360
  0
VERTEX
  8
0
  6
CONTINUOUS
 10
5.149320
 20
1.625800
  0
SEQEND
  8
0
  0
SOLID
  8
0
 62
     7
 10
5.166040
 20
1.559360
 11
5.800520
 21
1.926320
 12
5.183640
 22
1.501720
 13
5.818120
 23
1.869120
  0
POLYLINE
  8
0
  6
CONTINUOUS
 66
     1
 40
0.000000
 41
0.000000
  0
VERTEX
  8
0
  6
CONTINUOUS
 10
5.166040
 20
1.559360
  0
VERTEX
  8
0
  6
CONTINUOUS
 10
5.800520
 20
1.926320
  0
VERTEX
  8
0
  6
CONTINUOUS
 10
5.818120
 20
1.869120
  0
VERTEX
  8
0
  6
CONTINUOUS
 10
5.183640
 20
1.501720
  0
VERTEX
  8
0
  6
CONTINUOUS
 10
5.166040
 20
1.559360
  0
SEQEND
  8
0
  0
SOLID
  8
0
 62
     7
 10
5.183640
 20
1.501720
 11
5.818120
 21
1.869120
 12
5.201680
 22
1.452880
 13
5.836160
 23
1.819840
  0
POLYLINE
  8
0
  6
CONTINUOUS
 66
     1
 40
0.000000
 41
0.000000
  0
VERTEX
  8
0
  6
CONTINUOUS
 10
5.183640
 20
1.501720
  0
VERTEX
  8
0
  6
CONTINUOUS
 10
5.818120
 20
1.869120
  0
VERTEX
  8
0
  6
CONTINUOUS
 10
5.836160
 20
1.819840
  0
VERTEX
  8
0
  6
CONTINUOUS
 10
5.201680
 20
1.452880
  0
VERTEX
  8
0
  6
CONTINUOUS
 10
5.183640
 20
1.501720
  0
SEQEND
  8
0
  0
SOLID
  8
0
 62
    15
 10
4.656960
 20
2.194720
 11
5.291440
 21
2.561680
 12
4.816240
 22
2.194720
 13
5.450720
 23
2.561680
  0
POLYLINE
  8
0
  6
CONTINUOUS
 66
     1
 40
0.000000
 41
0.000000
  0
VERTEX
  8
0
  6
CONTINUOUS
 10
4.656960
 20
2.194720
  0
VERTEX
  8
0
  6
CONTINUOUS
 10
5.291440
 20
2.561680
  0
VERTEX
  8
0
  6
CONTINUOUS
 10
5.450720
 20
2.561680
  0
VERTEX
  8
0
  6
CONTINUOUS
 10
4.816240
 20
2.194720
  0
VERTEX
  8
0
  6
CONTINUOUS
 10
4.656960
 20
2.194720
  0
SEQEND
  8
0
  0
SOLID
  8
0
 62
     7
 10
5.220600
 20
1.411080
 11
5.855080
 21
1.778480
 12
5.240400
 22
1.376760
 13
5.874880
 23
1.743720
  0
POLYLINE
  8
0
  6
CONTINUOUS
 66
     1
 40
0.000000
 41
0.000000
  0
VERTEX
  8
0
  6
CONTINUOUS
 10
5.220600
 20
1.411080
  0
VERTEX
  8
0
  6
CONTINUOUS
 10
5.855080
 20
1.778480
  0
VERTEX
  8
0
  6
CONTINUOUS
 10
5.874880
 20
1.743720
  0
VERTEX
  8
0
  6
CONTINUOUS
 10
5.240400
 20
1.376760
  0
VERTEX
  8
0
  6
CONTINUOUS
 10
5.220600
 20
1.411080
  0
SEQEND
  8
0
  0
SOLID
  8
0
 62
     7
 10
5.240400
 20
1.376760
 11
5.874880
 21
1.743720
 12
5.260640
 22
1.348160
 13
5.895120
 23
1.715120
  0
POLYLINE
  8
0
  6
CONTINUOUS
 66
     1
 40
0.000000
 41
0.000000
  0
VERTEX
  8
0
  6
CONTINUOUS
 10
5.240400
 20
1.376760
  0
VERTEX
  8
0
  6
CONTINUOUS
 10
5.874880
 20
1.743720
  0
VERTEX
  8
0
  6
CONTINUOUS
 10
5.895120
 20
1.715120
  0
VERTEX
  8
0
  6
CONTINUOUS
 10
5.260640
 20
1.348160
  0
VERTEX
  8
0
  6
CONTINUOUS
 10
5.240400
 20
1.376760
  0
SEQEND
  8
0
  0
SOLID
  8
0
 62
     7
 10
5.260640
 20
1.348160
 11
5.895120
 21
1.715120
 12
5.281760
 22
1.325280
 13
5.916240
 23
1.692240
  0
POLYLINE
  8
0
  6
CONTINUOUS
 66
     1
 40
0.000000
 41
0.000000
  0
VERTEX
  8
0
  6
CONTINUOUS
 10
5.260640
 20
1.348160
  0
VERTEX
  8
0
  6
CONTINUOUS
 10
5.895120
 20
1.715120
  0
VERTEX
  8
0
  6
CONTINUOUS
 10
5.916240
 20
1.692240
  0
VERTEX
  8
0
  6
CONTINUOUS
 10
5.281760
 20
1.325280
  0
VERTEX
  8
0
  6
CONTINUOUS
 10
5.260640
 20
1.348160
  0
SEQEND
  8
0
  0
SOLID
  8
0
 62
     7
 10
5.281760
 20
1.325280
 11
5.916240
 21
1.692240
 12
5.303760
 22
1.306800
 13
5.938240
 23
1.673760
  0
POLYLINE
  8
0
  6
CONTINUOUS
 66
     1
 40
0.000000
 41
0.000000
  0
VERTEX
  8
0
  6
CONTINUOUS
 10
5.281760
 20
1.325280
  0
VERTEX
  8
0
  6
CONTINUOUS
 10
5.916240
 20
1.692240
  0
VERTEX
  8
0
  6
CONTINUOUS
 10
5.938240
 20
1.673760
  0
VERTEX
  8
0
  6
CONTINUOUS
 10
5.303760
 20
1.306800
  0
VERTEX
  8
0
  6
CONTINUOUS
 10
5.281760
 20
1.325280
  0
SEQEND
  8
0
  0
SOLID
  8
0
 62
     7
 10
5.303760
 20
1.306800
 11
5.938240
 21
1.673760
 12
5.350400
 22
1.280840
 13
5.984880
 23
1.648240
  0
POLYLINE
  8
0
  6
CONTINUOUS
 66
     1
 40
0.000000
 41
0.000000
  0
VERTEX
  8
0
  6
CONTINUOUS
 10
5.303760
 20
1.306800
  0
VERTEX
  8
0
  6
CONTINUOUS
 10
5.938240
 20
1.673760
  0
VERTEX
  8
0
  6
CONTINUOUS
 10
5.984880
 20
1.648240
  0
VERTEX
  8
0
  6
CONTINUOUS
 10
5.350400
 20
1.280840
  0
VERTEX
  8
0
  6
CONTINUOUS
 10
5.303760
 20
1.306800
  0
SEQEND
  8
0
  0
SOLID
  8
0
 62
    15
 10
5.350400
 20
1.280840
 11
5.984880
 21
1.648240
 12
5.400560
 22
1.265000
 13
6.035040
 23
1.632400
  0
POLYLINE
  8
0
  6
CONTINUOUS
 66
     1
 40
0.000000
 41
0.000000
  0
VERTEX
  8
0
  6
CONTINUOUS
 10
5.350400
 20
1.280840
  0
VERTEX
  8
0
  6
CONTINUOUS
 10
5.984880
 20
1.648240
  0
VERTEX
  8
0
  6
CONTINUOUS
 10
6.035040
 20
1.632400
  0
VERTEX
  8
0
  6
CONTINUOUS
 10
5.400560
 20
1.265000
  0
VERTEX
  8
0
  6
CONTINUOUS
 10
5.350400
 20
1.280840
  0
SEQEND
  8
0
  0
SOLID
  8
0
 62
    15
 10
5.400560
 20
1.265000
 11
6.035040
 21
1.632400
 12
5.426960
 22
1.259280
 13
6.061440
 23
1.626240
  0
POLYLINE
  8
0
  6
CONTINUOUS
 66
     1
 40
0.000000
 41
0.000000
  0
VERTEX
  8
0
  6
CONTINUOUS
 10
5.400560
 20
1.265000
  0
VERTEX
  8
0
  6
CONTINUOUS
 10
6.035040
 20
1.632400
  0
VERTEX
  8
0
  6
CONTINUOUS
 10
6.061440
 20
1.626240
  0
VERTEX
  8
0
  6
CONTINUOUS
 10
5.426960
 20
1.259280
  0
VERTEX
  8
0
  6
CONTINUOUS
 10
5.400560
 20
1.265000
  0
SEQEND
  8
0
  0
SOLID
  8
0
 62
    15
 10
5.426960
 20
1.259280
 11
6.061440
 21
1.626240
 12
5.440160
 22
1.256200
 13
6.074640
 23
1.623160
  0
POLYLINE
  8
0
  6
CONTINUOUS
 66
     1
 40
0.000000
 41
0.000000
  0
VERTEX
  8
0
  6
CONTINUOUS
 10
5.426960
 20
1.259280
  0
VERTEX
  8
0
  6
CONTINUOUS
 10
6.061440
 20
1.626240
  0
VERTEX
  8
0
  6
CONTINUOUS
 10
6.074640
 20
1.623160
  0
VERTEX
  8
0
  6
CONTINUOUS
 10
5.440160
 20
1.256200
  0
VERTEX
  8
0
  6
CONTINUOUS
 10
5.426960
 20
1.259280
  0
SEQEND
  8
0
  0
SOLID
  8
0
 62
    15
 10
5.440160
 20
1.256200
 11
6.074640
 21
1.623160
 12
5.454240
 22
1.253560
 13
6.088720
 23
1.620520
  0
POLYLINE
  8
0
  6
CONTINUOUS
 66
     1
 40
0.000000
 41
0.000000
  0
VERTEX
  8
0
  6
CONTINUOUS
 10
5.440160
 20
1.256200
  0
VERTEX
  8
0
  6
CONTINUOUS
 10
6.074640
 20
1.623160
  0
VERTEX
  8
0
  6
CONTINUOUS
 10
6.088720
 20
1.620520
  0
VERTEX
  8
0
  6
CONTINUOUS
 10
5.454240
 20
1.253560
  0
VERTEX
  8
0
  6
CONTINUOUS
 10
5.440160
 20
1.256200
  0
SEQEND
  8
0
  0
SOLID
  8
0
 62
    15
 10
5.454240
 20
1.253560
 11
6.088720
 21
1.620520
 12
5.511880
 22
1.239480
 13
6.146360
 23
1.606880
  0
POLYLINE
  8
0
  6
CONTINUOUS
 66
     1
 40
0.000000
 41
0.000000
  0
VERTEX
  8
0
  6
CONTINUOUS
 10
5.454240
 20
1.253560
  0
VERTEX
  8
0
  6
CONTINUOUS
 10
6.088720
 20
1.620520
  0
VERTEX
  8
0
  6
CONTINUOUS
 10
6.146360
 20
1.606880
  0
VERTEX
  8
0
  6
CONTINUOUS
 10
5.511880
 20
1.239480
  0
VERTEX
  8
0
  6
CONTINUOUS
 10
5.454240
 20
1.253560
  0
SEQEND
  8
0
  0
SOLID
  8
0
 62
    15
 10
5.442800
 20
1.006720
 11
6.077280
 21
1.373680
 12
5.415960
 22
0.990000
 13
6.050440
 23
1.356960
  0
POLYLINE
  8
0
  6
CONTINUOUS
 66
     1
 40
0.000000
 41
0.000000
  0
VERTEX
  8
0
  6
CONTINUOUS
 10
5.442800
 20
1.006720
  0
VERTEX
  8
0
  6
CONTINUOUS
 10
6.077280
 20
1.373680
  0
VERTEX
  8
0
  6
CONTINUOUS
 10
6.050440
 20
1.356960
  0
VERTEX
  8
0
  6
CONTINUOUS
 10
5.415960
 20
0.990000
  0
VERTEX
  8
0
  6
CONTINUOUS
 10
5.442800
 20
1.006720
  0
SEQEND
  8
0
  0
SOLID
  8
0
 62
    15
 10
5.415960
 20
0.990000
 11
6.050440
 21
1.356960
 12
5.394400
 22
0.967560
 13
6.028880
 23
1.334520
  0
POLYLINE
  8
0
  6
CONTINUOUS
 66
     1
 40
0.000000
 41
0.000000
  0
VERTEX
  8
0
  6
CONTINUOUS
 10
5.415960
 20
0.990000
  0
VERTEX
  8
0
  6
CONTINUOUS
 10
6.050440
 20
1.356960
  0
VERTEX
  8
0
  6
CONTINUOUS
 10
6.028880
 20
1.334520
  0
VERTEX
  8
0
  6
CONTINUOUS
 10
5.394400
 20
0.967560
  0
VERTEX
  8
0
  6
CONTINUOUS
 10
5.415960
 20
0.990000
  0
SEQEND
  8
0
  0
SOLID
  8
0
 62
    15
 10
5.394400
 20
0.967560
 11
6.028880
 21
1.334520
 12
5.378560
 22
0.939400
 13
6.013040
 23
1.306800
  0
POLYLINE
  8
0
  6
CONTINUOUS
 66
     1
 40
0.000000
 41
0.000000
  0
VERTEX
  8
0
  6
CONTINUOUS
 10
5.394400
 20
0.967560
  0
VERTEX
  8
0
  6
CONTINUOUS
 10
6.028880
 20
1.334520
  0
VERTEX
  8
0
  6
CONTINUOUS
 10
6.013040
 20
1.306800
  0
VERTEX
  8
0
  6
CONTINUOUS
 10
5.378560
 20
0.939400
  0
VERTEX
  8
0
  6
CONTINUOUS
 10
5.394400
 20
0.967560
  0
SEQEND
  8
0
  0
SOLID
  8
0
 62
    15
 10
5.511880
 20
1.239480
 11
6.146360
 21
1.606880
 12
5.511880
 22
1.024320
 13
6.146360
 23
1.391720
  0
POLYLINE
  8
0
  6
CONTINUOUS
 66
     1
 40
0.000000
 41
0.000000
  0
VERTEX
  8
0
  6
CONTINUOUS
 10
5.511880
 20
1.239480
  0
VERTEX
  8
0
  6
CONTINUOUS
 10
6.146360
 20
1.606880
  0
VERTEX
  8
0
  6
CONTINUOUS
 10
6.146360
 20
1.391720
  0
VERTEX
  8
0
  6
CONTINUOUS
 10
5.511880
 20
1.024320
  0
VERTEX
  8
0
  6
CONTINUOUS
 10
5.511880
 20
1.239480
  0
SEQEND
  8
0
  0
SOLID
  8
0
 62
    15
 10
5.378560
 20
0.939400
 11
6.013040
 21
1.306800
 12
5.367560
 22
0.906400
 13
6.002040
 23
1.273360
  0
POLYLINE
  8
0
  6
CONTINUOUS
 66
     1
 40
0.000000
 41
0.000000
  0
VERTEX
  8
0
  6
CONTINUOUS
 10
5.378560
 20
0.939400
  0
VERTEX
  8
0
  6
CONTINUOUS
 10
6.013040
 20
1.306800
  0
VERTEX
  8
0
  6
CONTINUOUS
 10
6.002040
 20
1.273360
  0
VERTEX
  8
0
  6
CONTINUOUS
 10
5.367560
 20
0.906400
  0
VERTEX
  8
0
  6
CONTINUOUS
 10
5.378560
 20
0.939400
  0
SEQEND
  8
0
  0
SOLID
  8
0
 62
    15
 10
5.367560
 20
0.906400
 11
6.002040
 21
1.273360
 12
5.361840
 22
0.867680
 13
5.996320
 23
1.235080
  0
POLYLINE
  8
0
  6
CONTINUOUS
 66
     1
 40
0.000000
 41
0.000000
  0
VERTEX
  8
0
  6
CONTINUOUS
 10
5.367560
 20
0.906400
  0
VERTEX
  8
0
  6
CONTINUOUS
 10
6.002040
 20
1.273360
  0
VERTEX
  8
0
  6
CONTINUOUS
 10
5.996320
 20
1.235080
  0
VERTEX
  8
0
  6
CONTINUOUS
 10
5.361840
 20
0.867680
  0
VERTEX
  8
0
  6
CONTINUOUS
 10
5.367560
 20
0.906400
  0
SEQEND
  8
0
  0
SOLID
  8
0
 62
    15
 10
5.361840
 20
0.867680
 11
5.996320
 21
1.235080
 12
5.361400
 22
0.824120
 13
5.995880
 23
1.191080
  0
POLYLINE
  8
0
  6
CONTINUOUS
 66
     1
 40
0.000000
 41
0.000000
  0
VERTEX
  8
0
  6
CONTINUOUS
 10
5.361840
 20
0.867680
  0
VERTEX
  8
0
  6
CONTINUOUS
 10
5.996320
 20
1.235080
  0
VERTEX
  8
0
  6
CONTINUOUS
 10
5.995880
 20
1.191080
  0
VERTEX
  8
0
  6
CONTINUOUS
 10
5.361400
 20
0.824120
  0
VERTEX
  8
0
  6
CONTINUOUS
 10
5.361840
 20
0.867680
  0
SEQEND
  8
0
  0
POLYLINE
  8
0
  6
CONTINUOUS
 66
     1
 40
0.000000
 41
0.000000
  0
VERTEX
  8
0
  6
CONTINUOUS
 10
4.656960
 20
0.824120
  0
VERTEX
  8
0
  6
CONTINUOUS
 10
4.656960
 20
2.194720
  0
VERTEX
  8
0
  6
CONTINUOUS
 10
4.816240
 20
2.194720
  0
VERTEX
  8
0
  6
CONTINUOUS
 10
4.816240
 20
2.053040
  0
VERTEX
  8
0
  6
CONTINUOUS
 10
4.872560
 20
2.050400
  0
VERTEX
  8
0
  6
CONTINUOUS
 10
4.922720
 20
2.039840
  0
VERTEX
  8
0
  6
CONTINUOUS
 10
4.968040
 20
2.018280
  0
VERTEX
  8
0
  6
CONTINUOUS
 10
4.989160
 20
2.002000
  0
VERTEX
  8
0
  6
CONTINUOUS
 10
5.009400
 20
1.982200
  0
VERTEX
  8
0
  6
CONTINUOUS
 10
5.028320
 20
1.957560
  0
VERTEX
  8
0
  6
CONTINUOUS
 10
5.046800
 20
1.928080
  0
VERTEX
  8
0
  6
CONTINUOUS
 10
5.064840
 20
1.893320
  0
VERTEX
  8
0
  6
CONTINUOUS
 10
5.082440
 20
1.852840
  0
VERTEX
  8
0
  6
CONTINUOUS
 10
5.099160
 20
1.806640
  0
VERTEX
  8
0
  6
CONTINUOUS
 10
5.115880
 20
1.753400
  0
VERTEX
  8
0
  6
CONTINUOUS
 10
5.132600
 20
1.693120
  0
VERTEX
  8
0
  6
CONTINUOUS
 10
5.149320
 20
1.625800
  0
VERTEX
  8
0
  6
CONTINUOUS
 10
5.166040
 20
1.559360
  0
VERTEX
  8
0
  6
CONTINUOUS
 10
5.183640
 20
1.501720
  0
VERTEX
  8
0
  6
CONTINUOUS
 10
5.201680
 20
1.452880
  0
VERTEX
  8
0
  6
CONTINUOUS
 10
5.220600
 20
1.411080
  0
VERTEX
  8
0
  6
CONTINUOUS
 10
5.240400
 20
1.376760
  0
VERTEX
  8
0
  6
CONTINUOUS
 10
5.260640
 20
1.348160
  0
VERTEX
  8
0
  6
CONTINUOUS
 10
5.281760
 20
1.325280
  0
VERTEX
  8
0
  6
CONTINUOUS
 10
5.303760
 20
1.306800
  0
VERTEX
  8
0
  6
CONTINUOUS
 10
5.350400
 20
1.280840
  0
VERTEX
  8
0
  6
CONTINUOUS
 10
5.400560
 20
1.265000
  0
VERTEX
  8
0
  6
CONTINUOUS
 10
5.426960
 20
1.259280
  0
VERTEX
  8
0
  6
CONTINUOUS
 10
5.440160
 20
1.256200
  0
VERTEX
  8
0
  6
CONTINUOUS
 10
5.454240
 20
1.253560
  0
VERTEX
  8
0
  6
CONTINUOUS
 10
5.511880
 20
1.239480
  0
VERTEX
  8
0
  6
CONTINUOUS
 10
5.511880
 20
1.024320
  0
VERTEX
  8
0
  6
CONTINUOUS
 10
5.474480
 20
1.018600
  0
VERTEX
  8
0
  6
CONTINUOUS
 10
5.442800
 20
1.006720
  0
VERTEX
  8
0
  6
CONTINUOUS
 10
5.415960
 20
0.990000
  0
VERTEX
  8
0
  6
CONTINUOUS
 10
5.394400
 20
0.967560
  0
VERTEX
  8
0
  6
CONTINUOUS
 10
5.378560
 20
0.939400
  0
VERTEX
  8
0
  6
CONTINUOUS
 10
5.367560
 20
0.906400
  0
VERTEX
  8
0
  6
CONTINUOUS
 10
5.361840
 20
0.867680
  0
VERTEX
  8
0
  6
CONTINUOUS
 10
5.361400
 20
0.824120
  0
VERTEX
  8
0
  6
CONTINUOUS
 10
4.656960
 20
0.824120
  0
SEQEND
  8
0
  0
TEXT
  8
0
 10
5.106640
 20
0.588280
 40
0.138046
  1
BA  459
 41
1.000000
  7
SN0
 71
     0
 72
     5
 11
5.696168
 21
0.588280
  0
TEXT
  8
0
 10
4.950880
 20
0.396880
 40
0.138046
  1
7/8" x 1-3/8"
 41
1.000000
  7
SN0
 71
     0
 72
     5
 11
5.849961
 21
0.396880
  0
ENDSEC
  0
EOF
